  0
SECTION
  2
HEADER
  9
$ACADVER
  1
AC1015
  9
$ACADMAINTVER
 70
     6
  9
$DWGCODEPAGE
  3
ANSI_1252
  9
$INSBASE
 10
0.0
 20
0.0
 30
0.0
  9
$EXTMIN
 10
0.0
 20
0.0
 30
0.0
  9
$EXTMAX
 10
1000.0
 20
800.0
 30
0.0
  9
$LIMMIN
 10
0.0
 20
0.0
  9
$LIMMAX
 10
1000.0
 20
800.0
  9
$ORTHOMODE
 70
     0
  9
$REGENMODE
 70
     1
  9
$FILLMODE
 70
     1
  9
$QTEXTMODE
 70
     0
  9
$MIRRTEXT
 70
     1
  9
$LTSCALE
 40
1.0
  9
$ATTMODE
 70
     1
  9
$TEXTSIZE
 40
2.8222222222
  9
$TRACEWID
 40
1.0
  9
$TEXTSTYLE
  7
Standard
  9
$CLAYER
  8
0
  9
$CELTYPE
  6
ByLayer
  9
$CECOLOR
 62
   256
  9
$CELTSCALE
 40
1.0
  9
$DISPSILH
 70
     0
  9
$DIMSCALE
 40
1.0
  9
$DIMASZ
 40
2.0
  9
$DIMEXO
 40
1.0
  9
$DIMDLI
 40
3.75
  9
$DIMRND
 40
0.0
  9
$DIMDLE
 40
0.0
  9
$DIMEXE
 40
1.0
  9
$DIMTP
 40
0.0
  9
$DIMTM
 40
0.0
  9
$DIMTXT
 40
8.4666666667
  9
$DIMCEN
 40
2.5
  9
$DIMTSZ
 40
0.0
  9
$DIMTOL
 70
     0
  9
$DIMLIM
 70
     0
  9
$DIMTIH
 70
     1
  9
$DIMTOH
 70
     1
  9
$DIMSE1
 70
     0
  9
$DIMSE2
 70
     0
  9
$DIMTAD
 70
     1
  9
$DIMZIN
 70
     0
  9
$DIMBLK
  1

  9
$DIMASO
 70
     1
  9
$DIMSHO
 70
     1
  9
$DIMPOST
  1

  9
$DIMAPOST
  1

  9
$DIMALT
 70
     0
  9
$DIMALTD
 70
     3
  9
$DIMALTF
 40
0.0393700787
  9
$DIMLFAC
 40
1.0
  9
$DIMTOFL
 70
     1
  9
$DIMTVP
 40
0.0
  9
$DIMTIX
 70
     0
  9
$DIMSOXD
 70
     0
  9
$DIMSAH
 70
     0
  9
$DIMBLK1
  1

  9
$DIMBLK2
  1

  9
$DIMSTYLE
  2
ISO-25
  9
$DIMCLRD
 70
     0
  9
$DIMCLRE
 70
     0
  9
$DIMCLRT
 70
     0
  9
$DIMTFAC
 40
1.0
  9
$DIMGAP
 40
1.524
  9
$DIMJUST
 70
     0
  9
$DIMSD1
 70
     0
  9
$DIMSD2
 70
     0
  9
$DIMTOLJ
 70
     0
  9
$DIMTZIN
 70
     0
  9
$DIMALTZ
 70
     0
  9
$DIMALTTZ
 70
     0
  9
$DIMUPT
 70
     0
  9
$DIMDEC
 70
     2
  9
$DIMTDEC
 70
     2
  9
$DIMALTU
 70
     2
  9
$DIMALTTD
 70
     3
  9
$DIMTXSTY
  7
Standard
  9
$DIMAUNIT
 70
     0
  9
$DIMADEC
 70
     2
  9
$DIMALTRND
 40
0.0
  9
$DIMAZIN
 70
     0
  9
$DIMDSEP
 70
    44
  9
$DIMATFIT
 70
     3
  9
$DIMFRAC
 70
     0
  9
$DIMLDRBLK
  1

  9
$DIMLUNIT
 70
     2
  9
$DIMLWD
 70
    -2
  9
$DIMLWE
 70
    -2
  9
$DIMTMOVE
 70
     0
  9
$LUNITS
 70
     2
  9
$LUPREC
 70
     2
  9
$SKETCHINC
 40
1.0
  9
$FILLETRAD
 40
10.0
  9
$AUNITS
 70
     0
  9
$AUPREC
 70
     2
  9
$MENU
  1
.
  9
$ELEVATION
 40
0.0
  9
$PELEVATION
 40
0.0
  9
$THICKNESS
 40
0.0
  9
$LIMCHECK
 70
     0
  9
$CHAMFERA
 40
0.0
  9
$CHAMFERB
 40
0.0
  9
$CHAMFERC
 40
0.0
  9
$CHAMFERD
 40
0.0
  9
$SKPOLY
 70
     0
  9
$TDCREATE
 40
2458484.389479931
  9
$TDUCREATE
 40
2458484.306146597
  9
$TDUPDATE
 40
2458484.38948132
  9
$TDUUPDATE
 40
2458484.306147986
  9
$TDINDWG
 40
0.0000000116
  9
$TDUSRTIMER
 40
0.0000000116
  9
$USRTIMER
 70
     1
  9
$ANGBASE
 50
0.0
  9
$ANGDIR
 70
     0
  9
$PDMODE
 70
     0
  9
$PDSIZE
 40
-1.0
  9
$PLINEWID
 40
0.0
  9
$SPLFRAME
 70
     0
  9
$SPLINETYPE
 70
     6
  9
$SPLINESEGS
 70
     8
  9
$HANDSEED
  5
310
  9
$SURFTAB1
 70
     6
  9
$SURFTAB2
 70
     6
  9
$SURFTYPE
 70
     6
  9
$SURFU
 70
     6
  9
$SURFV
 70
     6
  9
$UCSBASE
  2

  9
$UCSNAME
  2

  9
$UCSORG
 10
0.0
 20
0.0
 30
0.0
  9
$UCSXDIR
 10
1.0
 20
0.0
 30
0.0
  9
$UCSYDIR
 10
0.0
 20
1.0
 30
0.0
  9
$UCSORTHOREF
  2

  9
$UCSORTHOVIEW
 70
     0
  9
$UCSORGTOP
 10
0.0
 20
0.0
 30
0.0
  9
$UCSORGBOTTOM
 10
0.0
 20
0.0
 30
0.0
  9
$UCSORGLEFT
 10
0.0
 20
0.0
 30
0.0
  9
$UCSORGRIGHT
 10
0.0
 20
0.0
 30
0.0
  9
$UCSORGFRONT
 10
0.0
 20
0.0
 30
0.0
  9
$UCSORGBACK
 10
0.0
 20
0.0
 30
0.0
  9
$PUCSBASE
  2

  9
$PUCSNAME
  2

  9
$PUCSORG
 10
0.0
 20
0.0
 30
0.0
  9
$PUCSXDIR
 10
1.0
 20
0.0
 30
0.0
  9
$PUCSYDIR
 10
0.0
 20
1.0
 30
0.0
  9
$PUCSORTHOREF
  2

  9
$PUCSORTHOVIEW
 70
     0
  9
$PUCSORGTOP
 10
0.0
 20
0.0
 30
0.0
  9
$PUCSORGBOTTOM
 10
0.0
 20
0.0
 30
0.0
  9
$PUCSORGLEFT
 10
0.0
 20
0.0
 30
0.0
  9
$PUCSORGRIGHT
 10
0.0
 20
0.0
 30
0.0
  9
$PUCSORGFRONT
 10
0.0
 20
0.0
 30
0.0
  9
$PUCSORGBACK
 10
0.0
 20
0.0
 30
0.0
  9
$USERI1
 70
     0
  9
$USERI2
 70
     0
  9
$USERI3
 70
     0
  9
$USERI4
 70
     0
  9
$USERI5
 70
     0
  9
$USERR1
 40
0.0
  9
$USERR2
 40
0.0
  9
$USERR3
 40
0.0
  9
$USERR4
 40
0.0
  9
$USERR5
 40
0.0
  9
$WORLDVIEW
 70
     1
  9
$SHADEDGE
 70
     3
  9
$SHADEDIF
 70
    70
  9
$TILEMODE
 70
     1
  9
$MAXACTVP
 70
    64
  9
$PINSBASE
 10
0.0
 20
0.0
 30
0.0
  9
$PLIMCHECK
 70
     0
  9
$PEXTMIN
 10
1.0000000000E+20
 20
1.0000000000E+20
 30
1.0000000000E+20
  9
$PEXTMAX
 10
-1.0000000000E+20
 20
-1.0000000000E+20
 30
-1.0000000000E+20
  9
$PLIMMIN
 10
0.0
 20
0.0
  9
$PLIMMAX
 10
420.0
 20
297.0
  9
$UNITMODE
 70
     0
  9
$VISRETAIN
 70
     1
  9
$PLINEGEN
 70
     0
  9
$PSLTSCALE
 70
     1
  9
$TREEDEPTH
 70
  3020
  9
$CMLSTYLE
  2
Standard
  9
$CMLJUST
 70
     0
  9
$CMLSCALE
 40
20.0
  9
$PROXYGRAPHICS
 70
     1
  9
$MEASUREMENT
 70
     1
  9
$CELWEIGHT
370
    -1
  9
$ENDCAPS
280
     0
  9
$JOINSTYLE
280
     0
  9
$LWDISPLAY
290
     1
  9
$INSUNITS
 70
     4
  9
$HYPERLINKBASE
  1

  9
$STYLESHEET
  1

  9
$XEDIT
290
     1
  9
$CEPSNTYPE
380
     0
  9
$PSTYLEMODE
290
     1
  9
$FINGERPRINTGUID
  2
{862EC0CE-512B-41B5-8D2B-72E5C7C62709}
  9
$VERSIONGUID
  2
{FAEB1C32-E019-11D5-929B-00C0DF256EC4}
  9
$EXTNAMES
290
     1
  9
$PSVPSCALE
 40
0.0
  9
$OLESTARTUP
290
     0
  0
ENDSEC
  0
SECTION
  2
CLASSES
  0
CLASS
  1
ACDBDICTIONARYWDFLT
  2
AcDbDictionaryWithDefault
  3
ObjectDBX Classes
 90
        0
280
     0
281
     0
  0
CLASS
  1
VISUALSTYLE
  2
AcDbVisualStyle
  3
ObjectDBX Classes
 90
     4095
280
     0
281
     0
  0
CLASS
  1
MATERIAL
  2
AcDbMaterial
  3
ObjectDBX Classes
 90
     1153
280
     0
281
     0
  0
CLASS
  1
SCALE
  2
AcDbScale
  3
ObjectDBX Classes
 90
     1153
280
     0
281
     0
  0
CLASS
  1
TABLESTYLE
  2
AcDbTableStyle
  3
ObjectDBX Classes
 90
     4095
280
     0
281
     0
  0
CLASS
  1
MLEADERSTYLE
  2
AcDbMLeaderStyle
  3
ACDB_MLEADERSTYLE_CLASS
 90
     4095
280
     0
281
     0
  0
CLASS
  1
SUN
  2
AcDbSun
  3
SCENEOE
 90
     1153
280
     0
281
     0
  0
CLASS
  1
ACDBPLACEHOLDER
  2
AcDbPlaceHolder
  3
ObjectDBX Classes
 90
        0
280
     0
281
     0
  0
CLASS
  1
LAYOUT
  2
AcDbLayout
  3
ObjectDBX Classes
 90
        0
280
     0
281
     0
  0
ENDSEC
  0
SECTION
  2
TABLES
  0
TABLE
  2
VPORT
  5
8
330
0
100
AcDbSymbolTable
 70
     1
  0
VPORT
  5
29
330
8
100
AcDbSymbolTableRecord
100
AcDbViewportTableRecord
  2
*Active
 70
     0
 10
0.0
 20
0.0
 11
1.0
 21
1.0
 12
500.0
 22
400.0
 13
0.0
 23
0.0
 14
10.0
 24
10.0
 15
10.0
 25
10.0
 16
0.0
 26
0.0
 36
1.0
 17
0.0
 27
0.0
 37
0.0
 40
800.0
 41
1.25
 42
50.0
 43
0.0
 44
0.0
 50
0.0
 51
0.0
 71
     0
 72
  2000
 73
     1
 74
     3
 75
     0
 76
     0
 77
     0
 78
     0
281
     0
 65
     1
110
0.0
120
0.0
130
0.0
111
1.0
121
0.0
131
0.0
112
0.0
122
1.0
132
0.0
 79
     0
146
0.0
  0
ENDTAB
  0
TABLE
  2
LTYPE
  5
5
330
0
100
AcDbSymbolTable
 70
     6
  0
LTYPE
  5
14
330
5
100
AcDbSymbolTableRecord
100
AcDbLinetypeTableRecord
  2
ByBlock
 70
     0
  3

 72
    65
 73
     0
 40
0.0
  0
LTYPE
  5
15
330
5
100
AcDbSymbolTableRecord
100
AcDbLinetypeTableRecord
  2
ByLayer
 70
     0
  3

 72
    65
 73
     0
 40
0.0
  0
LTYPE
  5
16
330
5
100
AcDbSymbolTableRecord
100
AcDbLinetypeTableRecord
  2
Continuous
 70
     0
  3
Solid line
 72
    65
 73
     0
 40
0.0
  0
LTYPE
  5
6E
330
5
100
AcDbSymbolTableRecord
100
AcDbLinetypeTableRecord
  2
HIDDEN
 70
     0
  3
Hidden __ __ __ __ __ __ __ __ __ __ __ __ __ __
 72
    65
 73
     2
 40
1.905
 49
1.27
 74
     0
 49
-0.635
 74
     0
  0
LTYPE
  5
6F
330
5
100
AcDbSymbolTableRecord
100
AcDbLinetypeTableRecord
  2
PHANTOM
 70
     0
  3
Phantom ______  __  __  ______  __  __  ______
 72
    65
 73
     6
 40
12.7
 49
6.35
 74
     0
 49
-1.27
 74
     0
 49
1.27
 74
     0
 49
-1.27
 74
     0
 49
1.27
 74
     0
 49
-1.27
 74
     0
  0
LTYPE
  5
70
330
5
100
AcDbSymbolTableRecord
100
AcDbLinetypeTableRecord
  2
CENTER
 70
     0
  3
Center ____ _ ____ _ ____ _ ____ _ ____ _ ____
 72
    65
 73
     4
 40
10.16
 49
6.35
 74
     0
 49
-1.27
 74
     0
 49
1.27
 74
     0
 49
-1.27
 74
     0
  0
LTYPE
  5
71
330
5
100
AcDbSymbolTableRecord
100
AcDbLinetypeTableRecord
  2
CENTERX2
 70
     0
  3
Center (2x) ________  __  ________  __  _____
 72
    65
 73
     4
 40
20.32
 49
12.7
 74
     0
 49
-2.54
 74
     0
 49
2.54
 74
     0
 49
-2.54
 74
     0
  0
LTYPE
  5
72
330
5
100
AcDbSymbolTableRecord
100
AcDbLinetypeTableRecord
  2
DOT2
 70
     0
  3
Dot (.5x) ........................................
 72
    65
 73
     2
 40
0.635
 49
0.0
 74
     0
 49
-0.635
 74
     0
  0
ENDTAB
  0
TABLE
  2
LAYER
  5
2
330
0
100
AcDbSymbolTable
 70
     2
  0
LAYER
  5
10
330
2
100
AcDbSymbolTableRecord
100
AcDbLayerTableRecord
  2
0
 70
     0
 62
     7
  6
Continuous
370
    -3
390
F
  0
LAYER
  5
73
330
2
100
AcDbSymbolTableRecord
100
AcDbLayerTableRecord
  2
TABLE_BL1
 70
     0
 62
   179
  6
Continuous
370
    -3
390
F
  0
ENDTAB
  0
TABLE
  2
STYLE
  5
3
330
0
100
AcDbSymbolTable
 70
     1
  0
STYLE
  5
11
330
3
100
AcDbSymbolTableRecord
100
AcDbTextStyleTableRecord
  2
Standard
 70
     0
 40
0.0
 41
1.0
 50
0.0
 71
     0
 42
2.8222222222
  3
txt
  4

  0
ENDTAB
  0
TABLE
  2
VIEW
  5
6
330
0
100
AcDbSymbolTable
 70
     0
  0
ENDTAB
  0
TABLE
  2
UCS
  5
7
330
0
100
AcDbSymbolTable
 70
     0
  0
ENDTAB
  0
TABLE
  2
APPID
  5
9
330
0
100
AcDbSymbolTable
 70
     1
  0
APPID
  5
12
330
9
100
AcDbSymbolTableRecord
100
AcDbRegAppTableRecord
  2
ACAD
 70
     0
  0
ENDTAB
  0
TABLE
  2
DIMSTYLE
  5
A
330
0
100
AcDbSymbolTable
 70
     1
100
AcDbDimStyleTable
  0
DIMSTYLE
105
27
330
A
100
AcDbSymbolTableRecord
100
AcDbDimStyleTableRecord
  2
ISO-25
 70
     0
 41
2.5
 42
0.625
 43
3.75
 44
1.25
 73
     0
 74
     0
 77
     1
 78
     8
140
2.5
141
2.5
143
0.0393700787
147
0.625
171
     3
172
     1
178
     0
271
     2
272
     2
274
     3
278
    44
283
     0
284
     8
340
11
  0
ENDTAB
  0
TABLE
  2
BLOCK_RECORD
  5
1
330
0
100
AcDbSymbolTable
 70
     1
  0
BLOCK_RECORD
  5
1F
330
1
100
AcDbSymbolTableRecord
100
AcDbBlockTableRecord
  2
*Model_Space
340
22
  0
BLOCK_RECORD
  5
1B
330
1
100
AcDbSymbolTableRecord
100
AcDbBlockTableRecord
  2
*Paper_Space
340
1E
  0
BLOCK_RECORD
  5
23
330
1
100
AcDbSymbolTableRecord
100
AcDbBlockTableRecord
  2
*Paper_Space0
340
26
  0
ENDTAB
  0
ENDSEC
  0
SECTION
  2
BLOCKS
  0
BLOCK
  5
20
330
1F
100
AcDbEntity
  8
0
100
AcDbBlockBegin
  2
*Model_Space
 70
     0
 10
0.0
 20
0.0
 30
0.0
  3
*Model_Space
  1

  0
ENDBLK
  5
21
330
1F
100
AcDbEntity
  8
0
100
AcDbBlockEnd
  0
BLOCK
  5
1C
330
1B
100
AcDbEntity
 67
     1
  8
0
100
AcDbBlockBegin
  2
*Paper_Space
 70
     0
 10
0.0
 20
0.0
 30
0.0
  3
*Paper_Space
  1

  0
ENDBLK
  5
1D
330
1B
100
AcDbEntity
 67
     1
  8
0
100
AcDbBlockEnd
  0
BLOCK
  5
24
330
23
100
AcDbEntity
  8
0
100
AcDbBlockBegin
  2
*Paper_Space0
 70
     0
 10
0.0
 20
0.0
 30
0.0
  3
*Paper_Space0
  1

  0
ENDBLK
  5
25
330
23
100
AcDbEntity
  8
0
100
AcDbBlockEnd
  0
ENDSEC
  0
SECTION
  2
ENTITIES
  0
SPLINE
  5
74
330
1F
100
AcDbEntity
  8
0
  6
Continuous
 62
     7
370
    25
100
AcDbSpline
210
0.0
220
0.0
230
1.0
 70
     8
 71
     3
 72
    18
 73
    14
 74
     0
 42
0.000000001
 43
0.00000001
 40
0.0
 40
0.0
 40
0.0
 40
0.0
 40
0.1181634643302434
 40
0.2417302825513256
 40
0.3519954762725433
 40
0.4393435131794045
 40
0.554033153985867
 40
0.6249960434556208
 40
0.7018579863703085
 40
0.7811807109845501
 40
0.8592625456797122
 40
0.9329153081842387
 40
0.9999999999999999
 40
0.9999999999999999
 40
0.9999999999999999
 40
0.9999999999999999
 10
430.8217420404565
 20
418.9663477158879
 30
0.0
 10
431.8849022641318
 20
418.6151255062476
 30
0.0
 10
434.0598386772021
 20
417.8966204720911
 30
0.0
 10
437.4410026484393
 20
418.4322645890024
 30
0.0
 10
440.1172802341496
 20
419.9104958780713
 30
0.0
 10
442.1434861359692
 20
422.07121600966
 30
0.0
 10
443.2487145043511
 20
424.4454993532683
 30
0.0
 10
443.6029407482525
 20
426.8972755450909
 30
0.0
 10
443.4150230582684
 20
429.0378891063598
 30
0.0
 10
442.6914447185049
 20
431.1355205840139
 30
0.0
 10
441.4907436036747
 20
432.9579883484881
 30
0.0
 10
439.9923158521675
 20
434.3958030622977
 30
0.0
 10
438.8238961523174
 20
435.0169514313901
 30
0.0
 10
438.2669507687699
 20
435.3130314416026
 30
0.0
  0
SPLINE
  5
75
330
1F
100
AcDbEntity
  8
0
  6
Continuous
 62
     7
370
    25
100
AcDbSpline
210
0.0
220
0.0
230
1.0
 70
     8
 71
     3
 72
    18
 73
    14
 74
     0
 42
0.000000001
 43
0.00000001
 40
0.0
 40
0.0
 40
0.0
 40
0.0
 40
0.1181634643302434
 40
0.2417302825513256
 40
0.3519954762725433
 40
0.4393435131794045
 40
0.554033153985867
 40
0.6249960434556208
 40
0.7018579863703085
 40
0.7811807109845501
 40
0.8592625456797122
 40
0.9329153081842387
 40
0.9999999999999999
 40
0.9999999999999999
 40
0.9999999999999999
 40
0.9999999999999999
 10
438.2669507687699
 20
435.3130314416026
 30
0.0
 10
437.2037905450945
 20
435.6642536512429
 30
0.0
 10
435.0288541320242
 20
436.3827586853993
 30
0.0
 10
431.6476901607871
 20
435.847114568488
 30
0.0
 10
428.9714125750767
 20
434.3688832794191
 30
0.0
 10
426.9452066732573
 20
432.2081631478304
 30
0.0
 10
425.8399783048753
 20
429.8338798042221
 30
0.0
 10
425.4857520609739
 20
427.3821036123995
 30
0.0
 10
425.673669750958
 20
425.2414900511306
 30
0.0
 10
426.3972480907214
 20
423.1438585734765
 30
0.0
 10
427.5979492055518
 20
421.3213908090023
 30
0.0
 10
429.0963769570589
 20
419.8835760951927
 30
0.0
 10
430.264796656909
 20
419.2624277261003
 30
0.0
 10
430.8217420404565
 20
418.9663477158879
 30
0.0
  0
LWPOLYLINE
  5
76
330
1F
100
AcDbEntity
  8
0
  6
Continuous
 62
     7
370
    25
100
AcDbPolyline
 90
        3
 70
   128
 43
0.0
 10
451.4279841607
 20
417.6863705656
 10
451.9892512982
 20
418.767241194
 10
452.0943119352
 20
418.9897742039
  0
LWPOLYLINE
  5
77
330
1F
100
AcDbEntity
  8
0
  6
Continuous
 62
     7
370
    25
100
AcDbPolyline
 90
        3
 70
   128
 43
0.0
 10
453.8516133254
 20
425.8544044719
 10
453.8805960839
 20
426.4104536419
 10
453.8915633386
 20
427.4677098587
  0
LINE
  5
78
330
1F
100
AcDbEntity
  8
0
  6
Continuous
 62
     7
370
    25
100
AcDbLine
 10
452.4590029543
 20
434.4532144173
 30
0.0
 11
451.8080829805
 21
435.8795950106
 31
0.0
  0
LINE
  5
79
330
1F
100
AcDbEntity
  8
0
  6
Continuous
 62
     7
370
    25
100
AcDbLine
 10
447.5173010653
 20
441.4967441848
 30
0.0
 11
446.3950424617
 21
442.4362093127
 31
0.0
  0
LWPOLYLINE
  5
7A
330
1F
100
AcDbEntity
  8
0
  6
Continuous
 62
     7
370
    25
100
AcDbPolyline
 90
        3
 70
   128
 43
0.0
 10
440.0659083551
 20
445.6851700238
 10
439.1924097365
 20
445.923141568
 10
438.5303734964
 20
446.0746863774
  0
LWPOLYLINE
  5
7B
330
1F
100
AcDbEntity
  8
0
  6
Continuous
 62
     7
370
    25
100
AcDbPolyline
 90
        3
 70
   128
 43
0.0
 10
431.3963159149
 20
446.2318973533
 10
431.3242538994
 20
446.2198758415
 10
429.8644243901
 20
445.9152290514
  0
LINE
  5
7C
330
1F
100
AcDbEntity
  8
0
  6
Continuous
 62
     7
370
    25
100
AcDbLine
 10
423.4336643642
 20
442.9818870417
 30
0.0
 11
422.2682445472
 21
442.0969583011
 31
0.0
  0
LWPOLYLINE
  5
7D
330
1F
100
AcDbEntity
  8
0
  6
Continuous
 62
     7
370
    25
100
AcDbPolyline
 90
        3
 70
   128
 43
0.0
 10
417.7074982947
 20
436.6760937414
 10
417.099441511
 20
435.5121379635
 10
416.9713436788
 20
435.2398183114
  0
LWPOLYLINE
  5
7E
330
1F
100
AcDbEntity
  8
0
  6
Continuous
 62
     7
370
    25
100
AcDbPolyline
 90
        3
 70
   128
 43
0.0
 10
415.2306198304
 20
428.3238959183
 10
415.2080892747
 20
427.8689255156
 10
415.1982992118
 20
426.7487068868
  0
LINE
  5
7F
330
1F
100
AcDbEntity
  8
0
  6
Continuous
 62
     7
370
    25
100
AcDbLine
 10
416.6271417564
 20
419.8324101894
 30
0.0
 11
417.2352953976
 21
418.4898812241
 31
0.0
  0
LINE
  5
80
330
1F
100
AcDbEntity
  8
0
  6
Continuous
 62
     7
370
    25
100
AcDbLine
 10
421.499940676
 20
412.847527667
 30
0.0
 11
422.7364166802
 21
411.8101339704
 31
0.0
  0
LWPOLYLINE
  5
81
330
1F
100
AcDbEntity
  8
0
  6
Continuous
 62
     7
370
    25
100
AcDbPolyline
 90
        3
 70
   128
 43
0.0
 10
429.0227844542
 20
408.5942091337
 10
429.8962830728
 20
408.3562375895
 10
430.6157930916
 20
408.1926843068
  0
LWPOLYLINE
  5
82
330
1F
100
AcDbEntity
  8
0
  6
Continuous
 62
     7
370
    25
100
AcDbPolyline
 90
        3
 70
   128
 43
0.0
 10
437.6818715757
 20
408.0457514069
 10
437.7644389098
 20
408.059503316
 10
439.1153334802
 20
408.3373336038
  0
LINE
  5
83
330
1F
100
AcDbEntity
  8
0
  6
Continuous
 62
     7
370
    25
100
AcDbLine
 10
445.5749049013
 20
411.2415997228
 30
0.0
 11
446.9242721027
 21
412.2682450256
 31
0.0
  0
SPLINE
  5
84
330
1F
100
AcDbEntity
  8
0
  6
Continuous
 62
     7
370
    25
100
AcDbSpline
210
0.0
220
0.0
230
1.0
 70
     8
 71
     3
 72
     9
 73
     5
 74
     0
 42
0.000000001
 43
0.00000001
 40
0.0
 40
0.0
 40
0.0
 40
0.0
 40
0.5599956321118
 40
1.0
 40
1.0
 40
1.0
 40
1.0
 10
446.9553633754861
 20
410.6262953868841
 30
0.0
 10
446.9017262331603
 20
410.6976606582828
 30
0.0
 10
446.8059448747886
 20
410.8250996369219
 30
0.0
 10
446.6557365120179
 20
411.0249618653921
 30
0.0
 10
446.5896441763055
 20
411.1129021188949
 30
0.0
  0
SPLINE
  5
85
330
1F
100
AcDbEntity
  8
0
  6
Continuous
 62
     7
370
    25
100
AcDbSpline
210
0.0
220
0.0
230
1.0
 70
     8
 71
     3
 72
     9
 73
     5
 74
     0
 42
0.000000001
 43
0.00000001
 40
0.0
 40
0.0
 40
0.0
 40
0.0
 40
0.5600006404659171
 40
0.9999999999999999
 40
0.9999999999999999
 40
0.9999999999999999
 40
0.9999999999999999
 10
422.4990486329209
 20
443.1664770385955
 30
0.0
 10
422.415208665152
 20
443.2780301115156
 30
0.0
 10
422.2654946082196
 20
443.4772317996193
 30
0.0
 10
422.173713196232
 20
443.5993512782307
 30
0.0
 10
422.1333294337403
 20
443.6530837706064
 30
0.0
  0
SPLINE
  5
86
330
1F
100
AcDbEntity
  8
0
  6
Continuous
 62
     7
370
    25
100
AcDbSpline
210
0.0
220
0.0
230
1.0
 70
     8
 71
     3
 72
     9
 73
     5
 74
     0
 42
0.000000001
 43
0.00000001
 40
0.0
 40
0.0
 40
0.0
 40
0.0
 40
0.5599966952917225
 40
1.0
 40
1.0
 40
1.0
 40
1.0
 10
421.2995498602997
 20
444.7624659082626
 30
0.0
 10
421.4915229625201
 20
444.5070371507175
 30
0.0
 10
421.8343340966471
 20
444.0509116776698
 30
0.0
 10
422.0419692708967
 20
443.7746429317838
 30
0.0
 10
422.1333294337403
 20
443.6530837706064
 30
0.0
  0
SPLINE
  5
87
330
1F
100
AcDbEntity
  8
0
  6
Continuous
 62
     7
370
    25
100
AcDbSpline
210
0.0
220
0.0
230
1.0
 70
     8
 71
     3
 72
     9
 73
     5
 74
     0
 42
0.000000001
 43
0.00000001
 40
0.0
 40
0.0
 40
0.0
 40
0.0
 40
0.5600017644456654
 40
1.0
 40
1.0
 40
1.0
 40
1.0
 10
446.9553633754861
 20
410.6262953868841
 30
0.0
 10
447.0773300216189
 20
410.464014514804
 30
0.0
 10
447.2951269177653
 20
410.1742281562902
 30
0.0
 10
447.6381940264352
 20
409.7177589115141
 30
0.0
 10
447.7891429489266
 20
409.5169132492279
 30
0.0
  0
SPLINE
  5
88
330
1F
100
AcDbEntity
  8
0
  6
Continuous
 62
     7
370
    25
100
AcDbSpline
210
0.0
220
0.0
230
1.0
 70
     8
 71
     3
 72
    11
 73
     7
 74
     0
 42
0.000000001
 43
0.00000001
 40
0.0
 40
0.0
 40
0.0
 40
0.0
 40
0.2723648216526412
 40
0.5618953587579228
 40
0.7876587127598279
 40
1.0
 40
1.0
 40
1.0
 40
1.0
 10
450.7660596793305
 20
405.5559946140979
 30
0.0
 10
450.762678002176
 20
405.5604958695997
 30
0.0
 10
450.7557015186254
 20
405.5697820709514
 30
0.0
 10
450.7038998925031
 20
405.6386989593541
 30
0.0
 10
450.6379776978038
 20
405.7264167126816
 30
0.0
 10
450.5904888688275
 20
405.7896025671394
 30
0.0
 10
450.5674719041001
 20
405.8202275923227
 30
0.0
  0
SPLINE
  5
89
330
1F
100
AcDbEntity
  8
0
  6
Continuous
 62
     7
370
    25
100
AcDbSpline
210
0.0
220
0.0
230
1.0
 70
     8
 71
     3
 72
    11
 73
     7
 74
     0
 42
0.000000001
 43
0.00000001
 40
0.0
 40
0.0
 40
0.0
 40
0.0
 40
0.2723420960594275
 40
0.5618801810819566
 40
0.7876567034137031
 40
1.0
 40
1.0
 40
1.0
 40
1.0
 10
418.5212209051263
 20
448.4591515651678
 30
0.0
 10
418.4917680527973
 20
448.4983383117606
 30
0.0
 10
418.431002661624
 20
448.5791861005901
 30
0.0
 10
418.3663277121692
 20
448.6652384908378
 30
0.0
 10
418.3289111137432
 20
448.7150267160635
 30
0.0
 10
418.3246775556401
 20
448.7206561356396
 30
0.0
 10
418.3226256793153
 20
448.7233845433925
 30
0.0
  0
LINE
  5
8A
330
1F
100
AcDbEntity
  8
0
  6
Continuous
 62
     7
370
    25
100
AcDbLine
 10
450.7660596793
 20
405.5559946141
 30
0.0
 11
451.9287972873
 21
406.4810139975
 31
0.0
  0
LWPOLYLINE
  5
8B
330
1F
100
AcDbEntity
  8
0
  6
Continuous
 62
     7
370
    25
100
AcDbPolyline
 90
        3
 70
   128
 43
0.0
 10
457.9606830304
 20
413.6981446213
 10
458.7273477739
 20
415.1320880196
 10
459.1706871217
 20
416.0697566262
  0
LWPOLYLINE
  5
8C
330
1F
100
AcDbEntity
  8
0
  6
Continuous
 62
     7
370
    25
100
AcDbPolyline
 90
        3
 70
   128
 43
0.0
 10
461.4738105958
 20
425.1893628538
 10
461.5440695708
 20
427.2626158203
 10
461.5349798625
 20
427.8508887077
  0
LWPOLYLINE
  5
8D
330
1F
100
AcDbEntity
  8
0
  6
Continuous
 62
     7
370
    25
100
AcDbPolyline
 90
        3
 70
   128
 43
0.0
 10
459.6530749624
 20
437.0670098728
 10
458.6170046752
 20
439.3669929272
 10
458.5536225861
 20
439.4909948027
  0
LINE
  5
8E
330
1F
100
AcDbEntity
  8
0
  6
Continuous
 62
     7
370
    25
100
AcDbLine
 10
452.8589352196
 20
446.9784324906
 30
0.0
 11
450.8173196738
 21
448.6847663215
 31
0.0
  0
LWPOLYLINE
  5
8F
330
1F
100
AcDbEntity
  8
0
  6
Continuous
 62
     7
370
    25
100
AcDbPolyline
 90
        3
 70
   128
 43
0.0
 10
442.4370332783
 20
452.9603304258
 10
442.1701907342
 20
453.0403943649
 10
439.8584394878
 20
453.611568912
  0
LWPOLYLINE
  5
90
330
1F
100
AcDbEntity
  8
0
  6
Continuous
 62
     7
370
    25
100
AcDbPolyline
 90
        3
 70
   128
 43
0.0
 10
430.4516642516
 20
453.8277009419
 10
429.7348364418
 20
453.7078769794
 10
427.8473883098
 20
453.2959660432
  0
LINE
  5
91
330
1F
100
AcDbEntity
  8
0
  6
Continuous
 62
     7
370
    25
100
AcDbLine
 10
419.2767991846
 20
449.4085492483
 30
0.0
 11
418.3226256793
 21
448.7233845434
 31
0.0
  0
LINE
  5
92
330
1F
100
AcDbEntity
  8
0
  6
Continuous
 62
     7
370
    25
100
AcDbLine
 10
418.3226256793
 20
448.7233845434
 30
0.0
 11
417.1598955219
 21
447.79836516
 31
0.0
  0
LWPOLYLINE
  5
93
330
1F
100
AcDbEntity
  8
0
  6
Continuous
 62
     7
370
    25
100
AcDbPolyline
 90
        3
 70
   128
 43
0.0
 10
411.1280097788
 20
440.5812345362
 10
410.3613450354
 20
439.1472911379
 10
409.9180056875
 20
438.2096225313
  0
LWPOLYLINE
  5
94
330
1F
100
AcDbEntity
  8
0
  6
Continuous
 62
     7
370
    25
100
AcDbPolyline
 90
        3
 70
   128
 43
0.0
 10
407.6148747628
 20
429.0900163037
 10
407.5446232384
 20
427.0167633371
 10
407.5537129467
 20
426.4284904497
  0
LWPOLYLINE
  5
95
330
1F
100
AcDbEntity
  8
0
  6
Continuous
 62
     7
370
    25
100
AcDbPolyline
 90
        3
 70
   128
 43
0.0
 10
409.4356178468
 20
417.2123692847
 10
410.4716806834
 20
414.9123862303
 10
410.5350702232
 20
414.7883843547
  0
LINE
  5
96
330
1F
100
AcDbEntity
  8
0
  6
Continuous
 62
     7
370
    25
100
AcDbLine
 10
416.2297575896
 20
407.3009466669
 30
0.0
 11
418.2713731354
 21
405.594612836
 31
0.0
  0
LWPOLYLINE
  5
97
330
1F
100
AcDbEntity
  8
0
  6
Continuous
 62
     7
370
    25
100
AcDbPolyline
 90
        3
 70
   128
 43
0.0
 10
426.6516595309
 20
401.3190487317
 10
426.918502075
 20
401.2389847926
 10
429.2302533215
 20
400.6678102455
  0
LWPOLYLINE
  5
98
330
1F
100
AcDbEntity
  8
0
  6
Continuous
 62
     7
370
    25
100
AcDbPolyline
 90
        3
 70
   128
 43
0.0
 10
438.6370285576
 20
400.4516782156
 10
439.3538563674
 20
400.571502178
 10
441.2413044994
 20
400.9834131143
  0
LINE
  5
99
330
1F
100
AcDbEntity
  8
0
  6
Continuous
 62
     7
370
    25
100
AcDbLine
 10
449.8118936246
 20
404.8708299092
 30
0.0
 11
450.7660596793
 21
405.5559946141
 31
0.0
  0
SPLINE
  5
9A
330
1F
100
AcDbEntity
  8
0
  6
Continuous
 62
     7
370
    25
100
AcDbSpline
210
0.0
220
0.0
230
1.0
 70
     8
 71
     3
 72
     9
 73
     5
 74
     0
 42
0.000000001
 43
0.00000001
 40
0.0
 40
0.0
 40
0.0
 40
0.0
 40
0.5599995807469536
 40
1.0
 40
1.0
 40
1.0
 40
1.0
 10
411.3595663731705
 20
457.6237717560266
 30
0.0
 10
411.2417855859346
 20
457.7786330322962
 30
0.0
 10
411.0314625941227
 20
458.0551712326696
 30
0.0
 10
410.7544218575873
 20
458.4194335944067
 30
0.0
 10
410.6325238173615
 20
458.5797091862892
 30
0.0
  0
SPLINE
  5
9B
330
1F
100
AcDbEntity
  8
0
  6
Continuous
 62
     7
370
    25
100
AcDbSpline
210
0.0
220
0.0
230
1.0
 70
     8
 71
     3
 72
     9
 73
     5
 74
     0
 42
0.000000001
 43
0.00000001
 40
0.0
 40
0.0
 40
0.0
 40
0.0
 40
0.5599999088259296
 40
1.0
 40
1.0
 40
1.0
 40
1.0
 10
458.4561689918648
 20
395.6996699712013
 30
0.0
 10
458.3003415415056
 20
395.9045543596644
 30
0.0
 10
458.0220781919882
 20
396.2704193986297
 30
0.0
 10
457.8186394854715
 20
396.5379110503282
 30
0.0
 10
457.7291264360558
 20
396.6556074014638
 30
0.0
  0
ARC
  5
9C
330
1F
100
AcDbEntity
  8
0
  6
Continuous
 62
     7
370
    25
100
AcDbCircle
 10
434.544345898
 20
427.1396895787
 30
0.0
 40
38.29899805700001
100
AcDbArc
 50
307.2549368278
 51
127.2549368278
  0
ARC
  5
9D
330
1F
100
AcDbEntity
  8
0
  6
Continuous
 62
     7
370
    25
100
AcDbCircle
 10
434.544345898
 20
427.1396895787
 30
0.0
 40
39.50000000000006
100
AcDbArc
 50
307.2549368278
 51
127.2549368513
  0
ARC
  5
9E
330
1F
100
AcDbEntity
  8
0
  6
Continuous
 62
     7
370
    25
100
AcDbCircle
 10
434.544345898
 20
427.1396895787
 30
0.0
 40
38.29899805700001
100
AcDbArc
 50
127.2549368278
 51
307.2549368278
  0
ARC
  5
9F
330
1F
100
AcDbEntity
  8
0
  6
Continuous
 62
     7
370
    25
100
AcDbCircle
 10
434.544345898
 20
427.1396895787
 30
0.0
 40
39.50000000000007
100
AcDbArc
 50
127.2549368513
 51
307.2549368176
  0
SPLINE
  5
A0
330
1F
100
AcDbEntity
  8
0
  6
Continuous
 62
     7
370
    25
100
AcDbSpline
210
0.0
220
0.0
230
1.0
 70
     8
 71
     3
 72
    12
 73
     8
 74
     0
 42
0.000000001
 43
0.00000001
 40
0.0
 40
0.0
 40
0.0
 40
0.0
 40
0.3203782312624225
 40
0.5620045000938939
 40
0.7625096169841048
 40
0.8964632849025734
 40
1.0
 40
1.0
 40
1.0
 40
1.0
 10
466.0435049956452
 20
409.0787334284519
 30
0.0
 10
466.1417679304774
 20
409.0379374136208
 30
0.0
 10
466.3141398527225
 20
408.9663734255477
 30
0.0
 10
466.5890725495246
 20
408.9998123046622
 30
0.0
 10
466.7954595994102
 20
409.1021945452031
 30
0.0
 10
466.9364593311717
 20
409.235056159597
 30
0.0
 10
466.9909558552785
 20
409.3277484097928
 30
0.0
 10
467.0147142534863
 20
409.36815868232
 30
0.0
  0
LINE
  5
A1
330
1F
100
AcDbEntity
  8
0
  6
Continuous
 62
     7
370
    25
100
AcDbLine
 10
467.9904013103
 20
411.28051038
 30
0.0
 11
467.0147142535
 21
409.3681586823
 31
0.0
  0
SPLINE
  5
A2
330
1F
100
AcDbEntity
  8
0
  6
Continuous
 62
     7
370
    25
100
AcDbSpline
210
0.0
220
0.0
230
1.0
 70
     8
 71
     3
 72
    12
 73
     8
 74
     0
 42
0.000000001
 43
0.00000001
 40
0.0
 40
0.0
 40
0.0
 40
0.0
 40
0.1369205175912734
 40
0.2732894311296115
 40
0.4609263329083154
 40
0.7173055996780382
 40
1.0
 40
1.0
 40
1.0
 40
1.0
 10
467.9904013102662
 20
411.2805103800033
 30
0.0
 10
468.0142355351627
 20
411.338021719615
 30
0.0
 10
468.061807965343
 20
411.4528127061121
 30
0.0
 10
468.0738873834752
 20
411.6528068634313
 30
0.0
 10
468.0256622598223
 20
411.8748936453475
 30
0.0
 10
467.8885431140476
 20
412.0975788341077
 30
0.0
 10
467.735153894529
 20
412.188853010028
 30
0.0
 10
467.6547154014718
 20
412.2367178938125
 30
0.0
  0
SPLINE
  5
A3
330
1F
100
AcDbEntity
  8
0
  6
Continuous
 62
     7
370
    25
100
AcDbSpline
210
0.0
220
0.0
230
1.0
 70
     8
 71
     3
 72
    11
 73
     7
 74
     0
 42
0.000000001
 43
0.00000001
 40
0.0
 40
0.0
 40
0.0
 40
0.0
 40
0.2603299062936488
 40
0.5282087044013599
 40
0.761418539627815
 40
1.0
 40
1.0
 40
1.0
 40
1.0
 10
452.5056808417451
 20
419.0706502563094
 30
0.0
 10
453.9612261319373
 20
418.4140354366855
 30
0.0
 10
456.9145237490873
 20
417.0817656713633
 30
0.0
 10
460.9422599268171
 20
415.2647942004085
 30
0.0
 10
464.5977012843917
 20
413.6157801163581
 30
0.0
 10
466.6280052886458
 20
412.6998813192586
 30
0.0
 10
467.6547154014718
 20
412.2367178938125
 30
0.0
  0
SPLINE
  5
A4
330
1F
100
AcDbEntity
  8
0
  6
Continuous
 62
     7
370
    25
100
AcDbSpline
210
0.0
220
0.0
230
1.0
 70
     8
 71
     3
 72
    12
 73
     8
 74
     0
 42
0.000000001
 43
0.00000001
 40
0.0
 40
0.0
 40
0.0
 40
0.0
 40
0.2228986822457006
 40
0.4458314181773687
 40
0.6679316360242271
 40
0.8889137080261176
 40
1.0
 40
1.0
 40
1.0
 40
1.0
 10
452.5056808417451
 20
419.0706502563094
 30
0.0
 10
452.4305218868698
 20
419.0960219278048
 30
0.0
 10
452.2801924945954
 20
419.1467691469914
 30
0.0
 10
452.038361090494
 20
419.1224897787355
 30
0.0
 10
451.820465051625
 20
419.0246592303027
 30
0.0
 10
451.6729176690627
 20
418.887135532966
 30
0.0
 10
451.6140098190452
 20
418.7849004953026
 30
0.0
 10
451.5943034713875
 20
418.7506999737357
 30
0.0
  0
LINE
  5
A5
330
1F
100
AcDbEntity
  8
0
  6
Continuous
 62
     7
370
    25
100
AcDbLine
 10
451.3433604663
 20
418.2588554836
 30
0.0
 11
451.5943034714
 21
418.7506999737
 31
0.0
  0
SPLINE
  5
A6
330
1F
100
AcDbEntity
  8
0
  6
Continuous
 62
     7
370
    25
100
AcDbSpline
210
0.0
220
0.0
230
1.0
 70
     8
 71
     3
 72
    12
 73
     8
 74
     0
 42
0.000000001
 43
0.00000001
 40
0.0
 40
0.0
 40
0.0
 40
0.0
 40
0.2201338750485485
 40
0.4402544178823192
 40
0.6607437864433477
 40
0.8821626436342368
 40
1.0
 40
1.0
 40
1.0
 40
1.0
 10
451.3433604663026
 20
418.2588554835652
 30
0.0
 10
451.3145619193385
 20
418.1854888594063
 30
0.0
 10
451.2569665695692
 20
418.0387600544737
 30
0.0
 10
451.2686904248247
 20
417.798019689197
 30
0.0
 10
451.3539042346172
 20
417.5767339858989
 30
0.0
 10
451.4835696960919
 20
417.4207587684835
 30
0.0
 10
451.5842484306363
 20
417.3557537306962
 30
0.0
 10
451.6192182129037
 20
417.3331748611067
 30
0.0
  0
SPLINE
  5
A7
330
1F
100
AcDbEntity
  8
0
  6
Continuous
 62
     7
370
    25
100
AcDbSpline
210
0.0
220
0.0
230
1.0
 70
     8
 71
     3
 72
    11
 73
     7
 74
     0
 42
0.000000001
 43
0.00000001
 40
0.0
 40
0.0
 40
0.0
 40
0.0
 40
0.2832273728794311
 40
0.5762691222815665
 40
0.7861906279075918
 40
1.0
 40
1.0
 40
1.0
 40
1.0
 10
466.0435049956452
 20
409.0787334284519
 30
0.0
 10
464.8740386194188
 20
409.7479722255225
 30
0.0
 10
462.4945815940813
 20
411.1096402389771
 30
0.0
 10
458.6809555889972
 20
413.2920244927657
 30
0.0
 10
455.0153808386317
 20
415.3896904551442
 30
0.0
 10
452.7581759473308
 20
416.6813961214373
 30
0.0
 10
451.6192182129037
 20
417.3331748611067
 30
0.0
  0
SPLINE
  5
A8
330
1F
100
AcDbEntity
  8
0
  6
Continuous
 62
     7
370
    25
100
AcDbSpline
210
0.0
220
0.0
230
1.0
 70
     8
 71
     3
 72
    13
 73
     9
 74
     0
 42
0.000000001
 43
0.00000001
 40
0.0
 40
0.0
 40
0.0
 40
0.0
 40
0.3201790788945685
 40
0.4946678714114581
 40
0.6890171272356037
 40
0.8387695961424194
 40
0.9672347084559804
 40
1.0
 40
1.0
 40
1.0
 40
1.0
 10
470.7604601209771
 20
424.5343035003875
 30
0.0
 10
470.8668435439589
 20
424.5399401521925
 30
0.0
 10
471.031203006737
 20
424.5486486242135
 30
0.0
 10
471.2429926147336
 20
424.6710371672316
 30
0.0
 10
471.3833433106182
 20
424.8125761113229
 30
0.0
 10
471.4754924440607
 20
424.990997041008
 30
0.0
 10
471.5061909572032
 20
425.1291420197693
 30
0.0
 10
471.5092883046293
 20
425.2017112182994
 30
0.0
 10
471.509917748512
 20
425.2164587528218
 30
0.0
  0
LINE
  5
A9
330
1F
100
AcDbEntity
  8
0
  6
Continuous
 62
     7
370
    25
100
AcDbLine
 10
471.5592405921
 20
427.3627634979
 30
0.0
 11
471.5099177485
 21
425.2164587528
 31
0.0
  0
SPLINE
  5
AA
330
1F
100
AcDbEntity
  8
0
  6
Continuous
 62
     7
370
    25
100
AcDbSpline
210
0.0
220
0.0
230
1.0
 70
     8
 71
     3
 72
    12
 73
     8
 74
     0
 42
0.000000001
 43
0.00000001
 40
0.0
 40
0.0
 40
0.0
 40
0.0
 40
0.1369202925852596
 40
0.2732882585281751
 40
0.4609258205774133
 40
0.7173047073333442
 40
1.0
 40
1.0
 40
1.0
 40
1.0
 10
471.5592405920636
 20
427.3627634979325
 30
0.0
 10
471.5557611882984
 20
427.4249206242201
 30
0.0
 10
471.5488164164335
 20
427.548984139405
 30
0.0
 10
471.4729238367697
 20
427.7344123120432
 30
0.0
 10
471.3331154332827
 20
427.9135820775523
 30
0.0
 10
471.112956608756
 20
428.054721148696
 30
0.0
 10
470.9351545656293
 20
428.0704031926803
 30
0.0
 10
470.841913593353
 20
428.0786269959767
 30
0.0
  0
SPLINE
  5
AB
330
1F
100
AcDbEntity
  8
0
  6
Continuous
 62
     7
370
    25
100
AcDbSpline
210
0.0
220
0.0
230
1.0
 70
     8
 71
     3
 72
    11
 73
     7
 74
     0
 42
0.000000001
 43
0.00000001
 40
0.0
 40
0.0
 40
0.0
 40
0.0
 40
0.2603297000046642
 40
0.528208668865293
 40
0.7614184402038584
 40
1.0
 40
1.0
 40
1.0
 40
1.0
 10
454.2279794042718
 20
427.6628688243923
 30
0.0
 10
455.8242729718903
 20
427.7028155386508
 30
0.0
 10
459.0631508273746
 20
427.783867377007
 30
0.0
 10
463.4803687572644
 20
427.8944069192339
 30
0.0
 10
467.4892864150726
 20
427.9947285780032
 30
0.0
 10
469.7159204257915
 20
428.0504493787279
 30
0.0
 10
470.841913593353
 20
428.0786269959767
 30
0.0
  0
SPLINE
  5
AC
330
1F
100
AcDbEntity
  8
0
  6
Continuous
 62
     7
370
    25
100
AcDbSpline
210
0.0
220
0.0
230
1.0
 70
     8
 71
     3
 72
    12
 73
     8
 74
     0
 42
0.000000001
 43
0.00000001
 40
0.0
 40
0.0
 40
0.0
 40
0.0
 40
0.2229034717579916
 40
0.4458327640482115
 40
0.6679332168703678
 40
0.8889144723039059
 40
1.0
 40
1.0
 40
1.0
 40
1.0
 10
454.2279794042718
 20
427.6628688243923
 30
0.0
 10
454.1492526962733
 20
427.6531180842325
 30
0.0
 10
453.9917901607885
 20
427.6336154744138
 30
0.0
 10
453.7844435025233
 20
427.506809112385
 30
0.0
 10
453.6305675569786
 20
427.3241292355291
 30
0.0
 10
453.5573076630859
 20
427.136203377347
 30
0.0
 10
453.5485873278175
 20
427.0185341121455
 30
0.0
 10
453.5456701343667
 20
426.9791704868671
 30
0.0
  0
LINE
  5
AD
330
1F
100
AcDbEntity
  8
0
  6
Continuous
 62
     7
370
    25
100
AcDbLine
 10
453.5329892462
 20
426.4271551078
 30
0.0
 11
453.5456701344
 21
426.9791704869
 31
0.0
  0
SPLINE
  5
AE
330
1F
100
AcDbEntity
  8
0
  6
Continuous
 62
     7
370
    25
100
AcDbSpline
210
0.0
220
0.0
230
1.0
 70
     8
 71
     3
 72
    12
 73
     8
 74
     0
 42
0.000000001
 43
0.00000001
 40
0.0
 40
0.0
 40
0.0
 40
0.0
 40
0.2201326151494974
 40
0.4402530344682803
 40
0.6607457001505432
 40
0.882156793801835
 40
1.0
 40
1.0
 40
1.0
 40
1.0
 10
453.5329892461907
 20
426.4271551077959
 30
0.0
 10
453.5388733928626
 20
426.3485589888235
 30
0.0
 10
453.5506413602116
 20
426.1913711052763
 30
0.0
 10
453.6656590529311
 20
425.9795563619865
 30
0.0
 10
453.8384494678394
 20
425.81716480149
 30
0.0
 10
454.0229450359861
 20
425.7328852912995
 30
0.0
 10
454.1418584553175
 20
425.7180039879859
 30
0.0
 10
454.1831641619813
 20
425.7128348258098
 30
0.0
  0
SPLINE
  5
AF
330
1F
100
AcDbEntity
  8
0
  6
Continuous
 62
     7
370
    25
100
AcDbSpline
210
0.0
220
0.0
230
1.0
 70
     8
 71
     3
 72
    11
 73
     7
 74
     0
 42
0.000000001
 43
0.00000001
 40
0.0
 40
0.0
 40
0.0
 40
0.0
 40
0.2832272729233425
 40
0.5762691059418491
 40
0.7861907167317506
 40
1.0
 40
1.0
 40
1.0
 40
1.0
 10
470.7604601209771
 20
424.5343035003875
 30
0.0
 10
469.416436916425
 20
424.6298543926686
 30
0.0
 10
466.6818166150038
 20
424.8242672636411
 30
0.0
 10
462.2989573073521
 20
425.1358578773168
 30
0.0
 10
458.08624553586
 20
425.4353530857091
 30
0.0
 10
455.4921248530334
 20
425.6197768914537
 30
0.0
 10
454.1831641619813
 20
425.7128348258098
 30
0.0
  0
SPLINE
  5
B0
330
1F
100
AcDbEntity
  8
0
  6
Continuous
 62
     7
370
    25
100
AcDbSpline
210
0.0
220
0.0
230
1.0
 70
     8
 71
     3
 72
    13
 73
     9
 74
     0
 42
0.000000001
 43
0.00000001
 40
0.0
 40
0.0
 40
0.0
 40
0.0
 40
0.1923253812505629
 40
0.454085067555307
 40
0.6566893178279624
 40
0.8131124059597171
 40
0.9441971526545565
 40
1.0
 40
1.0
 40
1.0
 40
1.0
 10
468.3043725019108
 20
440.5059017157887
 30
0.0
 10
468.3613076803218
 20
440.5339344675762
 30
0.0
 10
468.4957330700799
 20
440.6001205003628
 30
0.0
 10
468.6475733621402
 20
440.77133931593
 30
0.0
 10
468.7369626934727
 20
440.9877185119398
 30
0.0
 10
468.7533584643855
 20
441.1918757579717
 30
0.0
 10
468.7255863025272
 20
441.3445000324858
 30
0.0
 10
468.6932796027523
 20
441.4224143631299
 30
0.0
 10
468.6836331313264
 20
441.4456788367365
 30
0.0
  0
LINE
  5
B1
330
1F
100
AcDbEntity
  8
0
  6
Continuous
 62
     7
370
    25
100
AcDbLine
 10
467.7968277758
 20
443.4008331886
 30
0.0
 11
468.6836331313
 21
441.4456788367
 31
0.0
  0
SPLINE
  5
B2
330
1F
100
AcDbEntity
  8
0
  6
Continuous
 62
     7
370
    25
100
AcDbSpline
210
0.0
220
0.0
230
1.0
 70
     8
 71
     3
 72
    12
 73
     8
 74
     0
 42
0.000000001
 43
0.00000001
 40
0.0
 40
0.0
 40
0.0
 40
0.0
 40
0.1369200131438817
 40
0.2732890115991455
 40
0.4609255705865774
 40
0.7173061059483653
 40
1.0
 40
1.0
 40
1.0
 40
1.0
 10
467.7968277757775
 20
443.4008331886266
 30
0.0
 10
467.7667241502057
 20
443.4553252500745
 30
0.0
 10
467.7066380467271
 20
443.5640900775904
 30
0.0
 10
467.5578047365974
 20
443.6982250895755
 30
0.0
 10
467.3541045870078
 20
443.798993820201
 30
0.0
 10
467.0945065303451
 20
443.8306293707258
 30
0.0
 10
466.9275092127909
 20
443.7676131387954
 30
0.0
 10
466.8399348085534
 20
443.7345670453046
 30
0.0
  0
SPLINE
  5
B3
330
1F
100
AcDbEntity
  8
0
  6
Continuous
 62
     7
370
    25
100
AcDbSpline
210
0.0
220
0.0
230
1.0
 70
     8
 71
     3
 72
    11
 73
     7
 74
     0
 42
0.000000001
 43
0.00000001
 40
0.0
 40
0.0
 40
0.0
 40
0.0
 40
0.2603296821811515
 40
0.5282089031784052
 40
0.7614185485395459
 40
1.0
 40
1.0
 40
1.0
 40
1.0
 10
452.0516871636521
 20
436.1514648339485
 30
0.0
 10
453.4725654553646
 20
436.8800618236925
 30
0.0
 10
456.3555273893527
 20
438.3583850544027
 30
0.0
 10
460.287344765239
 20
440.3745364923087
 30
0.0
 10
463.8557267807018
 20
442.2043264281263
 30
0.0
 10
465.8376766491319
 20
443.2206296354018
 30
0.0
 10
466.8399348085534
 20
443.7345670453046
 30
0.0
  0
SPLINE
  5
B4
330
1F
100
AcDbEntity
  8
0
  6
Continuous
 62
     7
370
    25
100
AcDbSpline
210
0.0
220
0.0
230
1.0
 70
     8
 71
     3
 72
    12
 73
     8
 74
     0
 42
0.000000001
 43
0.00000001
 40
0.0
 40
0.0
 40
0.0
 40
0.0
 40
0.2229006501133729
 40
0.4458343570846667
 40
0.6679320093817452
 40
0.8889146550738352
 40
1.0
 40
1.0
 40
1.0
 40
1.0
 10
452.0516871636521
 20
436.1514648339485
 30
0.0
 10
451.9849891595456
 20
436.1085217755905
 30
0.0
 10
451.8515832598116
 20
436.0226292902857
 30
0.0
 10
451.7197816584795
 20
435.8184210776733
 30
0.0
 10
451.6604187152274
 20
435.5870641141404
 30
0.0
 10
451.6759462124681
 20
435.3859634694585
 30
0.0
 10
451.7191475572783
 20
435.2761643311894
 30
0.0
 10
451.7335995262276
 20
435.2394336751436
 30
0.0
  0
LINE
  5
B5
330
1F
100
AcDbEntity
  8
0
  6
Continuous
 62
     7
370
    25
100
AcDbLine
 10
451.9616766995
 20
434.7365809521
 30
0.0
 11
451.7335995262
 21
435.2394336751
 31
0.0
  0
SPLINE
  5
B6
330
1F
100
AcDbEntity
  8
0
  6
Continuous
 62
     7
370
    25
100
AcDbSpline
210
0.0
220
0.0
230
1.0
 70
     8
 71
     3
 72
    12
 73
     8
 74
     0
 42
0.000000001
 43
0.00000001
 40
0.0
 40
0.0
 40
0.0
 40
0.0
 40
0.2201342833811505
 40
0.4402540332277164
 40
0.6607391006331003
 40
0.8821555461558296
 40
1.0
 40
1.0
 40
1.0
 40
1.0
 10
451.9616766994607
 20
434.7365809521411
 30
0.0
 10
452.0010822722069
 20
434.6683221723654
 30
0.0
 10
452.0798908160953
 20
434.5318091193421
 30
0.0
 10
452.2754172697137
 20
434.3908761023301
 30
0.0
 10
452.501552532384
 20
434.3195289390457
 30
0.0
 10
452.7043447382312
 20
434.3236522809079
 30
0.0
 10
452.8179417484056
 20
434.3618373159729
 30
0.0
 10
452.857400399984
 20
434.3751011333202
 30
0.0
  0
SPLINE
  5
B7
330
1F
100
AcDbEntity
  8
0
  6
Continuous
 62
     7
370
    25
100
AcDbSpline
210
0.0
220
0.0
230
1.0
 70
     8
 71
     3
 72
    11
 73
     7
 74
     0
 42
0.000000001
 43
0.00000001
 40
0.0
 40
0.0
 40
0.0
 40
0.0
 40
0.2832271839303593
 40
0.5762692952154875
 40
0.786190827107783
 40
1.0
 40
1.0
 40
1.0
 40
1.0
 10
468.3043725019108
 20
440.5059017157887
 30
0.0
 10
467.0519927512848
 20
440.0088395538186
 30
0.0
 10
464.5038334036536
 20
438.9974900859398
 30
0.0
 10
460.4198145467362
 20
437.3765769464284
 30
0.0
 10
456.4943488345382
 20
435.818580123958
 30
0.0
 10
454.077109101936
 20
434.8591948502501
 30
0.0
 10
452.857400399984
 20
434.3751011333202
 30
0.0
  0
SPLINE
  5
B8
330
1F
100
AcDbEntity
  8
0
  6
Continuous
 62
     7
370
    25
100
AcDbSpline
210
0.0
220
0.0
230
1.0
 70
     8
 71
     3
 72
    12
 73
     8
 74
     0
 42
0.000000001
 43
0.00000001
 40
0.0
 40
0.0
 40
0.0
 40
0.0
 40
0.3203312687009959
 40
0.5619238716013333
 40
0.7389271124797627
 40
0.8801330058421932
 40
1.0
 40
1.0
 40
1.0
 40
1.0
 10
459.1616942709099
 20
453.8301577708457
 30
0.0
 10
459.2233494594149
 20
453.9168377841759
 30
0.0
 10
459.3315047524322
 20
454.0688915280345
 30
0.0
 10
459.3590525720402
 20
454.3362924319664
 30
0.0
 10
459.3109391984338
 20
454.5521793425837
 30
0.0
 10
459.2202679017689
 20
454.721694807286
 30
0.0
 10
459.134858903401
 20
454.8037480543106
 30
0.0
 10
459.0956448739182
 20
454.8414213499759
 30
0.0
  0
LINE
  5
B9
330
1F
100
AcDbEntity
  8
0
  6
Continuous
 62
     7
370
    25
100
AcDbLine
 10
457.4483513063
 20
456.2181843362
 30
0.0
 11
459.0956448739
 21
454.84142135
 31
0.0
  0
SPLINE
  5
BA
330
1F
100
AcDbEntity
  8
0
  6
Continuous
 62
     7
370
    25
100
AcDbSpline
210
0.0
220
0.0
230
1.0
 70
     8
 71
     3
 72
    12
 73
     8
 74
     0
 42
0.000000001
 43
0.00000001
 40
0.0
 40
0.0
 40
0.0
 40
0.0
 40
0.1369230799090911
 40
0.2732917024433468
 40
0.4609254634109736
 40
0.7173065496653136
 40
1.0
 40
1.0
 40
1.0
 40
1.0
 10
457.4483513062607
 20
456.2181843361591
 30
0.0
 10
457.3975839265734
 20
456.2542182181904
 30
0.0
 10
457.2962547450172
 20
456.3261400663736
 30
0.0
 10
457.1039625927977
 20
456.3824175002939
 30
0.0
 10
456.8767163850615
 20
456.3848233549425
 30
0.0
 10
456.62910000709
 20
456.3006929897599
 30
0.0
 10
456.5059832816673
 20
456.1714598975152
 30
0.0
 10
456.4414202397477
 20
456.103689401481
 30
0.0
  0
SPLINE
  5
BB
330
1F
100
AcDbEntity
  8
0
  6
Continuous
 62
     7
370
    25
100
AcDbSpline
210
0.0
220
0.0
230
1.0
 70
     8
 71
     3
 72
    11
 73
     7
 74
     0
 42
0.000000001
 43
0.00000001
 40
0.0
 40
0.0
 40
0.0
 40
0.0
 40
0.2603296915182551
 40
0.5282087274517482
 40
0.7614185274645162
 40
1.0
 40
1.0
 40
1.0
 40
1.0
 10
446.4078500097405
 20
442.8551694295143
 30
0.0
 10
447.3718917203361
 20
444.128108333822
 30
0.0
 10
449.3279315488871
 20
446.7109003113598
 30
0.0
 10
451.9955956572304
 20
450.2333450552076
 30
0.0
 10
454.416688942108
 20
453.4301882712387
 30
0.0
 10
455.7614062923902
 20
455.2057835613529
 30
0.0
 10
456.4414202397477
 20
456.103689401481
 30
0.0
  0
SPLINE
  5
BC
330
1F
100
AcDbEntity
  8
0
  6
Continuous
 62
     7
370
    25
100
AcDbSpline
210
0.0
220
0.0
230
1.0
 70
     8
 71
     3
 72
    12
 73
     8
 74
     0
 42
0.000000001
 43
0.00000001
 40
0.0
 40
0.0
 40
0.0
 40
0.0
 40
0.222900099598435
 40
0.4458331399974493
 40
0.6679325752069656
 40
0.888914887900285
 40
1.0
 40
1.0
 40
1.0
 40
1.0
 10
446.4078500097405
 20
442.8551694295143
 30
0.0
 10
446.3663898200231
 20
442.7875399803481
 30
0.0
 10
446.2834633134854
 20
442.6522710875466
 30
0.0
 10
446.2533180533944
 20
442.4110986882716
 30
0.0
 10
446.3002182924519
 20
442.1768979372098
 30
0.0
 10
446.4014563986362
 20
442.0024454849798
 30
0.0
 10
446.4880206804283
 20
441.9222656127777
 30
0.0
 10
446.5169786637437
 20
441.8954433790182
 30
0.0
  0
LINE
  5
BD
330
1F
100
AcDbEntity
  8
0
  6
Continuous
 62
     7
370
    25
100
AcDbLine
 10
446.9406559294
 20
441.5413498795
 30
0.0
 11
446.5169786637
 21
441.895443379
 31
0.0
  0
SPLINE
  5
BE
330
1F
100
AcDbEntity
  8
0
  6
Continuous
 62
     7
370
    25
100
AcDbSpline
210
0.0
220
0.0
230
1.0
 70
     8
 71
     3
 72
    12
 73
     8
 74
     0
 42
0.000000001
 43
0.00000001
 40
0.0
 40
0.0
 40
0.0
 40
0.0
 40
0.220136798420155
 40
0.4402615389428663
 40
0.6607493694978016
 40
0.8834129061173341
 40
1.0
 40
1.0
 40
1.0
 40
1.0
 10
446.9406559293877
 20
441.5413498795365
 30
0.0
 10
447.0057743690588
 20
441.4969475701568
 30
0.0
 10
447.1360076815667
 20
441.4081453835147
 30
0.0
 10
447.3733194853489
 20
441.3660080288973
 30
0.0
 10
447.6084553556565
 20
441.3999002361855
 30
0.0
 10
447.7893234006393
 20
441.4918057017624
 30
0.0
 10
447.87504767769
 20
441.5755319913993
 30
0.0
 10
447.9045077388894
 20
441.6043054229353
 30
0.0
  0
SPLINE
  5
BF
330
1F
100
AcDbEntity
  8
0
  6
Continuous
 62
     7
370
    25
100
AcDbSpline
210
0.0
220
0.0
230
1.0
 70
     8
 71
     3
 72
    11
 73
     7
 74
     0
 42
0.000000001
 43
0.00000001
 40
0.0
 40
0.0
 40
0.0
 40
0.0
 40
0.2832272015962787
 40
0.5762690391383282
 40
0.7861908724560374
 40
1.0
 40
1.0
 40
1.0
 40
1.0
 10
459.1616942709099
 20
453.8301577708457
 30
0.0
 10
458.249005811757
 20
452.8389328110287
 30
0.0
 10
456.3920016171583
 20
450.8221340998021
 30
0.0
 10
453.4157234552068
 20
447.5897474589869
 30
0.0
 10
450.5549814785708
 20
444.4828510220256
 30
0.0
 10
448.7933859257916
 20
442.5696711063328
 30
0.0
 10
447.9045077388894
 20
441.6043054229353
 30
0.0
  0
SPLINE
  5
C0
330
1F
100
AcDbEntity
  8
0
  6
Continuous
 62
     7
370
    25
100
AcDbSpline
210
0.0
220
0.0
230
1.0
 70
     8
 71
     3
 72
    12
 73
     8
 74
     0
 42
0.000000001
 43
0.00000001
 40
0.0
 40
0.0
 40
0.0
 40
0.0
 40
0.3203311308778644
 40
0.5619226008215544
 40
0.7389272517600163
 40
0.8801328843290801
 40
1.0
 40
1.0
 40
1.0
 40
1.0
 10
445.143255514444
 20
461.8680378339027
 30
0.0
 10
445.1611909921241
 20
461.9728846138956
 30
0.0
 10
445.1926532800302
 20
462.15680609271
 30
0.0
 10
445.1014685854209
 20
462.4096852287163
 30
0.0
 10
444.964434729567
 20
462.5833058450847
 30
0.0
 10
444.8091996944808
 20
462.6967029108602
 30
0.0
 10
444.6966454865308
 20
462.7335692311982
 30
0.0
 10
444.6449681347024
 20
462.7504957756732
 30
0.0
  0
LINE
  5
C1
330
1F
100
AcDbEntity
  8
0
  6
Continuous
 62
     7
370
    25
100
AcDbLine
 10
442.5634547299
 20
463.2761826656
 30
0.0
 11
444.6449681347
 21
462.7504957757
 31
0.0
  0
SPLINE
  5
C2
330
1F
100
AcDbEntity
  8
0
  6
Continuous
 62
     7
370
    25
100
AcDbSpline
210
0.0
220
0.0
230
1.0
 70
     8
 71
     3
 72
    12
 73
     8
 74
     0
 42
0.000000001
 43
0.00000001
 40
0.0
 40
0.0
 40
0.0
 40
0.0
 40
0.1369228928067208
 40
0.273288101380171
 40
0.46092373372257
 40
0.717305326411435
 40
1.0
 40
1.0
 40
1.0
 40
1.0
 10
442.5634547298562
 20
463.2761826655601
 30
0.0
 10
442.5020803935408
 20
463.2866216087718
 30
0.0
 10
442.3795816973676
 20
463.3074569775861
 30
0.0
 10
442.1819164274106
 20
463.2747280538979
 30
0.0
 10
441.976128851145
 20
463.1782981663948
 30
0.0
 10
441.7895363042858
 20
462.9950613369836
 30
0.0
 10
441.7346814525229
 20
462.8252072402279
 30
0.0
 10
441.705915254892
 20
462.7361347815727
 30
0.0
  0
SPLINE
  5
C3
330
1F
100
AcDbEntity
  8
0
  6
Continuous
 62
     7
370
    25
100
AcDbSpline
210
0.0
220
0.0
230
1.0
 70
     8
 71
     3
 72
    11
 73
     7
 74
     0
 42
0.000000001
 43
0.00000001
 40
0.0
 40
0.0
 40
0.0
 40
0.0
 40
0.260329670862842
 40
0.5282088153637919
 40
0.7614185309640304
 40
1.0
 40
1.0
 40
1.0
 40
1.0
 10
438.4143009012353
 20
446.446230067942
 30
0.0
 10
438.7305647070502
 20
448.0113900702348
 30
0.0
 10
439.3722638635786
 20
451.1870991929242
 30
0.0
 10
440.247421561895
 20
455.5181670210897
 30
0.0
 10
441.0416810510986
 20
459.4488971819815
 30
0.0
 10
441.4828295669707
 20
461.6321030152504
 30
0.0
 10
441.705915254892
 20
462.7361347815727
 30
0.0
  0
SPLINE
  5
C4
330
1F
100
AcDbEntity
  8
0
  6
Continuous
 62
     7
370
    25
100
AcDbSpline
210
0.0
220
0.0
230
1.0
 70
     8
 71
     3
 72
    12
 73
     8
 74
     0
 42
0.000000001
 43
0.00000001
 40
0.0
 40
0.0
 40
0.0
 40
0.0
 40
0.2229006803019556
 40
0.4458345814591405
 40
0.6679315335102572
 40
0.8889184283620262
 40
1.0
 40
1.0
 40
1.0
 40
1.0
 10
438.4143009012353
 20
446.446230067942
 30
0.0
 10
438.4062894327554
 20
446.3673086512666
 30
0.0
 10
438.3902653017759
 20
446.2094540555606
 30
0.0
 10
438.4677530928129
 20
445.9790897565448
 30
0.0
 10
438.6116134662949
 20
445.7884208166536
 30
0.0
 10
438.7785253622449
 20
445.6751803005582
 30
0.0
 10
438.8913052529767
 20
445.6404976296543
 30
0.0
 10
438.9290317123543
 20
445.628895788524
 30
0.0
  0
LINE
  5
C5
330
1F
100
AcDbEntity
  8
0
  6
Continuous
 62
     7
370
    25
100
AcDbLine
 10
439.4643857306
 20
445.4936919651
 30
0.0
 11
438.9290317124
 21
445.6288957885
 31
0.0
  0
SPLINE
  5
C6
330
1F
100
AcDbEntity
  8
0
  6
Continuous
 62
     7
370
    25
100
AcDbSpline
210
0.0
220
0.0
230
1.0
 70
     8
 71
     3
 72
    12
 73
     8
 74
     0
 42
0.000000001
 43
0.00000001
 40
0.0
 40
0.0
 40
0.0
 40
0.0
 40
0.2200860006056665
 40
0.4401598766949644
 40
0.5885369697659063
 40
0.8110231066289231
 40
1.0
 40
1.0
 40
1.0
 40
1.0
 10
439.4643857305657
 20
445.4936919650768
 30
0.0
 10
439.5422989138796
 20
445.4819154843174
 30
0.0
 10
439.6981209882777
 20
445.458363171564
 30
0.0
 10
439.9051956595111
 20
445.5166190375735
 30
0.0
 10
440.0852031784153
 20
445.6238807870722
 30
0.0
 10
440.2266633524964
 20
445.7706638470661
 30
0.0
 10
440.2806700893898
 20
445.9063145030442
 30
0.0
 10
440.3054743235718
 20
445.9686161867116
 30
0.0
  0
SPLINE
  5
C7
330
1F
100
AcDbEntity
  8
0
  6
Continuous
 62
     7
370
    25
100
AcDbSpline
210
0.0
220
0.0
230
1.0
 70
     8
 71
     3
 72
    11
 73
     7
 74
     0
 42
0.000000001
 43
0.00000001
 40
0.0
 40
0.0
 40
0.0
 40
0.0
 40
0.2832273276338562
 40
0.5762691256321469
 40
0.786190826254712
 40
1.0
 40
1.0
 40
1.0
 40
1.0
 10
445.143255514444
 20
461.8680378339027
 30
0.0
 10
444.7510249678431
 20
460.5789741073232
 30
0.0
 10
443.952972195096
 20
457.9561776674247
 30
0.0
 10
442.6739172609074
 20
453.7525403127117
 30
0.0
 10
441.4445217250664
 20
449.7120913185416
 30
0.0
 10
440.687471947864
 20
447.224049986112
 30
0.0
 10
440.3054743235718
 20
445.9686161867116
 30
0.0
  0
SPLINE
  5
C8
330
1F
100
AcDbEntity
  8
0
  6
Continuous
 62
     7
370
    25
100
AcDbSpline
210
0.0
220
0.0
230
1.0
 70
     8
 71
     3
 72
    12
 73
     8
 74
     0
 42
0.000000001
 43
0.00000001
 40
0.0
 40
0.0
 40
0.0
 40
0.0
 40
0.3203302506991163
 40
0.561923119400083
 40
0.7389290508855025
 40
0.8801309628976767
 40
1.0
 40
1.0
 40
1.0
 40
1.0
 10
429.0255635207307
 20
463.0275456151699
 30
0.0
 10
428.9962340202419
 20
463.1297914625781
 30
0.0
 10
428.9447842293803
 20
463.3091510622285
 30
0.0
 10
428.7529020375053
 20
463.4974151862027
 30
0.0
 10
428.5541132386221
 20
463.5943963565658
 30
0.0
 10
428.3650506018278
 20
463.6292030987428
 30
0.0
 10
428.2476480651046
 20
463.6135854785978
 30
0.0
 10
428.1937434499871
 20
463.6064147493576
 30
0.0
  0
LINE
  5
C9
330
1F
100
AcDbEntity
  8
0
  6
Continuous
 62
     7
370
    25
100
AcDbLine
 10
426.0902731841
 20
463.1769074044
 30
0.0
 11
428.19374345
 21
463.6064147494
 31
0.0
  0
SPLINE
  5
CA
330
1F
100
AcDbEntity
  8
0
  6
Continuous
 62
     7
370
    25
100
AcDbSpline
210
0.0
220
0.0
230
1.0
 70
     8
 71
     3
 72
    12
 73
     8
 74
     0
 42
0.000000001
 43
0.00000001
 40
0.0
 40
0.0
 40
0.0
 40
0.0
 40
0.1369180581925615
 40
0.2732898113732902
 40
0.4609258822709992
 40
0.7173046349103915
 40
1.0
 40
1.0
 40
1.0
 40
1.0
 10
426.0902731841218
 20
463.1769074043964
 30
0.0
 10
426.0304498815004
 20
463.1596841276285
 30
0.0
 10
425.9110419720914
 20
463.1253062952134
 30
0.0
 10
425.7471505509283
 20
463.0100526924561
 30
0.0
 10
425.6035851751019
 20
462.8338802494455
 30
0.0
 10
425.5149753107649
 20
462.5878352865876
 30
0.0
 10
425.5392524728093
 20
462.4110019677894
 30
0.0
 10
425.5519836371552
 20
462.3182689687942
 30
0.0
  0
SPLINE
  5
CB
330
1F
100
AcDbEntity
  8
0
  6
Continuous
 62
     7
370
    25
100
AcDbSpline
210
0.0
220
0.0
230
1.0
 70
     8
 71
     3
 72
    11
 73
     7
 74
     0
 42
0.000000001
 43
0.00000001
 40
0.0
 40
0.0
 40
0.0
 40
0.0
 40
0.2603297256162371
 40
0.528208793927872
 40
0.7614185082425472
 40
1.0
 40
1.0
 40
1.0
 40
1.0
 10
429.6542658632409
 20
446.2133919737075
 30
0.0
 10
429.2601118693856
 20
447.7607745734293
 30
0.0
 10
428.4603737479577
 20
450.9004125644781
 30
0.0
 10
427.3696811793851
 20
455.1822859091636
 30
0.0
 10
426.3798067971809
 20
459.0683684492869
 30
0.0
 10
425.8300113330869
 20
461.2267769725838
 30
0.0
 10
425.5519836371552
 20
462.3182689687942
 30
0.0
  0
SPLINE
  5
CC
330
1F
100
AcDbEntity
  8
0
  6
Continuous
 62
     7
370
    25
100
AcDbSpline
210
0.0
220
0.0
230
1.0
 70
     8
 71
     3
 72
    12
 73
     8
 74
     0
 42
0.000000001
 43
0.00000001
 40
0.0
 40
0.0
 40
0.0
 40
0.0
 40
0.2228973340059619
 40
0.4458355253591638
 40
0.6679354441407674
 40
0.8889157291169625
 40
1.0
 40
1.0
 40
1.0
 40
1.0
 10
429.6542658632409
 20
446.2133919737075
 30
0.0
 10
429.6812883043222
 20
446.1388109493646
 30
0.0
 10
429.7353381397305
 20
445.989635229888
 30
0.0
 10
429.905106506676
 20
445.8157050524518
 30
0.0
 10
430.1174494006837
 20
445.7063433236271
 30
0.0
 10
430.3169626421895
 20
445.6767296650505
 30
0.0
 10
430.4336201139788
 20
445.694416956701
 30
0.0
 10
430.4726450865876
 20
445.7003338179325
 30
0.0
  0
LINE
  5
CD
330
1F
100
AcDbEntity
  8
0
  6
Continuous
 62
     7
370
    25
100
AcDbLine
 10
431.0136466449
 20
445.8107998512
 30
0.0
 11
430.4726450866
 21
445.7003338179
 31
0.0
  0
SPLINE
  5
CE
330
1F
100
AcDbEntity
  8
0
  6
Continuous
 62
     7
370
    25
100
AcDbSpline
210
0.0
220
0.0
230
1.0
 70
     8
 71
     3
 72
    13
 73
     9
 74
     0
 42
0.000000001
 43
0.00000001
 40
0.0
 40
0.0
 40
0.0
 40
0.0
 40
0.2200613351910316
 40
0.2941798506871303
 40
0.5152188557913301
 40
0.7362286683002554
 40
0.9580121198955718
 40
1.0
 40
1.0
 40
1.0
 40
1.0
 10
431.0136466448914
 20
445.8107998511528
 30
0.0
 10
431.0891655880284
 20
445.8336292926401
 30
0.0
 10
431.1901199487606
 20
445.8641478827513
 30
0.0
 10
431.3413259856722
 20
445.9679346575352
 30
0.0
 10
431.4692218724117
 20
446.1036350167687
 30
0.0
 10
431.5650507183198
 20
446.3224375696276
 30
0.0
 10
431.5797229972568
 20
446.4967902550779
 30
0.0
 10
431.5673470743063
 20
446.5889544791278
 30
0.0
 10
431.5653770392548
 20
446.6036254456972
 30
0.0
  0
SPLINE
  5
CF
330
1F
100
AcDbEntity
  8
0
  6
Continuous
 62
     7
370
    25
100
AcDbSpline
210
0.0
220
0.0
230
1.0
 70
     8
 71
     3
 72
    11
 73
     7
 74
     0
 42
0.000000001
 43
0.00000001
 40
0.0
 40
0.0
 40
0.0
 40
0.0
 40
0.2832274051655229
 40
0.5762691588185695
 40
0.7861908845104891
 40
1.0
 40
1.0
 40
1.0
 40
1.0
 10
429.0255635207307
 20
463.0275456151699
 30
0.0
 10
429.2314818760585
 20
461.6959563075668
 30
0.0
 10
429.6504540349875
 20
458.9866356832588
 30
0.0
 10
430.3219588926767
 20
454.6443285180611
 30
0.0
 10
430.9673896204433
 20
450.4705937383781
 30
0.0
 10
431.3648324933764
 20
447.9004744692491
 30
0.0
 10
431.5653770392548
 20
446.6036254456972
 30
0.0
  0
ARC
  5
D0
330
1F
100
AcDbEntity
  8
0
  6
Continuous
 62
     7
370
    25
100
AcDbCircle
 10
434.544345898
 20
427.1396895787
 30
0.0
 40
16.42261912899999
100
AcDbArc
 50
217.2549368278
 51
37.2549368278
  0
ARC
  5
D1
330
1F
100
AcDbEntity
  8
0
  6
Continuous
 62
     7
370
    25
100
AcDbCircle
 10
434.544345898
 20
427.1396895787
 30
0.0
 40
16.42261912899999
100
AcDbArc
 50
37.2549368278
 51
217.2549368278
  0
SPLINE
  5
D2
330
1F
100
AcDbEntity
  8
0
  6
Continuous
 62
     7
370
    25
100
AcDbSpline
210
0.0
220
0.0
230
1.0
 70
     8
 71
     3
 72
    12
 73
     8
 74
     0
 42
0.000000001
 43
0.00000001
 40
0.0
 40
0.0
 40
0.0
 40
0.0
 40
0.3203329426688222
 40
0.5619258986218262
 40
0.7389278066200694
 40
0.8801319419459912
 40
1.0
 40
1.0
 40
1.0
 40
1.0
 10
398.3282326882493
 20
429.7450756571029
 30
0.0
 10
398.2220222204058
 20
429.7392333546409
 30
0.0
 10
398.0357085303783
 20
429.7289848268636
 30
0.0
 10
397.8094595565337
 20
429.5838107523697
 30
0.0
 10
397.6706899974506
 20
429.4115787755763
 30
0.0
 10
397.5946796855433
 20
429.2350042966855
 30
0.0
 10
397.5837822214302
 20
429.1170689538986
 30
0.0
 10
397.5787787860047
 20
429.0629204046686
 30
0.0
  0
LINE
  5
D3
330
1F
100
AcDbEntity
  8
0
  6
Continuous
 62
     7
370
    25
100
AcDbLine
 10
397.5294559425
 20
426.9166156596
 30
0.0
 11
397.578778786
 21
429.0629204047
 31
0.0
  0
SPLINE
  5
D4
330
1F
100
AcDbEntity
  8
0
  6
Continuous
 62
     7
370
    25
100
AcDbSpline
210
0.0
220
0.0
230
1.0
 70
     8
 71
     3
 72
    12
 73
     8
 74
     0
 42
0.000000001
 43
0.00000001
 40
0.0
 40
0.0
 40
0.0
 40
0.0
 40
0.136919264440941
 40
0.2732858678324386
 40
0.4609271554143621
 40
0.7173016155959414
 40
1.0
 40
1.0
 40
1.0
 40
1.0
 10
397.5294559424531
 20
426.9166156595579
 30
0.0
 10
397.5329327321926
 20
426.854458654742
 30
0.0
 10
397.5398722779544
 20
426.7303955357036
 30
0.0
 10
397.6157593984442
 20
426.5449633644844
 30
0.0
 10
397.7555849173745
 20
426.3658019665567
 30
0.0
 10
397.9757308030198
 20
426.2246553459531
 30
0.0
 10
398.1535380101666
 20
426.2089751211219
 30
0.0
 10
398.2467829411637
 20
426.2007521615137
 30
0.0
  0
SPLINE
  5
D5
330
1F
100
AcDbEntity
  8
0
  6
Continuous
 62
     7
370
    25
100
AcDbSpline
210
0.0
220
0.0
230
1.0
 70
     8
 71
     3
 72
    11
 73
     7
 74
     0
 42
0.000000001
 43
0.00000001
 40
0.0
 40
0.0
 40
0.0
 40
0.0
 40
0.2603297318648687
 40
0.5282087335096123
 40
0.761418880205346
 40
1.0
 40
1.0
 40
1.0
 40
1.0
 10
414.8607134049546
 20
426.6165103330982
 30
0.0
 10
413.2644197354546
 20
426.5765636246988
 30
0.0
 10
410.0255416732529
 20
426.4955117982311
 30
0.0
 10
405.6083232472306
 20
426.3849721184777
 30
0.0
 10
401.5994013285238
 20
426.2846507756172
 30
0.0
 10
399.3727718795619
 20
426.2289298126844
 30
0.0
 10
398.2467829411637
 20
426.2007521615137
 30
0.0
  0
SPLINE
  5
D6
330
1F
100
AcDbEntity
  8
0
  6
Continuous
 62
     7
370
    25
100
AcDbSpline
210
0.0
220
0.0
230
1.0
 70
     8
 71
     3
 72
    12
 73
     8
 74
     0
 42
0.000000001
 43
0.00000001
 40
0.0
 40
0.0
 40
0.0
 40
0.0
 40
0.2228440376321031
 40
0.4114699786443818
 40
0.6322902048141249
 40
0.853134685055816
 40
1.0
 40
1.0
 40
1.0
 40
1.0
 10
414.8607134049546
 20
426.6165103330982
 30
0.0
 10
414.939468198853
 20
426.626203139924
 30
0.0
 10
415.0848848485773
 20
426.6441004059225
 30
0.0
 10
415.2829350815917
 20
426.757818737464
 30
0.0
 10
415.437603364134
 20
426.9226596239029
 30
0.0
 10
415.5266563551038
 20
427.1177078787229
 30
0.0
 10
415.5383462256699
 20
427.2481209661223
 30
0.0
 10
415.5430152242791
 20
427.3002086706233
 30
0.0
  0
LINE
  5
D7
330
1F
100
AcDbEntity
  8
0
  6
Continuous
 62
     7
370
    25
100
AcDbLine
 10
415.555703563
 20
427.8522240497
 30
0.0
 11
415.5430152243
 21
427.3002086706
 31
0.0
  0
SPLINE
  5
D8
330
1F
100
AcDbEntity
  8
0
  6
Continuous
 62
     7
370
    25
100
AcDbSpline
210
0.0
220
0.0
230
1.0
 70
     8
 71
     3
 72
    12
 73
     8
 74
     0
 42
0.000000001
 43
0.00000001
 40
0.0
 40
0.0
 40
0.0
 40
0.0
 40
0.2201326151494974
 40
0.4402530344682803
 40
0.6607457001505432
 40
0.882156793801835
 40
1.0
 40
1.0
 40
1.0
 40
1.0
 10
415.5557035630356
 20
427.8522240496945
 30
0.0
 10
415.5498194163638
 20
427.930820168667
 30
0.0
 10
415.5380514490149
 20
428.0880080522141
 30
0.0
 10
415.4230337562952
 20
428.2998227955039
 30
0.0
 10
415.250243341387
 20
428.4622143560005
 30
0.0
 10
415.0657477732403
 20
428.546493866191
 30
0.0
 10
414.9468343539089
 20
428.5613751695046
 30
0.0
 10
414.9055286472451
 20
428.5665443316807
 30
0.0
  0
SPLINE
  5
D9
330
1F
100
AcDbEntity
  8
0
  6
Continuous
 62
     7
370
    25
100
AcDbSpline
210
0.0
220
0.0
230
1.0
 70
     8
 71
     3
 72
    11
 73
     7
 74
     0
 42
0.000000001
 43
0.00000001
 40
0.0
 40
0.0
 40
0.0
 40
0.0
 40
0.2832274363580776
 40
0.5762690975609408
 40
0.7861907125028494
 40
1.0
 40
1.0
 40
1.0
 40
1.0
 10
398.3282326882493
 20
429.7450756571029
 30
0.0
 10
399.6722573064529
 20
429.6495248058653
 30
0.0
 10
402.4068788663949
 20
429.4551121334141
 30
0.0
 10
406.7897362472689
 20
429.1435211471495
 30
0.0
 10
411.0024473388235
 20
428.8440260846783
 30
0.0
 10
413.5965679781451
 20
428.6596022703619
 30
0.0
 10
414.9055286472451
 20
428.5665443316807
 30
0.0
  0
SPLINE
  5
DA
330
1F
100
AcDbEntity
  8
0
  6
Continuous
 62
     7
370
    25
100
AcDbSpline
210
0.0
220
0.0
230
1.0
 70
     8
 71
     3
 72
    12
 73
     8
 74
     0
 42
0.000000001
 43
0.00000001
 40
0.0
 40
0.0
 40
0.0
 40
0.0
 40
0.3203280681949184
 40
0.5619280743356172
 40
0.7389295118327668
 40
0.8801323511657363
 40
1.0
 40
1.0
 40
1.0
 40
1.0
 10
403.0451878135812
 20
445.2006457290386
 30
0.0
 10
402.9469651933026
 20
445.241464303093
 30
0.0
 10
402.7746604428
 20
445.3130693386578
 30
0.0
 10
402.507821047815
 20
445.2804350279259
 30
0.0
 10
402.3080632175034
 20
445.1854736343122
 30
0.0
 10
402.1629721939834
 20
445.0593619950762
 30
0.0
 10
402.1019842335774
 20
444.9578353292924
 30
0.0
 10
402.0739822810303
 20
444.9112204751705
 30
0.0
  0
LINE
  5
DB
330
1F
100
AcDbEntity
  8
0
  6
Continuous
 62
     7
370
    25
100
AcDbLine
 10
401.0982840484
 20
442.9988687775
 30
0.0
 11
402.073982281
 21
444.9112204752
 31
0.0
  0
SPLINE
  5
DC
330
1F
100
AcDbEntity
  8
0
  6
Continuous
 62
     7
370
    25
100
AcDbSpline
210
0.0
220
0.0
230
1.0
 70
     8
 71
     3
 72
    12
 73
     8
 74
     0
 42
0.000000001
 43
0.00000001
 40
0.0
 40
0.0
 40
0.0
 40
0.0
 40
0.13691813737085
 40
0.2732876316945422
 40
0.4609255045215672
 40
0.7173032056640274
 40
1.0
 40
1.0
 40
1.0
 40
1.0
 10
401.0982840483796
 20
442.9988687774871
 30
0.0
 10
401.0744550168342
 20
442.9413571056329
 30
0.0
 10
401.0268924387738
 20
442.8265642162639
 30
0.0
 10
401.0148014581521
 20
442.6265724515432
 30
0.0
 10
401.0630387452295
 20
442.4044871061536
 30
0.0
 10
401.2001428661921
 20
442.1817983513792
 30
0.0
 10
401.3535361996909
 20
442.0905256867284
 30
0.0
 10
401.4339774077546
 20
442.0426612636779
 30
0.0
  0
SPLINE
  5
DD
330
1F
100
AcDbEntity
  8
0
  6
Continuous
 62
     7
370
    25
100
AcDbSpline
210
0.0
220
0.0
230
1.0
 70
     8
 71
     3
 72
    11
 73
     7
 74
     0
 42
0.000000001
 43
0.00000001
 40
0.0
 40
0.0
 40
0.0
 40
0.0
 40
0.2603296347196679
 40
0.5282088634201298
 40
0.7614184601242087
 40
1.0
 40
1.0
 40
1.0
 40
1.0
 10
416.5830045169007
 20
435.2087289011811
 30
0.0
 10
415.1274622065037
 20
435.8653442829497
 30
0.0
 10
412.1741666654002
 20
437.1976169797622
 30
0.0
 10
408.1464268951032
 20
439.0145816533878
 30
0.0
 10
404.4909912359814
 20
440.6636006232813
 30
0.0
 10
402.4606878806277
 20
441.5794981634169
 30
0.0
 10
401.4339774077545
 20
442.0426612636779
 30
0.0
  0
SPLINE
  5
DE
330
1F
100
AcDbEntity
  8
0
  6
Continuous
 62
     7
370
    25
100
AcDbSpline
210
0.0
220
0.0
230
1.0
 70
     8
 71
     3
 72
    13
 73
     9
 74
     0
 42
0.000000001
 43
0.00000001
 40
0.0
 40
0.0
 40
0.0
 40
0.0
 40
0.2228816037828536
 40
0.4457905210424556
 40
0.6678670091654915
 40
0.7058074316075372
 40
0.9258772905548759
 40
1.0
 40
1.0
 40
1.0
 40
1.0
 10
416.5830045169007
 20
435.2087289011811
 30
0.0
 10
416.6581895494065
 20
435.1833565587619
 30
0.0
 10
416.8085688281199
 20
435.1326087646185
 30
0.0
 10
417.0500490271134
 20
435.1568961808412
 30
0.0
 10
417.2090305721637
 20
435.2278166286584
 30
0.0
 10
417.3472408097334
 20
435.3269241375757
 30
0.0
 10
417.4310204357693
 20
435.414371425289
 30
0.0
 10
417.4816364736526
 20
435.505674977093
 30
0.0
 10
417.4943893378388
 20
435.5286791837548
 30
0.0
  0
LINE
  5
DF
330
1F
100
AcDbEntity
  8
0
  6
Continuous
 62
     7
370
    25
100
AcDbLine
 10
417.7453248923
 20
436.0205236739
 30
0.0
 11
417.4943893378
 21
435.5286791838
 31
0.0
  0
SPLINE
  5
E0
330
1F
100
AcDbEntity
  8
0
  6
Continuous
 62
     7
370
    25
100
AcDbSpline
210
0.0
220
0.0
230
1.0
 70
     8
 71
     3
 72
    12
 73
     8
 74
     0
 42
0.000000001
 43
0.00000001
 40
0.0
 40
0.0
 40
0.0
 40
0.0
 40
0.2201344281910061
 40
0.4402555241337338
 40
0.660742933975659
 40
0.8821623475378507
 40
1.0
 40
1.0
 40
1.0
 40
1.0
 10
417.7453248923432
 20
436.0205236739253
 30
0.0
 10
417.7741236294148
 20
436.0938903713749
 30
0.0
 10
417.8317193593876
 20
436.2406193228845
 30
0.0
 10
417.8199926957413
 20
436.4813576727611
 30
0.0
 10
417.7347905022443
 20
436.7026468419105
 30
0.0
 10
417.605122812646
 20
436.8586202728529
 30
0.0
 10
417.5044443011251
 20
436.9236253968501
 30
0.0
 10
417.4694745963227
 20
436.9462042963837
 30
0.0
  0
SPLINE
  5
E1
330
1F
100
AcDbEntity
  8
0
  6
Continuous
 62
     7
370
    25
100
AcDbSpline
210
0.0
220
0.0
230
1.0
 70
     8
 71
     3
 72
    11
 73
     7
 74
     0
 42
0.000000001
 43
0.00000001
 40
0.0
 40
0.0
 40
0.0
 40
0.0
 40
0.2832273728794311
 40
0.5762691222815665
 40
0.7861906279075918
 40
1.0
 40
1.0
 40
1.0
 40
1.0
 10
403.0451878135812
 20
445.2006457290386
 30
0.0
 10
404.2146541898077
 20
444.5314069319679
 30
0.0
 10
406.5941112151451
 20
443.1697389185134
 30
0.0
 10
410.4077372202291
 20
440.9873546647247
 30
0.0
 10
414.0733119705947
 20
438.8896887023462
 30
0.0
 10
416.3305168618957
 20
437.5979830360531
 30
0.0
 10
417.4694745963227
 20
436.9462042963837
 30
0.0
  0
SPLINE
  5
E2
330
1F
100
AcDbEntity
  8
0
  6
Continuous
 62
     7
370
    25
100
AcDbSpline
210
0.0
220
0.0
230
1.0
 70
     8
 71
     3
 72
    12
 73
     8
 74
     0
 42
0.000000001
 43
0.00000001
 40
0.0
 40
0.0
 40
0.0
 40
0.0
 40
0.3203315446629156
 40
0.5619248165638262
 40
0.7389294630721726
 40
0.8801347109398333
 40
1.0
 40
1.0
 40
1.0
 40
1.0
 10
400.7843165820252
 20
413.7734774417017
 30
0.0
 10
400.6911596408348
 20
413.7221316548421
 30
0.0
 10
400.5277439611672
 20
413.6320610004119
 30
0.0
 10
400.3868967596358
 20
413.4030974940504
 30
0.0
 10
400.3365829633125
 20
413.1877101158116
 30
0.0
 10
400.3447350274346
 20
412.9956450476774
 30
0.0
 10
400.3860728137115
 20
412.8846578579037
 30
0.0
 10
400.4050522273194
 20
412.8337003207539
 30
0.0
  0
LINE
  5
E3
330
1F
100
AcDbEntity
  8
0
  6
Continuous
 62
     7
370
    25
100
AcDbLine
 10
401.2918650334
 20
410.8785459689
 30
0.0
 11
400.4050522273
 21
412.8337003208
 31
0.0
  0
SPLINE
  5
E4
330
1F
100
AcDbEntity
  8
0
  6
Continuous
 62
     7
370
    25
100
AcDbSpline
210
0.0
220
0.0
230
1.0
 70
     8
 71
     3
 72
    12
 73
     8
 74
     0
 42
0.000000001
 43
0.00000001
 40
0.0
 40
0.0
 40
0.0
 40
0.0
 40
0.1369200456855274
 40
0.2732909738529996
 40
0.460927577435829
 40
0.717306038760784
 40
1.0
 40
1.0
 40
1.0
 40
1.0
 10
401.2918650334489
 20
410.8785459688638
 30
0.0
 10
401.3219684663921
 20
410.8240537467963
 30
0.0
 10
401.3820546025325
 20
410.7152878435885
 30
0.0
 10
401.5308920895416
 20
410.5811553188184
 30
0.0
 10
401.7345911505904
 20
410.4803853121709
 30
0.0
 10
401.9941865094159
 20
410.4487499481444
 30
0.0
 10
402.1611834482205
 20
410.5117659883563
 30
0.0
 10
402.248758000673
 20
410.5448121121858
 30
0.0
  0
SPLINE
  5
E5
330
1F
100
AcDbEntity
  8
0
  6
Continuous
 62
     7
370
    25
100
AcDbSpline
210
0.0
220
0.0
230
1.0
 70
     8
 71
     3
 72
    11
 73
     7
 74
     0
 42
0.000000001
 43
0.00000001
 40
0.0
 40
0.0
 40
0.0
 40
0.0
 40
0.2603296821811515
 40
0.5282089031784052
 40
0.7614185485395459
 40
1.0
 40
1.0
 40
1.0
 40
1.0
 10
417.0370056455743
 20
418.127914323542
 30
0.0
 10
415.6161273538617
 20
417.3993173337979
 30
0.0
 10
412.7331654198737
 20
415.9209941030878
 30
0.0
 10
408.8013480439875
 20
413.9048426651817
 30
0.0
 10
405.2329660285245
 20
412.0750527293642
 30
0.0
 10
403.2510161600945
 20
411.0587495220886
 30
0.0
 10
402.248758000673
 20
410.5448121121858
 30
0.0
  0
SPLINE
  5
E6
330
1F
100
AcDbEntity
  8
0
  6
Continuous
 62
     7
370
    25
100
AcDbSpline
210
0.0
220
0.0
230
1.0
 70
     8
 71
     3
 72
    12
 73
     8
 74
     0
 42
0.000000001
 43
0.00000001
 40
0.0
 40
0.0
 40
0.0
 40
0.0
 40
0.1165854319672508
 40
0.3388923024238801
 40
0.5612375927451957
 40
0.7827185974055954
 40
1.0
 40
1.0
 40
1.0
 40
1.0
 10
417.0370056455743
 20
418.127914323542
 30
0.0
 10
417.072602059695
 20
418.1486191079056
 30
0.0
 10
417.1760742563139
 20
418.2088040892176
 30
0.0
 10
417.3133405630018
 20
418.3589008199226
 30
0.0
 10
417.4090665591299
 20
418.5775365939617
 30
0.0
 10
417.4310258615324
 20
418.8177394186814
 30
0.0
 10
417.3802421174496
 20
418.9663509381207
 30
0.0
 10
417.3550932829987
 20
419.0399454823469
 30
0.0
  0
LINE
  5
E7
330
1F
100
AcDbEntity
  8
0
  6
Continuous
 62
     7
370
    25
100
AcDbLine
 10
417.1270161098
 20
419.5427982053
 30
0.0
 11
417.355093283
 21
419.0399454823
 31
0.0
  0
SPLINE
  5
E8
330
1F
100
AcDbEntity
  8
0
  6
Continuous
 62
     7
370
    25
100
AcDbSpline
210
0.0
220
0.0
230
1.0
 70
     8
 71
     3
 72
    12
 73
     8
 74
     0
 42
0.000000001
 43
0.00000001
 40
0.0
 40
0.0
 40
0.0
 40
0.0
 40
0.2201342860029334
 40
0.4402540384711093
 40
0.6607457675186874
 40
0.8821622156784702
 40
1.0
 40
1.0
 40
1.0
 40
1.0
 10
417.1270161097657
 20
419.5427982053493
 30
0.0
 10
417.0876105256975
 20
419.6110569294323
 30
0.0
 10
417.008801959166
 20
419.7475698710738
 30
0.0
 10
416.8132737049171
 20
419.8885051442189
 30
0.0
 10
416.5871350631568
 20
419.9598487837438
 30
0.0
 10
416.3843426373239
 20
419.9557283955613
 30
0.0
 10
416.2707485780313
 20
419.9175418694014
 30
0.0
 10
416.2312924092423
 20
419.9042780241703
 30
0.0
  0
SPLINE
  5
E9
330
1F
100
AcDbEntity
  8
0
  6
Continuous
 62
     7
370
    25
100
AcDbSpline
210
0.0
220
0.0
230
1.0
 70
     8
 71
     3
 72
    11
 73
     7
 74
     0
 42
0.000000001
 43
0.00000001
 40
0.0
 40
0.0
 40
0.0
 40
0.0
 40
0.283227282815335
 40
0.5762690132422065
 40
0.786190863483524
 40
1.0
 40
1.0
 40
1.0
 40
1.0
 10
400.7843165820252
 20
413.7734774417017
 30
0.0
 10
402.0366980166019
 20
414.2705391799605
 30
0.0
 10
404.5848586539966
 20
415.2818869377737
 30
0.0
 10
408.6688729466781
 20
416.9028053871917
 30
0.0
 10
412.5943426799327
 20
418.460797360473
 30
0.0
 10
415.0115839504494
 20
419.4201840149991
 30
0.0
 10
416.2312924092423
 20
419.9042780241703
 30
0.0
  0
SPLINE
  5
EA
330
1F
100
AcDbEntity
  8
0
  6
Continuous
 62
     7
370
    25
100
AcDbSpline
210
0.0
220
0.0
230
1.0
 70
     8
 71
     3
 72
    12
 73
     8
 74
     0
 42
0.000000001
 43
0.00000001
 40
0.0
 40
0.0
 40
0.0
 40
0.0
 40
0.3203299110998464
 40
0.561922996568206
 40
0.7389265910009366
 40
0.8801327664144226
 40
0.9999999999999999
 40
0.9999999999999999
 40
0.9999999999999999
 40
0.9999999999999999
 10
409.9269910877358
 20
400.4492213866447
 30
0.0
 10
409.8653391232833
 20
400.3625411496212
 30
0.0
 10
409.7571891959457
 20
400.2104866057161
 30
0.0
 10
409.7296400339212
 20
399.9430867759227
 30
0.0
 10
409.7777536474059
 20
399.7271998058287
 30
0.0
 10
409.8684249006319
 20
399.5576843518968
 30
0.0
 10
409.9538339036776
 20
399.4756311037123
 30
0.0
 10
409.9930479353081
 20
399.4379578075145
 30
0.0
  0
LINE
  5
EB
330
1F
100
AcDbEntity
  8
0
  6
Continuous
 62
     7
370
    25
100
AcDbLine
 10
411.640341503
 20
398.0611948213
 30
0.0
 11
409.9930479353
 21
399.4379578075
 31
0.0
  0
SPLINE
  5
EC
330
1F
100
AcDbEntity
  8
0
  6
Continuous
 62
     7
370
    25
100
AcDbSpline
210
0.0
220
0.0
230
1.0
 70
     8
 71
     3
 72
    13
 73
     9
 74
     0
 42
0.000000001
 43
0.00000001
 40
0.0
 40
0.0
 40
0.0
 40
0.0
 40
0.1368241740144477
 40
0.2730989070050714
 40
0.4606082495385842
 40
0.7168128178906608
 40
0.8076512099735649
 40
1.0
 40
1.0
 40
1.0
 40
1.0
 10
411.6403415029656
 20
398.0611948213314
 30
0.0
 10
411.6911141576466
 20
398.025153072126
 30
0.0
 10
411.7924555806734
 20
397.9532143055634
 30
0.0
 10
411.9846160249341
 20
397.8970681504383
 30
0.0
 10
412.2126492667717
 20
397.8938935213937
 30
0.0
 10
412.3917169828372
 20
397.9589633416741
 30
0.0
 10
412.5433617179223
 20
398.0578800711128
 30
0.0
 10
412.6052418341849
 20
398.1280371036948
 30
0.0
 10
412.6472725694787
 20
398.1756897560094
 30
0.0
  0
SPLINE
  5
ED
330
1F
100
AcDbEntity
  8
0
  6
Continuous
 62
     7
370
    25
100
AcDbSpline
210
0.0
220
0.0
230
1.0
 70
     8
 71
     3
 72
    11
 73
     7
 74
     0
 42
0.000000001
 43
0.00000001
 40
0.0
 40
0.0
 40
0.0
 40
0.0
 40
0.2603296915182551
 40
0.5282087274517482
 40
0.7614185274645162
 40
1.0
 40
1.0
 40
1.0
 40
1.0
 10
422.6808427994858
 20
411.4242097279762
 30
0.0
 10
421.7168010888902
 20
410.1512708236684
 30
0.0
 10
419.7607612603392
 20
407.5684788461307
 30
0.0
 10
417.0930971519961
 20
404.0460341022828
 30
0.0
 10
414.6720038671183
 20
400.8491908862517
 30
0.0
 10
413.3272865168361
 20
399.0735955961375
 30
0.0
 10
412.6472725694787
 20
398.1756897560094
 30
0.0
  0
SPLINE
  5
EE
330
1F
100
AcDbEntity
  8
0
  6
Continuous
 62
     7
370
    25
100
AcDbSpline
210
0.0
220
0.0
230
1.0
 70
     8
 71
     3
 72
    12
 73
     8
 74
     0
 42
0.000000001
 43
0.00000001
 40
0.0
 40
0.0
 40
0.0
 40
0.0
 40
0.222900099598435
 40
0.4458331399974493
 40
0.6679325752069656
 40
0.888914887900285
 40
1.0
 40
1.0
 40
1.0
 40
1.0
 10
422.6808427994858
 20
411.4242097279762
 30
0.0
 10
422.7223029892033
 20
411.4918391771423
 30
0.0
 10
422.8052294957411
 20
411.6271080699438
 30
0.0
 10
422.835374755832
 20
411.8682804692189
 30
0.0
 10
422.7884745167745
 20
412.1024812202806
 30
0.0
 10
422.6872364105901
 20
412.2769336725106
 30
0.0
 10
422.600672128798
 20
412.3571135447128
 30
0.0
 10
422.5717141454827
 20
412.3839357784723
 30
0.0
  0
LINE
  5
EF
330
1F
100
AcDbEntity
  8
0
  6
Continuous
 62
     7
370
    25
100
AcDbLine
 10
422.1480368798
 20
412.738029278
 30
0.0
 11
422.5717141455
 21
412.3839357785
 31
0.0
  0
SPLINE
  5
F0
330
1F
100
AcDbEntity
  8
0
  6
Continuous
 62
     7
370
    25
100
AcDbSpline
210
0.0
220
0.0
230
1.0
 70
     8
 71
     3
 72
    12
 73
     8
 74
     0
 42
0.000000001
 43
0.00000001
 40
0.0
 40
0.0
 40
0.0
 40
0.0
 40
0.2201338073208839
 40
0.4402555569081603
 40
0.6607403915941905
 40
0.8821622077912263
 40
1.0
 40
1.0
 40
1.0
 40
1.0
 10
422.1480368798386
 20
412.738029277954
 30
0.0
 10
422.0829184495561
 20
412.7824313938766
 30
0.0
 10
421.9526851558248
 20
412.8712331936154
 30
0.0
 10
421.7153732111466
 20
412.9133734514815
 30
0.0
 10
421.4806770095768
 20
412.87953347468
 30
0.0
 10
421.2997537791495
 20
412.7878377796854
 30
0.0
 10
421.2139781986212
 20
412.7041438323085
 30
0.0
 10
421.184185070337
 20
412.6750737345551
 30
0.0
  0
SPLINE
  5
F1
330
1F
100
AcDbEntity
  8
0
  6
Continuous
 62
     7
370
    25
100
AcDbSpline
210
0.0
220
0.0
230
1.0
 70
     8
 71
     3
 72
    11
 73
     7
 74
     0
 42
0.000000001
 43
0.00000001
 40
0.0
 40
0.0
 40
0.0
 40
0.0
 40
0.2832273552435761
 40
0.5762691299692262
 40
0.7861909182881263
 40
1.0
 40
1.0
 40
1.0
 40
1.0
 10
409.9269910877358
 20
400.4492213866447
 30
0.0
 10
410.8396824740116
 20
401.4404461092473
 30
0.0
 10
412.6966919095842
 20
403.4572435616226
 30
0.0
 10
415.6729690691323
 20
406.6896318130413
 30
0.0
 10
418.5337113931299
 20
409.7965281103473
 30
0.0
 10
420.2953069043866
 20
411.7097080427341
 30
0.0
 10
421.184185070337
 20
412.6750737345551
 30
0.0
  0
SPLINE
  5
F2
330
1F
100
AcDbEntity
  8
0
  6
Continuous
 62
     7
370
    25
100
AcDbSpline
210
0.0
220
0.0
230
1.0
 70
     8
 71
     3
 72
    12
 73
     8
 74
     0
 42
0.000000001
 43
0.00000001
 40
0.0
 40
0.0
 40
0.0
 40
0.0
 40
0.3203308663158508
 40
0.5619221367287441
 40
0.7389266414787704
 40
0.8801278435927314
 40
1.0
 40
1.0
 40
1.0
 40
1.0
 10
423.9454372947823
 20
392.4113413235877
 30
0.0
 10
423.9275018892402
 20
392.3064946348594
 30
0.0
 10
423.8960397278781
 20
392.1225733161405
 30
0.0
 10
423.9872237131727
 20
391.8696932827532
 30
0.0
 10
424.1242582746738
 20
391.6960762330132
 30
0.0
 10
424.2794882629708
 20
391.582672716888
 30
0.0
 10
424.3920443894387
 20
391.5458092762929
 30
0.0
 10
424.443724674524
 20
391.5288833818172
 30
0.0
  0
LINE
  5
F3
330
1F
100
AcDbEntity
  8
0
  6
Continuous
 62
     7
370
    25
100
AcDbLine
 10
426.5252380794
 20
391.0031964919
 30
0.0
 11
424.4437246745
 21
391.5288833818
 31
0.0
  0
SPLINE
  5
F4
330
1F
100
AcDbEntity
  8
0
  6
Continuous
 62
     7
370
    25
100
AcDbSpline
210
0.0
220
0.0
230
1.0
 70
     8
 71
     3
 72
    13
 73
     9
 74
     0
 42
0.000000001
 43
0.00000001
 40
0.0
 40
0.0
 40
0.0
 40
0.0
 40
0.1368497041109913
 40
0.2731526132065442
 40
0.4606954176562194
 40
0.5051884522475971
 40
0.7677987711725911
 40
1.0
 40
1.0
 40
1.0
 40
1.0
 10
426.5252380793702
 20
391.0031964919303
 30
0.0
 10
426.5866253463811
 20
390.9927553112716
 30
0.0
 10
426.7091546021847
 20
390.9719146686087
 30
0.0
 10
426.9065600808496
 20
391.004685077863
 30
0.0
 10
427.0382106161785
 20
391.0657546748615
 30
0.0
 10
427.1859430176494
 20
391.1706273419026
 30
0.0
 10
427.3134146632418
 20
391.3133988645384
 30
0.0
 10
427.3606186106418
 20
391.4698338226207
 30
0.0
 10
427.3827701037537
 20
391.5432443759178
 30
0.0
  0
SPLINE
  5
F5
330
1F
100
AcDbEntity
  8
0
  6
Continuous
 62
     7
370
    25
100
AcDbSpline
210
0.0
220
0.0
230
1.0
 70
     8
 71
     3
 72
    11
 73
     7
 74
     0
 42
0.000000001
 43
0.00000001
 40
0.0
 40
0.0
 40
0.0
 40
0.0
 40
0.2603295971405299
 40
0.5282087458964742
 40
0.7614184652010176
 40
1.0
 40
1.0
 40
1.0
 40
1.0
 10
430.6743844574105
 20
407.8331490895484
 30
0.0
 10
430.3581238201801
 20
406.2679889644771
 30
0.0
 10
429.7164309953811
 20
403.0922791109992
 30
0.0
 10
428.8412702035712
 20
398.7612122945931
 30
0.0
 10
428.0470136954056
 20
394.8304814061455
 30
0.0
 10
427.6058589636487
 20
392.6472760451649
 30
0.0
 10
427.3827701037537
 20
391.5432443759178
 30
0.0
  0
SPLINE
  5
F6
330
1F
100
AcDbEntity
  8
0
  6
Continuous
 62
     7
370
    25
100
AcDbSpline
210
0.0
220
0.0
230
1.0
 70
     8
 71
     3
 72
    12
 73
     8
 74
     0
 42
0.000000001
 43
0.00000001
 40
0.0
 40
0.0
 40
0.0
 40
0.0
 40
0.2229015132621227
 40
0.4458341281256389
 40
0.6679361262878448
 40
0.8889180132599979
 40
1.0
 40
1.0
 40
1.0
 40
1.0
 10
430.6743844574105
 20
407.8331490895484
 30
0.0
 10
430.6823950361666
 20
407.9120701384364
 30
0.0
 10
430.6984173114003
 20
408.0699232481205
 30
0.0
 10
430.6209430912279
 20
408.3002938103559
 30
0.0
 10
430.4770711063656
 20
408.4909529715727
 30
0.0
 10
430.310166150894
 20
408.6042002785208
 30
0.0
 10
430.1973877280045
 20
408.6388817314516
 30
0.0
 10
430.159661096872
 20
408.6504833689664
 30
0.0
  0
LINE
  5
F7
330
1F
100
AcDbEntity
  8
0
  6
Continuous
 62
     7
370
    25
100
AcDbLine
 10
429.6243070787
 20
408.7856871924
 30
0.0
 11
430.1596610969
 21
408.650483369
 31
0.0
  0
SPLINE
  5
F8
330
1F
100
AcDbEntity
  8
0
  6
Continuous
 62
     7
370
    25
100
AcDbSpline
210
0.0
220
0.0
230
1.0
 70
     8
 71
     3
 72
    12
 73
     8
 74
     0
 42
0.000000001
 43
0.00000001
 40
0.0
 40
0.0
 40
0.0
 40
0.0
 40
0.2201335591630502
 40
0.4402549911897354
 40
0.6607442453086256
 40
0.8821588665690525
 40
1.0
 40
1.0
 40
1.0
 40
1.0
 10
429.6243070786606
 20
408.7856871924137
 30
0.0
 10
429.5463717038676
 20
408.7974375031468
 30
0.0
 10
429.3905052477336
 20
408.8209374772895
 30
0.0
 10
429.1584079599393
 20
408.7559411028941
 30
0.0
 10
428.9616348188773
 20
408.6236214695909
 30
0.0
 10
428.8384189205989
 20
408.4625026504397
 30
0.0
 10
428.797449345651
 20
408.3498819766227
 30
0.0
 10
428.7832184856545
 20
408.3107629707788
 30
0.0
  0
SPLINE
  5
F9
330
1F
100
AcDbEntity
  8
0
  6
Continuous
 62
     7
370
    25
100
AcDbSpline
210
0.0
220
0.0
230
1.0
 70
     8
 71
     3
 72
    11
 73
     7
 74
     0
 42
0.000000001
 43
0.00000001
 40
0.0
 40
0.0
 40
0.0
 40
0.0
 40
0.2832273276338562
 40
0.5762691256321469
 40
0.786190826254712
 40
1.0
 40
1.0
 40
1.0
 40
1.0
 10
423.9454372947823
 20
392.4113413235877
 30
0.0
 10
424.3376678413833
 20
393.7004050501672
 30
0.0
 10
425.1357206141305
 20
396.3232014900657
 30
0.0
 10
426.414775548319
 20
400.5268388447787
 30
0.0
 10
427.64417108416
 20
404.5672878389488
 30
0.0
 10
428.4012208613624
 20
407.0553291713784
 30
0.0
 10
428.7832184856545
 20
408.3107629707788
 30
0.0
  0
SPLINE
  5
FA
330
1F
100
AcDbEntity
  8
0
  6
Continuous
 62
     7
370
    25
100
AcDbSpline
210
0.0
220
0.0
230
1.0
 70
     8
 71
     3
 72
    12
 73
     8
 74
     0
 42
0.000000001
 43
0.00000001
 40
0.0
 40
0.0
 40
0.0
 40
0.0
 40
0.3203299849149274
 40
0.56192265316163
 40
0.7389240767907103
 40
0.8801310623553293
 40
1.0
 40
1.0
 40
1.0
 40
1.0
 10
440.0631292884957
 20
391.2518335423206
 30
0.0
 10
440.0924585890139
 20
391.1495875371455
 30
0.0
 10
440.1439080290873
 20
390.9702276607404
 30
0.0
 10
440.3357910547842
 20
390.7819661991474
 30
0.0
 10
440.5345747084071
 20
390.6849805567934
 30
0.0
 10
440.7236403071054
 20
390.6501763471554
 30
0.0
 10
440.8410448806694
 20
390.6657938673511
 30
0.0
 10
440.8949493592393
 20
390.6729644081329
 30
0.0
  0
LINE
  5
FB
330
1F
100
AcDbEntity
  8
0
  6
Continuous
 62
     7
370
    25
100
AcDbLine
 10
442.9984196251
 20
391.1024717531
 30
0.0
 11
440.8949493592
 21
390.6729644081
 31
0.0
  0
SPLINE
  5
FC
330
1F
100
AcDbEntity
  8
0
  6
Continuous
 62
     7
370
    25
100
AcDbSpline
210
0.0
220
0.0
230
1.0
 70
     8
 71
     3
 72
    12
 73
     8
 74
     0
 42
0.000000001
 43
0.00000001
 40
0.0
 40
0.0
 40
0.0
 40
0.0
 40
0.1335446893557151
 40
0.2374480911831989
 40
0.43142020386062
 40
0.6784666368825328
 40
1.0
 40
1.0
 40
1.0
 40
1.0
 10
442.9984196251046
 20
391.1024717530941
 30
0.0
 10
443.0567868452662
 20
391.1190766477031
 30
0.0
 10
443.1605662249022
 20
391.1486008507863
 30
0.0
 10
443.3186203920841
 20
391.2501533221885
 30
0.0
 10
443.4656308295814
 20
391.4115942425887
 30
0.0
 10
443.5728458263832
 20
391.6677599914001
 30
0.0
 10
443.5497627258491
 20
391.8551440263865
 30
0.0
 10
443.5367091720711
 20
391.9611101886962
 30
0.0
  0
SPLINE
  5
FD
330
1F
100
AcDbEntity
  8
0
  6
Continuous
 62
     7
370
    25
100
AcDbSpline
210
0.0
220
0.0
230
1.0
 70
     8
 71
     3
 72
    11
 73
     7
 74
     0
 42
0.000000001
 43
0.00000001
 40
0.0
 40
0.0
 40
0.0
 40
0.0
 40
0.2603297256162371
 40
0.528208793927872
 40
0.7614185082425472
 40
1.0
 40
1.0
 40
1.0
 40
1.0
 10
439.4344269459855
 20
408.0659871837829
 30
0.0
 10
439.8285809398408
 20
406.5186045840611
 30
0.0
 10
440.6283190612688
 20
403.3789665930123
 30
0.0
 10
441.7190116298413
 20
399.0970932483269
 30
0.0
 10
442.7088860120455
 20
395.2110107082035
 30
0.0
 10
443.2586814761395
 20
393.0526021849066
 30
0.0
 10
443.5367091720711
 20
391.9611101886962
 30
0.0
  0
SPLINE
  5
FE
330
1F
100
AcDbEntity
  8
0
  6
Continuous
 62
     7
370
    25
100
AcDbSpline
210
0.0
220
0.0
230
1.0
 70
     8
 71
     3
 72
    12
 73
     8
 74
     0
 42
0.000000001
 43
0.00000001
 40
0.0
 40
0.0
 40
0.0
 40
0.0
 40
0.2229006016637498
 40
0.4458344379637321
 40
0.667934792555367
 40
0.8889155111446199
 40
1.0
 40
1.0
 40
1.0
 40
1.0
 10
439.4344269459855
 20
408.0659871837829
 30
0.0
 10
439.4074011633096
 20
408.1405676337253
 30
0.0
 10
439.3533455683946
 20
408.2897396536076
 30
0.0
 10
439.1835867893976
 20
408.4636765658963
 30
0.0
 10
438.9712428630556
 20
408.5730353806692
 30
0.0
 10
438.77173022789
 20
408.6026495429971
 30
0.0
 10
438.6550727105017
 20
408.5849622134626
 30
0.0
 10
438.6160477226388
 20
408.579045339558
 30
0.0
  0
LINE
  5
FF
330
1F
100
AcDbEntity
  8
0
  6
Continuous
 62
     7
370
    25
100
AcDbLine
 10
438.0750461643
 20
408.4685793063
 30
0.0
 11
438.6160477226
 21
408.5790453396
 31
0.0
  0
SPLINE
  5
100
330
1F
100
AcDbEntity
  8
0
  6
Continuous
 62
     7
370
    25
100
AcDbSpline
210
0.0
220
0.0
230
1.0
 70
     8
 71
     3
 72
    12
 73
     8
 74
     0
 42
0.000000001
 43
0.00000001
 40
0.0
 40
0.0
 40
0.0
 40
0.0
 40
0.2201363721754825
 40
0.4402568174377827
 40
0.6607430842737276
 40
0.8821598534947271
 40
1.0
 40
1.0
 40
1.0
 40
1.0
 10
438.0750461643349
 20
408.4685793063377
 30
0.0
 10
437.9997291499458
 20
408.4453521087984
 30
0.0
 10
437.8491005703695
 20
408.3988993942125
 30
0.0
 10
437.668190685736
 20
408.2396332151185
 30
0.0
 10
437.5483242105677
 20
408.0350387204948
 30
0.0
 10
437.5072069992354
 20
407.8364168313608
 30
0.0
 10
437.5191629104141
 20
407.7171728481478
 30
0.0
 10
437.5233157699715
 20
407.6757537117933
 30
0.0
  0
SPLINE
  5
101
330
1F
100
AcDbEntity
  8
0
  6
Continuous
 62
     7
370
    25
100
AcDbSpline
210
0.0
220
0.0
230
1.0
 70
     8
 71
     3
 72
    11
 73
     7
 74
     0
 42
0.000000001
 43
0.00000001
 40
0.0
 40
0.0
 40
0.0
 40
0.0
 40
0.2832274051655229
 40
0.5762691588185695
 40
0.7861908845104891
 40
1.0
 40
1.0
 40
1.0
 40
1.0
 10
440.0631292884957
 20
391.2518335423206
 30
0.0
 10
439.8572109331679
 20
392.5834228499236
 30
0.0
 10
439.4382387742389
 20
395.2927434742316
 30
0.0
 10
438.7667339165498
 20
399.6350506394293
 30
0.0
 10
438.1213031887831
 20
403.8087854191124
 30
0.0
 10
437.7238603158501
 20
406.3789046882413
 30
0.0
 10
437.5233157699715
 20
407.6757537117933
 30
0.0
  0
SPLINE
  5
102
330
1F
100
AcDbEntity
  8
0
  6
Continuous
 62
     7
370
    25
100
AcDbSpline
210
0.0
220
0.0
230
1.0
 70
     8
 71
     3
 72
    12
 73
     8
 74
     0
 42
0.000000001
 43
0.00000001
 40
0.0
 40
0.0
 40
0.0
 40
0.0
 40
0.1369181492237968
 40
0.2732886432463841
 40
0.4609251805535044
 40
0.7173043838239394
 40
1.0
 40
1.0
 40
1.0
 40
1.0
 10
411.2915276711594
 20
455.9400169095729
 30
0.0
 10
411.2451030459142
 20
455.8985414418354
 30
0.0
 10
411.1524394880264
 20
455.8157564029619
 30
0.0
 10
411.0547796678161
 20
455.6408114470071
 30
0.0
 10
411.0018656700931
 20
455.4197942949358
 30
0.0
 10
411.0287903940572
 20
455.1596687537901
 30
0.0
 10
411.127386360275
 20
455.0108794453306
 30
0.0
 10
411.1790909593713
 20
454.9328530124162
 30
0.0
  0
SPLINE
  5
103
330
1F
100
AcDbEntity
  8
0
  6
Continuous
 62
     7
370
    25
100
AcDbSpline
210
0.0
220
0.0
230
1.0
 70
     8
 71
     3
 72
    11
 73
     7
 74
     0
 42
0.000000001
 43
0.00000001
 40
0.0
 40
0.0
 40
0.0
 40
0.0
 40
0.2603296710265651
 40
0.5282086642065942
 40
0.761418474013921
 40
1.0
 40
1.0
 40
1.0
 40
1.0
 10
421.862761599363
 20
442.2027751720284
 30
0.0
 10
420.8362574679926
 20
443.4259014340267
 30
0.0
 10
418.7534815251059
 20
445.907623499969
 30
0.0
 10
415.9129722000832
 20
449.2922274270924
 30
0.0
 10
413.3350136693867
 20
452.3639732265377
 30
0.0
 10
411.9031661003825
 20
454.0700846095602
 30
0.0
 10
411.1790909593713
 20
454.9328530124162
 30
0.0
  0
SPLINE
  5
104
330
1F
100
AcDbEntity
  8
0
  6
Continuous
 62
     7
370
    25
100
AcDbSpline
210
0.0
220
0.0
230
1.0
 70
     8
 71
     3
 72
    12
 73
     8
 74
     0
 42
0.000000001
 43
0.00000001
 40
0.0
 40
0.0
 40
0.0
 40
0.0
 40
0.222902378606586
 40
0.445835750148924
 40
0.6679356639884754
 40
0.8889142997590355
 40
0.9999999999999999
 40
0.9999999999999999
 40
0.9999999999999999
 40
0.9999999999999999
 10
421.862761599363
 20
442.2027751720284
 30
0.0
 10
421.9194711427705
 20
442.1473057576208
 30
0.0
 10
422.03289811463
 20
442.0363592161916
 30
0.0
 10
422.2613161166326
 20
441.9533044934906
 30
0.0
 10
422.5000808835238
 20
441.946906293866
 30
0.0
 10
422.6926847923792
 20
442.0067925930696
 30
0.0
 10
422.7901156843893
 20
442.0733442978823
 30
0.0
 10
422.8227093046319
 20
442.0956078833674
 30
0.0
  0
SPLINE
  5
105
330
1F
100
AcDbEntity
  8
0
  6
Continuous
 62
     7
370
    25
100
AcDbSpline
210
0.0
220
0.0
230
1.0
 70
    24
 71
     3
 72
     9
 73
     5
 74
     0
 42
0.000000001
 43
0.00000001
 40
0.0
 40
0.0
 40
0.0
 40
0.0
 40
0.4999999999999999
 40
0.9999999999999999
 40
0.9999999999999999
 40
0.9999999999999999
 40
0.9999999999999999
 10
423.2622041528832
 20
442.4298651433323
 30
0.0
 10
423.188955011508
 20
442.3741556000048
 30
0.0
 10
423.0424567287575
 20
442.2627365133499
 30
0.0
 10
422.8959584460071
 20
442.1513174266949
 30
0.0
 10
422.8227093046319
 20
442.0956078833674
 30
0.0
  0
SPLINE
  5
106
330
1F
100
AcDbEntity
  8
0
  6
Continuous
 62
     7
370
    25
100
AcDbSpline
210
0.0
220
0.0
230
1.0
 70
     8
 71
     3
 72
    12
 73
     8
 74
     0
 42
0.000000001
 43
0.00000001
 40
0.0
 40
0.0
 40
0.0
 40
0.0
 40
0.2201357284144874
 40
0.4402549306446448
 40
0.6607440483321475
 40
0.8821615138372955
 40
1.0
 40
1.0
 40
1.0
 40
1.0
 10
423.2622041528832
 20
442.4298651433323
 30
0.0
 10
423.3199844398599
 20
442.4834708187211
 30
0.0
 10
423.4355406760906
 20
442.5906781451758
 30
0.0
 10
423.5294309748671
 20
442.8126656089016
 30
0.0
 10
423.5486634094789
 20
443.0490084894732
 30
0.0
 10
423.4995213198117
 20
443.2457986179131
 30
0.0
 10
423.4370167238488
 20
443.3480486724761
 30
0.0
 10
423.4153061335694
 20
443.3835646054481
 30
0.0
  0
SPLINE
  5
107
330
1F
100
AcDbEntity
  8
0
  6
Continuous
 62
     7
370
    25
100
AcDbSpline
210
0.0
220
0.0
230
1.0
 70
     8
 71
     3
 72
    11
 73
     7
 74
     0
 42
0.000000001
 43
0.00000001
 40
0.0
 40
0.0
 40
0.0
 40
0.0
 40
0.2832273495301738
 40
0.5762690130475321
 40
0.786190801498609
 40
1.0
 40
1.0
 40
1.0
 40
1.0
 10
414.0009387558114
 20
457.0790206930374
 30
0.0
 10
414.7642201712634
 20
455.9686454793697
 30
0.0
 10
416.3172320138333
 20
453.7094186442699
 30
0.0
 10
418.8062855952699
 20
450.088485567764
 30
0.0
 10
421.1987154220986
 20
446.6081221047442
 30
0.0
 10
422.6719373322949
 20
444.4649710331156
 30
0.0
 10
423.4153061335694
 20
443.3835646054481
 30
0.0
  0
SPLINE
  5
108
330
1F
100
AcDbEntity
  8
0
  6
Continuous
 62
     7
370
    25
100
AcDbSpline
210
0.0
220
0.0
230
1.0
 70
     8
 71
     3
 72
    12
 73
     8
 74
     0
 42
0.000000001
 43
0.00000001
 40
0.0
 40
0.0
 40
0.0
 40
0.0
 40
0.3203297666900178
 40
0.5619234818677072
 40
0.7389273680774473
 40
0.8801330813305662
 40
1.0
 40
1.0
 40
1.0
 40
1.0
 10
414.0009387558114
 20
457.0790206930374
 30
0.0
 10
413.9301522385484
 20
457.1584160188578
 30
0.0
 10
413.8059783078497
 20
457.297691548541
 30
0.0
 10
413.5514110957512
 20
457.3840588111225
 30
0.0
 10
413.3302316643026
 20
457.385177049417
 30
0.0
 10
413.1447865834653
 20
457.3345130485278
 30
0.0
 10
413.0457871056225
 20
457.2695007443152
 30
0.0
 10
413.0003332322251
 20
457.2396514854167
 30
0.0
  0
LINE
  5
109
330
1F
100
AcDbEntity
  8
0
  6
Continuous
 62
     7
370
    25
100
AcDbLine
 10
413.0003332322
 20
457.2396514854
 30
0.0
 11
412.1459304517
 21
456.5898341975
 31
0.0
  0
LINE
  5
10A
330
1F
100
AcDbEntity
  8
0
  6
Continuous
 62
     7
370
    25
100
AcDbLine
 10
411.2915276712
 20
455.9400169096
 30
0.0
 11
412.1459304517
 21
456.5898341975
 31
0.0
  0
SPLINE
  5
10B
330
1F
100
AcDbEntity
  8
0
  6
Continuous
 62
     7
370
    25
100
AcDbSpline
210
0.0
220
0.0
230
1.0
 70
     8
 71
     3
 72
    12
 73
     8
 74
     0
 42
0.000000001
 43
0.00000001
 40
0.0
 40
0.0
 40
0.0
 40
0.0
 40
0.2201357284144874
 40
0.4402549306446448
 40
0.6607440483321475
 40
0.8821615138372955
 40
1.0
 40
1.0
 40
1.0
 40
1.0
 10
445.8264886563431
 20
411.8495140141581
 30
0.0
 10
445.7687083693665
 20
411.7959083387693
 30
0.0
 10
445.6531521331357
 20
411.6887010123147
 30
0.0
 10
445.5592618343594
 20
411.4667135485888
 30
0.0
 10
445.5400293997475
 20
411.2303706680172
 30
0.0
 10
445.5891714894146
 20
411.0335805395773
 30
0.0
 10
445.6516760853776
 20
410.9313304850143
 30
0.0
 10
445.673386675657
 20
410.8958145520423
 30
0.0
  0
SPLINE
  5
10C
330
1F
100
AcDbEntity
  8
0
  6
Continuous
 62
     7
370
    25
100
AcDbSpline
210
0.0
220
0.0
230
1.0
 70
     8
 71
     3
 72
    11
 73
     7
 74
     0
 42
0.000000001
 43
0.00000001
 40
0.0
 40
0.0
 40
0.0
 40
0.0
 40
0.2832273495301738
 40
0.5762690130475321
 40
0.786190801498609
 40
1.0
 40
1.0
 40
1.0
 40
1.0
 10
455.087754053415
 20
397.2003584644531
 30
0.0
 10
454.324472637963
 20
398.3107336781208
 30
0.0
 10
452.771460795393
 20
400.5699605132205
 30
0.0
 10
450.2824072139565
 20
404.1908935897264
 30
0.0
 10
447.8899773871278
 20
407.6712570527462
 30
0.0
 10
446.4167554769315
 20
409.8144081243748
 30
0.0
 10
445.673386675657
 20
410.8958145520423
 30
0.0
  0
SPLINE
  5
10D
330
1F
100
AcDbEntity
  8
0
  6
Continuous
 62
     7
370
    25
100
AcDbSpline
210
0.0
220
0.0
230
1.0
 70
     8
 71
     3
 72
    12
 73
     8
 74
     0
 42
0.000000001
 43
0.00000001
 40
0.0
 40
0.0
 40
0.0
 40
0.0
 40
0.3203297666900178
 40
0.5619234818677072
 40
0.7389273680774473
 40
0.8801330813305662
 40
1.0
 40
1.0
 40
1.0
 40
1.0
 10
455.087754053415
 20
397.2003584644531
 30
0.0
 10
455.158540570678
 20
397.1209631386326
 30
0.0
 10
455.2827145013767
 20
396.9816876089494
 30
0.0
 10
455.5372817134752
 20
396.8953203463679
 30
0.0
 10
455.7584611449238
 20
396.8942021080734
 30
0.0
 10
455.9439062257611
 20
396.9448661089626
 30
0.0
 10
456.0429057036039
 20
397.0098784131752
 30
0.0
 10
456.0883595770013
 20
397.0397276720737
 30
0.0
  0
LINE
  5
10E
330
1F
100
AcDbEntity
  8
0
  6
Continuous
 62
     7
370
    25
100
AcDbLine
 10
456.9427623575
 20
397.68954496
 30
0.0
 11
456.088359577
 21
397.0397276721
 31
0.0
  0
LINE
  5
10F
330
1F
100
AcDbEntity
  8
0
  6
Continuous
 62
     7
370
    25
100
AcDbLine
 10
456.9427623575
 20
397.68954496
 30
0.0
 11
457.7971651381
 21
398.3393622479
 31
0.0
  0
SPLINE
  5
110
330
1F
100
AcDbEntity
  8
0
  6
Continuous
 62
     7
370
    25
100
AcDbSpline
210
0.0
220
0.0
230
1.0
 70
     8
 71
     3
 72
    12
 73
     8
 74
     0
 42
0.000000001
 43
0.00000001
 40
0.0
 40
0.0
 40
0.0
 40
0.0
 40
0.1369181492237968
 40
0.2732886432463841
 40
0.4609251805535044
 40
0.7173043838239394
 40
1.0
 40
1.0
 40
1.0
 40
1.0
 10
457.7971651380669
 20
398.3393622479175
 30
0.0
 10
457.8435897633122
 20
398.380837715655
 30
0.0
 10
457.9362533212
 20
398.4636227545284
 30
0.0
 10
458.0339131414103
 20
398.6385677104833
 30
0.0
 10
458.0868271391333
 20
398.8595848625546
 30
0.0
 10
458.0599024151691
 20
399.1197104037003
 30
0.0
 10
457.9613064489515
 20
399.2684997121598
 30
0.0
 10
457.9096018498551
 20
399.3465261450742
 30
0.0
  0
SPLINE
  5
111
330
1F
100
AcDbEntity
  8
0
  6
Continuous
 62
     7
370
    25
100
AcDbSpline
210
0.0
220
0.0
230
1.0
 70
     8
 71
     3
 72
    11
 73
     7
 74
     0
 42
0.000000001
 43
0.00000001
 40
0.0
 40
0.0
 40
0.0
 40
0.0
 40
0.2603298579444891
 40
0.5282087834303262
 40
0.7614185343045151
 40
1.0
 40
1.0
 40
1.0
 40
1.0
 10
447.2259237592828
 20
412.076603985462
 30
0.0
 10
448.2524307843401
 20
410.8534780204827
 30
0.0
 10
450.3352115731801
 20
408.3717577789206
 30
0.0
 10
453.175720324578
 20
404.9871514998196
 30
0.0
 10
455.7536792086437
 20
401.9154059867035
 30
0.0
 10
457.185526731952
 20
400.2092945666543
 30
0.0
 10
457.9096018498551
 20
399.3465261450742
 30
0.0
  0
SPLINE
  5
112
330
1F
100
AcDbEntity
  8
0
  6
Continuous
 62
     7
370
    25
100
AcDbSpline
210
0.0
220
0.0
230
1.0
 70
     8
 71
     3
 72
    12
 73
     8
 74
     0
 42
0.000000001
 43
0.00000001
 40
0.0
 40
0.0
 40
0.0
 40
0.0
 40
0.2228982525060222
 40
0.4458328077419976
 40
0.6679339008498345
 40
0.8889137099351089
 40
1.0
 40
1.0
 40
1.0
 40
1.0
 10
447.2259237592828
 20
412.076603985462
 30
0.0
 10
447.1692168687546
 20
412.1320735631479
 30
0.0
 10
447.055793852027
 20
412.2430217526734
 30
0.0
 10
446.8273764325218
 20
412.3260743563694
 30
0.0
 10
446.5886119961135
 20
412.3324729469111
 30
0.0
 10
446.3960080089922
 20
412.2725865551295
 30
0.0
 10
446.298577122868
 20
412.206034857279
 30
0.0
 10
446.2659835045945
 20
412.183771274123
 30
0.0
  0
SPLINE
  5
113
330
1F
100
AcDbEntity
  8
0
  6
Continuous
 62
     7
370
    25
100
AcDbSpline
210
0.0
220
0.0
230
1.0
 70
    24
 71
     3
 72
     9
 73
     5
 74
     0
 42
0.000000001
 43
0.00000001
 40
0.0
 40
0.0
 40
0.0
 40
0.0
 40
0.4999999999999999
 40
0.9999999999999999
 40
0.9999999999999999
 40
0.9999999999999999
 40
0.9999999999999999
 10
445.8264886563431
 20
411.8495140141581
 30
0.0
 10
445.8997377977184
 20
411.9052235574856
 30
0.0
 10
446.0462360804689
 20
412.0166426441406
 30
0.0
 10
446.1927343632192
 20
412.1280617307955
 30
0.0
 10
446.2659835045945
 20
412.183771274123
 30
0.0
  0
SPLINE
  5
114
330
1F
100
AcDbEntity
  8
0
  6
Continuous
 62
     7
370
    25
100
AcDbSpline
210
0.0
220
0.0
230
1.0
 70
     8
 71
     3
 72
    19
 73
    15
 74
     0
 42
0.000000001
 43
0.00000001
 40
0.0
 40
0.0
 40
0.0
 40
0.0
 40
0.090318555198732
 40
0.2045632720049924
 40
0.2714200089211519
 40
0.3439362664712129
 40
0.420785623405647
 40
0.5000001544267498
 40
0.5792146384994363
 40
0.6560639847718083
 40
0.7285802919304583
 40
0.7954369462651236
 40
0.9096815784535105
 40
1.0
 40
1.0
 40
1.0
 40
1.0
 10
437.9431634371888
 20
434.6021310343181
 30
0.0
 10
438.6219371615137
 20
434.222152252157
 30
0.0
 10
440.1592976041536
 20
433.3615350423234
 30
0.0
 10
441.6356336558341
 20
431.4693751393198
 30
0.0
 10
442.4783884392367
 20
429.4596789836119
 30
0.0
 10
442.8058025963736
 20
427.6196991112681
 30
0.0
 10
442.6913292730779
 20
425.6479182254085
 30
0.0
 10
442.0841478018033
 20
423.7056357267005
 30
0.0
 10
441.0174079137907
 20
421.9726625502609
 30
0.0
 10
439.6050019336466
 20
420.5920343606959
 30
0.0
 10
438.0019764200151
 20
419.6312890218208
 30
0.0
 10
435.9326507698422
 20
418.9479136318866
 30
0.0
 10
433.5361148268289
 20
418.8196870565866
 30
0.0
 10
431.877735098568
 20
419.4145881448206
 30
0.0
 10
431.1455293720376
 20
419.6772481231724
 30
0.0
  0
SPLINE
  5
115
330
1F
100
AcDbEntity
  8
0
  6
Continuous
 62
     7
370
    25
100
AcDbSpline
210
0.0
220
0.0
230
1.0
 70
     8
 71
     3
 72
    19
 73
    15
 74
     0
 42
0.000000001
 43
0.00000001
 40
0.0
 40
0.0
 40
0.0
 40
0.0
 40
0.090318546896994
 40
0.2045632532023146
 40
0.2714199839732573
 40
0.3439362348578998
 40
0.4207855847286333
 40
0.500000021887828
 40
0.5792146507617191
 40
0.6560639899703915
 40
0.7285800415581515
 40
0.7954369650677814
 40
0.9096815867552362
 40
1.0
 40
1.0
 40
1.0
 40
1.0
 10
431.1455293720376
 20
419.6772481231724
 30
0.0
 10
430.4667556531961
 20
420.0572269033605
 30
0.0
 10
428.9293952229756
 20
420.9178441087257
 30
0.0
 10
427.4530590758075
 20
422.8100040460853
 30
0.0
 10
426.6103045348757
 20
424.8197001145532
 30
0.0
 10
426.282889509276
 20
426.6596802993667
 30
0.0
 10
426.3973663261552
 20
428.6314591657827
 30
0.0
 10
427.0045339471375
 20
430.5737472000673
 30
0.0
 10
428.0712864087744
 20
432.3067146228406
 30
0.0
 10
429.4836894153768
 20
433.6873423066283
 30
0.0
 10
431.0867122539115
 20
434.6480938009487
 30
0.0
 10
433.1560404305655
 20
435.3314631730657
 30
0.0
 10
435.5525777926843
 20
435.4596926137394
 30
0.0
 10
437.2109576525517
 20
434.8647911697449
 30
0.0
 10
437.9431634371888
 20
434.6021310343181
 30
0.0
  0
ARC
  5
116
330
1F
100
AcDbEntity
  8
0
  6
Continuous
 62
     7
370
    25
100
AcDbCircle
 10
434.544345898
 20
427.1396895787
 30
0.0
 40
8.911311196000018
100
AcDbArc
 50
247.3074712698
 51
303.6929108129
  0
SPLINE
  5
117
330
1F
100
AcDbEntity
  8
0
  6
Continuous
 62
     7
370
    25
100
AcDbSpline
210
0.0
220
0.0
230
1.0
 70
     8
 71
     3
 72
     9
 73
     5
 74
     0
 42
0.000000001
 43
0.00000001
 40
0.0
 40
0.0
 40
0.0
 40
0.0
 40
0.7733796717704216
 40
1.0
 40
1.0
 40
1.0
 40
1.0
 10
430.8225839560639
 20
418.9681954598759
 30
0.0
 10
430.8157222320581
 20
418.953129290524
 30
0.0
 10
430.8068498447221
 20
418.9336483422889
 30
0.0
 10
430.8189906803104
 20
418.9603064473654
 30
0.0
 10
430.8217420404565
 20
418.9663477158879
 30
0.0
  0
SPLINE
  5
118
330
1F
100
AcDbEntity
  8
0
  6
Continuous
 62
     7
370
    25
100
AcDbSpline
210
0.0
220
0.0
230
1.0
 70
     8
 71
     3
 72
    13
 73
     9
 74
     0
 42
0.000000001
 43
0.00000001
 40
0.0
 40
0.0
 40
0.0
 40
0.0
 40
0.2017293595202123
 40
0.3473462480053024
 40
0.4999960113434386
 40
0.6526473555937761
 40
0.7982648193239353
 40
1.0
 40
1.0
 40
1.0
 40
1.0
 10
438.2379978125703
 20
435.249462156627
 30
0.0
 10
438.2540888858628
 20
435.2847927134463
 30
0.0
 10
438.2817951847764
 20
435.3456263788103
 30
0.0
 10
438.2698453135924
 20
435.31938406193
 30
0.0
 10
438.2309947684934
 20
435.2340916410723
 30
0.0
 10
438.1641013238413
 20
435.0872113149688
 30
0.0
 10
438.0676707233918
 20
434.8755059775543
 30
0.0
 10
437.9889074852814
 20
434.7025691446655
 30
0.0
 10
437.9431634371888
 20
434.6021310343181
 30
0.0
  0
ARC
  5
119
330
1F
100
AcDbEntity
  8
0
  6
Continuous
 62
     7
370
    25
100
AcDbCircle
 10
434.544345898
 20
427.1396895787
 30
0.0
 40
8.911311195999994
100
AcDbArc
 50
67.3074712684
 51
123.6929108093
  0
CIRCLE
  5
11A
330
1F
100
AcDbEntity
  8
0
  6
Continuous
 62
     7
370
    25
100
AcDbCircle
 10
434.544345898
 20
427.1396895787
 30
0.0
 40
57.00000000000007
  0
SPLINE
  5
11B
330
1F
100
AcDbEntity
  8
0
  6
Continuous
 62
     7
370
    25
100
AcDbSpline
210
0.0
220
0.0
230
1.0
 70
     8
 71
     3
 72
    35
 73
    31
 74
     0
 42
0.000000001
 43
0.00000001
 40
0.0
 40
0.0
 40
0.0
 40
0.0
 40
0.0282546046944799
 40
0.0583834616697268
 40
0.0903495473352069
 40
0.1258616493771768
 40
0.164010473684687
 40
0.2048405630508428
 40
0.2374624930346304
 40
0.2716127143079454
 40
0.3071914469409245
 40
0.3440550157229585
 40
0.3820151409004823
 40
0.4208413793144135
 40
0.4602672912093551
 40
0.5000000201635177
 40
0.539732752376616
 40
0.5791586614698825
 40
0.6179849035067261
 40
0.6559450302377934
 40
0.6928085983382701
 40
0.7283873310146691
 40
0.7625375437698155
 40
0.7951595275585677
 40
0.8359928546416965
 40
0.8741416183307854
 40
0.9096505090426609
 40
0.9416198655619481
 40
0.9717470740186867
 40
1.0
 40
1.0
 40
1.0
 40
1.0
 10
429.8987119620454
 20
383.131829454634
 30
0.0
 10
431.2040704044819
 20
383.0279082507125
 30
0.0
 10
433.9013774598564
 20
382.8131722920456
 30
0.0
 10
438.0925594405793
 20
382.9639655837867
 30
0.0
 10
442.5828619155517
 20
383.537720872619
 30
0.0
 10
447.3514902206174
 20
384.6782034872724
 30
0.0
 10
452.344293978221
 20
386.5006713815894
 30
0.0
 10
456.9560923773703
 20
388.8679022828331
 30
0.0
 10
461.1052693515945
 20
391.6434378381802
 30
0.0
 10
464.7550312419514
 20
394.6830098811503
 30
0.0
 10
468.1876714881608
 20
398.2455469970417
 30
0.0
 10
471.3015563289472
 20
402.3159039357368
 30
0.0
 10
473.9939189545984
 20
406.8535821503962
 30
0.0
 10
476.1688767909861
 20
411.7916794222709
 30
0.0
 10
477.7457218929047
 20
417.0384324576118
 30
0.0
 10
478.6666624619712
 20
422.4819757398037
 30
0.0
 10
478.9026351929726
 20
427.9978263340739
 30
0.0
 10
478.4560753995024
 20
433.4581785106767
 30
0.0
 10
477.360131761579
 20
438.7415632844104
 30
0.0
 10
475.6745871341092
 20
443.7413913847094
 30
0.0
 10
473.4792275383692
 20
448.3722102877395
 30
0.0
 10
470.8661060428294
 20
452.5729578851584
 30
0.0
 10
467.9314556340693
 20
456.3076070960252
 30
0.0
 10
464.4531612995085
 20
459.8884258290381
 30
0.0
 10
460.437150548584
 20
463.1664878550466
 30
0.0
 10
455.9349186835761
 20
465.9912682355791
 30
0.0
 10
451.5095109108648
 20
468.1022508305828
 30
0.0
 10
447.2380561034237
 20
469.6009327510715
 30
0.0
 10
443.1707201505682
 20
470.6234237247165
 30
0.0
 10
440.4881865476963
 20
470.9766208173525
 30
0.0
 10
439.189980847181
 20
471.1475497028564
 30
0.0
  0
SPLINE
  5
11C
330
1F
100
AcDbEntity
  8
0
  6
Continuous
 62
     7
370
    25
100
AcDbSpline
210
0.0
220
0.0
230
1.0
 70
     8
 71
     3
 72
    35
 73
    31
 74
     0
 42
0.000000001
 43
0.00000001
 40
0.0
 40
0.0
 40
0.0
 40
0.0
 40
0.028254658146857
 40
0.0583834614517075
 40
0.0903495470381147
 40
0.1258616489922402
 40
0.1640104732053836
 40
0.2048405624705401
 40
0.2374624923736325
 40
0.2716127135624719
 40
0.3071914833129936
 40
0.3440550194233884
 40
0.3820151445070121
 40
0.4208413720181158
 40
0.4602673069654561
 40
0.5000000224045666
 40
0.5397327556653426
 40
0.5791586624757826
 40
0.6179849153074444
 40
0.6559450419446116
 40
0.6928086099539008
 40
0.7283873142193734
 40
0.762537576585175
 40
0.7951594855697187
 40
0.835992854093306
 40
0.8741416176880283
 40
0.9096505083120672
 40
0.9416198647522734
 40
0.9717470210654536
 40
1.0
 40
1.0
 40
1.0
 40
1.0
 10
439.189980847181
 20
471.1475497028564
 30
0.0
 10
437.8846199208302
 20
471.2514709847342
 30
0.0
 10
435.1873128457258
 20
471.4662066974437
 30
0.0
 10
430.9961309049096
 20
471.315413311203
 30
0.0
 10
426.5058308909014
 20
470.7416582706798
 30
0.0
 10
421.7372025989649
 20
469.6011756658815
 30
0.0
 10
416.7443987885302
 20
467.7787078128919
 30
0.0
 10
412.1326005876379
 20
465.4114767337613
 30
0.0
 10
407.9834229968846
 20
462.6359417369081
 30
0.0
 10
404.3336620960303
 20
459.5963664894043
 30
0.0
 10
400.9010126904601
 20
456.0338373534569
 30
0.0
 10
397.7871384600991
 20
451.9634719866713
 30
0.0
 10
395.0947711308253
 20
447.4257987550271
 30
0.0
 10
392.9198253040273
 20
442.4876963256176
 30
0.0
 10
391.3429555340193
 20
437.2409503663508
 30
0.0
 10
390.4220398999237
 20
431.7974015899903
 30
0.0
 10
390.1860570243274
 20
426.2815535803174
 30
0.0
 10
390.6326104074275
 20
420.8211992534394
 30
0.0
 10
391.7285675754198
 20
415.537817097826
 30
0.0
 10
393.4141078602883
 20
410.5379870420737
 30
0.0
 10
395.6094715956472
 20
405.9071721635181
 30
0.0
 10
398.2225796802826
 20
401.7064142035895
 30
0.0
 10
401.1572467713514
 20
397.9717816036074
 30
0.0
 10
404.6355226231826
 20
394.3909444354513
 30
0.0
 10
408.6515429775939
 20
391.1128948215538
 30
0.0
 10
413.1537735721293
 20
388.2881103774748
 30
0.0
 10
417.5791819827434
 20
386.1771282642455
 30
0.0
 10
421.8506345485463
 20
384.6784478314251
 30
0.0
 10
425.9179698132069
 20
383.655953673134
 30
0.0
 10
428.6005037060387
 20
383.3027579805694
 30
0.0
 10
429.8987119620454
 20
383.131829454634
 30
0.0
  0
SPLINE
  5
11D
330
1F
100
AcDbEntity
  8
0
  6
Continuous
 62
     7
370
    25
100
AcDbSpline
210
0.0
220
0.0
230
1.0
 70
     8
 71
     3
 72
    11
 73
     7
 74
     0
 42
0.000000001
 43
0.00000001
 40
0.0
 40
0.0
 40
0.0
 40
0.0
 40
0.2706994905564456
 40
0.5623159078592528
 40
0.7892966043832972
 40
1.0
 40
1.0
 40
1.0
 40
1.0
 10
439.189980847181
 20
471.1475497028564
 30
0.0
 10
439.1331576754628
 20
470.6092950147695
 30
0.0
 10
439.0151206103523
 20
469.4911947443592
 30
0.0
 10
438.8796288089266
 20
468.2075793821072
 30
0.0
 10
438.7983730806614
 20
467.4379575918042
 30
0.0
 10
438.7865122681403
 20
467.325568210431
 30
0.0
 10
438.7808024113785
 20
467.271463378403
 30
0.0
  0
SPLINE
  5
11E
330
1F
100
AcDbEntity
  8
0
  6
Continuous
 62
     7
370
    25
100
AcDbSpline
210
0.0
220
0.0
230
1.0
 70
     8
 71
     3
 72
    11
 73
     7
 74
     0
 42
0.000000001
 43
0.00000001
 40
0.0
 40
0.0
 40
0.0
 40
0.0
 40
0.2706995752641694
 40
0.5623161652276979
 40
0.7892981535114204
 40
1.0
 40
1.0
 40
1.0
 40
1.0
 10
430.3078903978478
 20
387.0079157790874
 30
0.0
 10
430.2989939903492
 20
386.9236485571209
 30
0.0
 10
430.2805137480213
 20
386.7486027667301
 30
0.0
 10
430.1697877180827
 20
385.6997040120672
 30
0.0
 10
430.0344683569033
 20
384.4178151259611
 30
0.0
 10
429.9428278700549
 20
383.5497281888867
 30
0.0
 10
429.8987119620454
 20
383.131829454634
 30
0.0
  0
ARC
  5
11F
330
1F
100
AcDbEntity
  8
0
  6
Continuous
 62
     7
370
    25
100
AcDbCircle
 10
434.544345898
 20
427.1396895787
 30
0.0
 40
40.3547623089486
100
AcDbArc
 50
263.973964907
 51
83.973964907
  0
ARC
  5
120
330
1F
100
AcDbEntity
  8
0
  6
Continuous
 62
     7
370
    25
100
AcDbCircle
 10
434.544345898
 20
427.1396895787
 30
0.0
 40
40.3547623089486
100
AcDbArc
 50
83.973964907
 51
263.973964907
  0
CIRCLE
  5
121
330
1F
100
AcDbEntity
  8
0
  6
Continuous
 62
     7
370
    25
100
AcDbCircle
 10
434.544345898
 20
427.1396895787
 30
0.0
 40
39.93812333100008
  0
LINE
  5
122
330
1F
100
AcDbEntity
  8
0
  6
Continuous
 62
     7
370
    25
100
AcDbLine
 10
494.5443450635
 20
225.6396910093
 30
0.0
 11
494.5443450635
 21
227.1396865985
 31
0.0
  0
ARC
  5
123
330
1F
100
AcDbEntity
  8
0
  6
Continuous
 62
     7
370
    25
100
AcDbCircle
 10
494.544345898
 20
277.1396895787
 30
0.0
 40
50.0
100
AcDbArc
 50
270.0
 51
0.0
  0
LINE
  5
124
330
1F
100
AcDbEntity
  8
0
  6
Continuous
 62
     7
370
    25
100
AcDbLine
 10
546.0443451231
 20
277.1396836183
 30
0.0
 11
544.5443458086
 21
277.1396836183
 31
0.0
  0
ARC
  5
125
330
1F
100
AcDbEntity
  8
0
  6
Continuous
 62
     7
370
    25
100
AcDbCircle
 10
254.544345898
 20
277.1396895787
 30
0.0
 40
50.0
100
AcDbArc
 50
180.0
 51
270.0
  0
LINE
  5
126
330
1F
100
AcDbEntity
  8
0
  6
Continuous
 62
     7
370
    25
100
AcDbLine
 10
254.5443504279
 20
225.6396910093
 30
0.0
 11
254.5443504279
 21
227.1396865985
 31
0.0
  0
LINE
  5
127
330
1F
100
AcDbEntity
  8
0
  6
Continuous
 62
     7
370
    25
100
AcDbLine
 10
204.544338507
 20
277.1396836183
 30
0.0
 11
203.0443578189
 21
277.1396836183
 31
0.0
  0
ARC
  5
128
330
1F
100
AcDbEntity
  8
0
  6
Continuous
 62
     7
370
    25
100
AcDbCircle
 10
254.544345898
 20
577.1396895787
 30
0.0
 40
49.99999999999994
100
AcDbArc
 50
90.0
 51
180.0
  0
LINE
  5
129
330
1F
100
AcDbEntity
  8
0
  6
Continuous
 62
     7
370
    25
100
AcDbLine
 10
204.544338507
 20
577.1396955392
 30
0.0
 11
203.0443578189
 21
577.1396955392
 31
0.0
  0
LINE
  5
12A
330
1F
100
AcDbEntity
  8
0
  6
Continuous
 62
     7
370
    25
100
AcDbLine
 10
254.5443504279
 20
627.139692559
 30
0.0
 11
254.5443504279
 21
628.6396881482
 31
0.0
  0
ARC
  5
12B
330
1F
100
AcDbEntity
  8
0
  6
Continuous
 62
     7
370
    25
100
AcDbCircle
 10
494.544345898
 20
577.1396895787
 30
0.0
 40
50.0
100
AcDbArc
 50
0.0
 51
90.0
  0
LINE
  5
12C
330
1F
100
AcDbEntity
  8
0
  6
Continuous
 62
     7
370
    25
100
AcDbLine
 10
494.5443450635
 20
627.139692559
 30
0.0
 11
494.5443450635
 21
628.6396881482
 31
0.0
  0
LINE
  5
12D
330
1F
100
AcDbEntity
  8
0
  6
Continuous
 62
     7
370
    25
100
AcDbLine
 10
546.0443451231
 20
577.1396955392
 30
0.0
 11
544.5443458086
 21
577.1396955392
 31
0.0
  0
LINE
  5
12E
330
1F
100
AcDbEntity
  8
0
  6
Continuous
 62
     7
370
    25
100
AcDbLine
 10
546.0443451231
 20
577.1396955392
 30
0.0
 11
546.0443451231
 21
277.1396836183
 31
0.0
  0
LINE
  5
12F
330
1F
100
AcDbEntity
  8
0
  6
Continuous
 62
     7
370
    25
100
AcDbLine
 10
254.5443504279
 20
628.6396881482
 30
0.0
 11
494.5443450635
 21
628.6396881482
 31
0.0
  0
LINE
  5
130
330
1F
100
AcDbEntity
  8
0
  6
Continuous
 62
     7
370
    25
100
AcDbLine
 10
203.0443578189
 20
277.1396836183
 30
0.0
 11
203.0443578189
 21
577.1396955392
 31
0.0
  0
LINE
  5
131
330
1F
100
AcDbEntity
  8
0
  6
Continuous
 62
     7
370
    25
100
AcDbLine
 10
494.5443450635
 20
225.6396910093
 30
0.0
 11
254.5443504279
 21
225.6396910093
 31
0.0
  0
LINE
  5
132
330
1F
100
AcDbEntity
  8
0
  6
Continuous
 62
     7
370
    25
100
AcDbLine
 10
254.5443504279
 20
227.1396865985
 30
0.0
 11
494.5443450635
 21
227.1396865985
 31
0.0
  0
LINE
  5
133
330
1F
100
AcDbEntity
  8
0
  6
Continuous
 62
     7
370
    25
100
AcDbLine
 10
544.5443458086
 20
277.1396836183
 30
0.0
 11
544.5443458086
 21
577.1396955392
 31
0.0
  0
LINE
  5
134
330
1F
100
AcDbEntity
  8
0
  6
Continuous
 62
     7
370
    25
100
AcDbLine
 10
494.5443450635
 20
627.139692559
 30
0.0
 11
254.5443504279
 21
627.139692559
 31
0.0
  0
LINE
  5
135
330
1F
100
AcDbEntity
  8
0
  6
Continuous
 62
     7
370
    25
100
AcDbLine
 10
204.544338507
 20
577.1396955392
 30
0.0
 11
204.544338507
 21
277.1396836183
 31
0.0
  0
LINE
  5
136
330
1F
100
AcDbEntity
  8
0
  6
Continuous
 62
     7
370
    25
100
AcDbLine
 10
494.5443450635
 20
227.1396865985
 30
0.0
 11
494.5443450635
 21
236.4538064143
 31
0.0
  0
SPLINE
  5
137
330
1F
100
AcDbEntity
  8
0
  6
Continuous
 62
     7
370
    25
100
AcDbSpline
210
0.0
220
0.0
230
1.0
 70
     8
 71
     3
 72
    17
 73
    13
 74
     0
 42
0.000000001
 43
0.00000001
 40
0.0
 40
0.0
 40
0.0
 40
0.0
 40
0.1066370075457004
 40
0.2132739421796021
 40
0.3197513766848794
 40
0.426228580951533
 40
0.5322324007566682
 40
0.638236185881933
 40
0.7438014191592532
 40
0.8493665022257999
 40
0.9246832367247871
 40
1.0
 40
1.0
 40
1.0
 40
1.0
 10
535.1776961399031
 20
277.1396836182807
 30
0.0
 10
535.0700134955343
 20
274.8686375286733
 30
0.0
 10
534.8546482804235
 20
270.3265469022596
 30
0.0
 10
533.1117053669217
 20
263.7010709870572
 30
0.0
 10
530.3501491173254
 20
257.4612412600695
 30
0.0
 10
526.5911596469587
 20
251.7706870903212
 30
0.0
 10
521.933485920261
 20
246.8074554045721
 30
0.0
 10
516.5439461134672
 20
242.6816678934532
 30
0.0
 10
510.5437518880175
 20
239.5256914319141
 30
0.0
 10
504.7324812369898
 20
237.6086627532654
 30
0.0
 10
499.3542261541832
 20
236.6165337437798
 30
0.0
 10
496.14763896459
 20
236.5080488643943
 30
0.0
 10
494.5443450635087
 20
236.4538064143394
 30
0.0
  0
LINE
  5
138
330
1F
100
AcDbEntity
  8
0
  6
Continuous
 62
     7
370
    25
100
AcDbLine
 10
544.5443458086
 20
277.1396836183
 30
0.0
 11
535.1776961399
 21
277.1396836183
 31
0.0
  0
LINE
  5
139
330
1F
100
AcDbEntity
  8
0
  6
Continuous
 62
     7
370
    25
100
AcDbLine
 10
544.5443458086
 20
577.1396955392
 30
0.0
 11
535.1776961399
 21
577.1396955392
 31
0.0
  0
SPLINE
  5
13A
330
1F
100
AcDbEntity
  8
0
  6
Continuous
 62
     7
370
    25
100
AcDbSpline
210
0.0
220
0.0
230
1.0
 70
     8
 71
     3
 72
    17
 73
    13
 74
     0
 42
0.000000001
 43
0.00000001
 40
0.0
 40
0.0
 40
0.0
 40
0.0
 40
0.105436188097218
 40
0.2108723460291471
 40
0.3163060145905017
 40
0.421739641432883
 40
0.5271724609016418
 40
0.6326052462668994
 40
0.7383833173872365
 40
0.8441616336695524
 40
0.922080844343011
 40
1.0
 40
1.0
 40
1.0
 40
1.0
 10
494.5443450635087
 20
617.8255727431509
 30
0.0
 10
496.7898380821217
 20
617.7175165467632
 30
0.0
 10
501.2808234769122
 20
617.5014041849025
 30
0.0
 10
507.8371208846125
 20
615.787738895805
 30
0.0
 10
514.0217511823477
 20
613.0750476724364
 30
0.0
 10
519.6826642559496
 20
609.3751889501932
 30
0.0
 10
524.6403417543748
 20
604.780321475281
 30
0.0
 10
528.791637371479
 20
599.4361329306188
 30
0.0
 10
531.9903281641821
 20
593.4621185033119
 30
0.0
 10
533.9687135362111
 20
587.6036844900581
 30
0.0
 10
535.0096743299081
 20
582.1158122208782
 30
0.0
 10
535.1216888830864
 20
578.7984007093778
 30
0.0
 10
535.1776961399031
 20
577.1396955392096
 30
0.0
  0
LINE
  5
13B
330
1F
100
AcDbEntity
  8
0
  6
Continuous
 62
     7
370
    25
100
AcDbLine
 10
494.5443450635
 20
627.139692559
 30
0.0
 11
494.5443450635
 21
617.8255727432
 31
0.0
  0
LINE
  5
13C
330
1F
100
AcDbEntity
  8
0
  6
Continuous
 62
     7
370
    25
100
AcDbLine
 10
204.544338507
 20
277.1396836183
 30
0.0
 11
212.5534444278
 21
277.1396836183
 31
0.0
  0
SPLINE
  5
13D
330
1F
100
AcDbEntity
  8
0
  6
Continuous
 62
     7
370
    25
100
AcDbSpline
210
0.0
220
0.0
230
1.0
 70
     8
 71
     3
 72
    17
 73
    13
 74
     0
 42
0.000000001
 43
0.00000001
 40
0.0
 40
0.0
 40
0.0
 40
0.0
 40
0.1055799450631838
 40
0.2111598178292396
 40
0.3167497961148714
 40
0.4223397649596429
 40
0.5273022511604585
 40
0.6322644728600751
 40
0.7368402426480083
 40
0.8414159977532377
 40
0.9207080127222361
 40
1.0
 40
1.0
 40
1.0
 40
1.0
 10
254.5443504279267
 20
235.1672252557014
 30
0.0
 10
252.2221786259036
 20
235.2751451188957
 30
0.0
 10
247.5778366119923
 20
235.4909847713851
 30
0.0
 10
240.7953697950675
 20
237.2553120440759
 30
0.0
 10
234.3968190806402
 20
240.0560952733602
 30
0.0
 10
228.5518252994447
 20
243.873501270466
 30
0.0
 10
223.4425380805002
 20
248.6052346202704
 30
0.0
 10
219.1792059314184
 20
254.0835677240386
 30
0.0
 10
215.8930938640734
 20
260.1904339706136
 30
0.0
 10
213.8351463496479
 20
266.2113651041776
 30
0.0
 10
212.7333406854339
 20
271.9097687651778
 30
0.0
 10
212.6134098400236
 20
275.3963788701852
 30
0.0
 10
212.5534444277894
 20
277.1396836182807
 30
0.0
  0
LINE
  5
13E
330
1F
100
AcDbEntity
  8
0
  6
Continuous
 62
     7
370
    25
100
AcDbLine
 10
254.5443504279
 20
227.1396865985
 30
0.0
 11
254.5443504279
 21
235.1672252557
 31
0.0
  0
SPLINE
  5
13F
330
1F
100
AcDbEntity
  8
0
  6
Continuous
 62
     7
370
    25
100
AcDbSpline
210
0.0
220
0.0
230
1.0
 70
     8
 71
     3
 72
    13
 73
     9
 74
     0
 42
0.000000001
 43
0.00000001
 40
0.0
 40
0.0
 40
0.0
 40
0.0
 40
0.1744080901907141
 40
0.3488153565902188
 40
0.5237084438330556
 40
0.6986035641158584
 40
0.8492714577060089
 40
1.0
 40
1.0
 40
1.0
 40
1.0
 10
494.5443450635087
 20
236.4538064143394
 30
0.0
 10
480.5760476627221
 20
236.5186270254349
 30
0.0
 10
452.6395188383672
 20
236.6482679414553
 30
0.0
 10
410.6715718810049
 20
236.6282143491198
 30
0.0
 10
368.6846761513609
 20
236.445468608395
 30
0.0
 10
328.6431259600017
 20
236.1149790100228
 30
0.0
 10
290.5872364559677
 20
235.6870629673984
 30
0.0
 10
266.560257385703
 20
235.3405277368633
 30
0.0
 10
254.5443504279267
 20
235.1672252557014
 30
0.0
  0
LINE
  5
140
330
1F
100
AcDbEntity
  8
0
  6
Continuous
 62
     7
370
    25
100
AcDbLine
 10
204.544338507
 20
577.1396955392
 30
0.0
 11
212.5534444278
 21
577.1396955392
 31
0.0
  0
SPLINE
  5
141
330
1F
100
AcDbEntity
  8
0
  6
Continuous
 62
     7
370
    25
100
AcDbSpline
210
0.0
220
0.0
230
1.0
 70
     8
 71
     3
 72
    15
 73
    11
 74
     0
 42
0.000000001
 43
0.00000001
 40
0.0
 40
0.0
 40
0.0
 40
0.0
 40
0.1338067412589666
 40
0.2676302578324322
 40
0.4014336112857408
 40
0.5359403833474181
 40
0.670468493657704
 40
0.8049770672305088
 40
0.902474972022942
 40
1.0
 40
1.0
 40
1.0
 40
1.0
 10
212.5534444277894
 20
277.1396836182807
 30
0.0
 10
212.7104364622649
 20
290.493358536313
 30
0.0
 10
213.0244402132642
 20
317.202382518944
 30
0.0
 10
213.3410407562892
 20
357.3474650558794
 30
0.0
 10
213.5287284524518
 20
397.5983804920126
 30
0.0
 10
213.5612771851317
 20
437.939987123728
 30
0.0
 10
213.4455905003474
 20
478.3450649414902
 30
0.0
 10
213.2079625302251
 20
515.0154269714042
 30
0.0
 10
212.9032898057958
 20
547.9487111873251
 30
0.0
 10
212.6700703656037
 20
567.408465287833
 30
0.0
 10
212.5534444277894
 20
577.1396955392096
 30
0.0
  0
SPLINE
  5
142
330
1F
100
AcDbEntity
  8
0
  6
Continuous
 62
     7
370
    25
100
AcDbSpline
210
0.0
220
0.0
230
1.0
 70
     8
 71
     3
 72
    13
 73
     9
 74
     0
 42
0.000000001
 43
0.00000001
 40
0.0
 40
0.0
 40
0.0
 40
0.0
 40
0.1662343116696512
 40
0.3324875613121591
 40
0.4987170104124951
 40
0.6658023724248483
 40
0.8329146708035077
 40
1.0
 40
1.0
 40
1.0
 40
1.0
 10
254.5443504279267
 20
619.1121539017889
 30
0.0
 10
267.7971312832083
 20
618.921918046384
 30
0.0
 10
294.3042027952174
 20
618.5414246632641
 30
0.0
 10
334.1626311944001
 20
618.1110404368994
 30
0.0
 10
374.1406527350298
 20
617.8018796094642
 30
0.0
 10
414.2268723665989
 20
617.6482923582389
 30
0.0
 10
454.3971346434528
 20
617.6386332432104
 30
0.0
 10
481.1626615677108
 20
617.7632629289723
 30
0.0
 10
494.5443450635087
 20
617.825572743151
 30
0.0
  0
LINE
  5
143
330
1F
100
AcDbEntity
  8
0
  6
Continuous
 62
     7
370
    25
100
AcDbLine
 10
254.5443504279
 20
627.139692559
 30
0.0
 11
254.5443504279
 21
619.1121539018
 31
0.0
  0
SPLINE
  5
144
330
1F
100
AcDbEntity
  8
0
  6
Continuous
 62
     7
370
    25
100
AcDbSpline
210
0.0
220
0.0
230
1.0
 70
     8
 71
     3
 72
    17
 73
    13
 74
     0
 42
0.000000001
 43
0.00000001
 40
0.0
 40
0.0
 40
0.0
 40
0.0
 40
0.1051328374786263
 40
0.2102654848886371
 40
0.3154257280959504
 40
0.4205857204796358
 40
0.5252743151174374
 40
0.6299631597409586
 40
0.734564105734743
 40
0.8391650709058833
 40
0.9195826734970096
 40
0.9999999999999999
 40
0.9999999999999999
 40
0.9999999999999999
 40
0.9999999999999999
 10
212.5534444277894
 20
577.1396955392096
 30
0.0
 10
212.6614258368396
 20
579.452095254217
 30
0.0
 10
212.8773884597215
 20
584.0768905036673
 30
0.0
 10
214.6300692454066
 20
590.8320541096722
 30
0.0
 10
217.4110693765752
 20
597.2078852870153
 30
0.0
 10
221.2033830036532
 20
603.0392136561991
 30
0.0
 10
225.9074918985112
 20
608.144527093773
 30
0.0
 10
231.3639981438141
 20
612.4166849054212
 30
0.0
 10
237.4560608457477
 20
615.7196116031712
 30
0.0
 10
243.4947392548047
 20
617.8046404215102
 30
0.0
 10
249.2402924663247
 20
618.9292109099054
 30
0.0
 10
252.7763331307071
 20
619.0511729742809
 30
0.0
 10
254.5443504279267
 20
619.1121539017889
 30
0.0
  0
SPLINE
  5
145
330
1F
100
AcDbEntity
  8
0
  6
Continuous
 62
     7
370
    25
100
AcDbSpline
210
0.0
220
0.0
230
1.0
 70
     8
 71
     3
 72
    17
 73
    13
 74
     0
 42
0.000000001
 43
0.00000001
 40
0.0
 40
0.0
 40
0.0
 40
0.0
 40
0.1074258979353203
 40
0.2148526692141094
 40
0.3222643083339445
 40
0.429653926843549
 40
0.5370276052383578
 40
0.6443945091797308
 40
0.7517643995249902
 40
0.8591471915418815
 40
0.9665502347194062
 40
1.0
 40
1.0
 40
1.0
 40
1.0
 10
544.341820401491
 20
424.0396894897108
 30
0.0
 10
544.3495295225032
 20
424.0739732382357
 30
0.0
 10
544.3649478272007
 20
424.1425410140033
 30
0.0
 10
544.3839347473607
 20
424.677083500336
 30
0.0
 10
544.3976966301918
 20
425.464281126057
 30
0.0
 10
544.405257362825
 20
426.4469044982087
 30
0.0
 10
544.4062842284784
 20
427.5061885622008
 30
0.0
 10
544.4007314909347
 20
428.5227700758521
 30
0.0
 10
544.3888673707858
 20
429.3900088662703
 30
0.0
 10
544.3712741909895
 20
429.9787248320039
 30
0.0
 10
544.3546046222218
 20
430.2575395112193
 30
0.0
 10
544.3442000198329
 20
430.2126425580312
 30
0.0
 10
544.3417291318787
 20
430.2019804167335
 30
0.0
  0
LINE
  5
146
330
1F
100
AcDbEntity
  8
0
  6
Continuous
 62
     7
370
    25
100
AcDbLine
 10
544.4879374629
 20
414.6396893925
 30
0.0
 11
544.1053184842
 21
414.6396893925
 31
0.0
  0
SPLINE
  5
147
330
1F
100
AcDbEntity
  8
0
  6
Continuous
 62
     7
370
    25
100
AcDbSpline
210
0.0
220
0.0
230
1.0
 70
     8
 71
     3
 72
    17
 73
    13
 74
     0
 42
0.000000001
 43
0.00000001
 40
0.0
 40
0.0
 40
0.0
 40
0.0
 40
0.0740637426983204
 40
0.1814966724862937
 40
0.2889117906592938
 40
0.3962740332927847
 40
0.5035724037053806
 40
0.6108273532696217
 40
0.7180830687230373
 40
0.8253818079598642
 40
0.932744785731775
 40
0.9999999999999999
 40
0.9999999999999999
 40
0.9999999999999999
 40
0.9999999999999999
 10
544.105318484248
 20
414.6396893924807
 30
0.0
 10
544.10016506977
 20
414.6290468071505
 30
0.0
 10
544.0875363860767
 20
414.6029666530332
 30
0.0
 10
544.068184260762
 20
414.3538949430092
 30
0.0
 10
544.0505221982254
 20
413.8958020912637
 30
0.0
 10
544.0389993097394
 20
413.2925735898791
 30
0.0
 10
544.0351654769667
 20
412.6168501145468
 30
0.0
 10
544.0395364680646
 20
411.9439250781265
 30
0.0
 10
544.051513239552
 20
411.3486276819052
 30
0.0
 10
544.0694808102144
 20
410.9019702595487
 30
0.0
 10
544.0885067506492
 20
410.6713849243292
 30
0.0
 10
544.1006438209079
 20
410.6485028373137
 30
0.0
 10
544.105318484248
 20
410.6396896681522
 30
0.0
  0
LINE
  5
148
330
1F
100
AcDbEntity
  8
0
  6
Continuous
 62
     7
370
    25
100
AcDbLine
 10
544.1053184842
 20
410.6396896682
 30
0.0
 11
544.4879374629
 21
410.6396896682
 31
0.0
  0
SPLINE
  5
149
330
1F
100
AcDbEntity
  8
0
  6
Continuous
 62
     7
370
    25
100
AcDbSpline
210
0.0
220
0.0
230
1.0
 70
     8
 71
     3
 72
    17
 73
    13
 74
     0
 42
0.000000001
 43
0.00000001
 40
0.0
 40
0.0
 40
0.0
 40
0.0
 40
0.1073803084801988
 40
0.2147609132901296
 40
0.322136971359394
 40
0.4295072626959405
 40
0.5368736068897512
 40
0.6442381771942837
 40
0.7516035156919739
 40
0.8589720731691286
 40
0.9663458176064499
 40
1.0
 40
1.0
 40
1.0
 40
1.0
 10
544.4879374628675
 20
410.6396896681522
 30
0.0
 10
544.4905516770037
 20
410.661804091518
 30
0.0
 10
544.4957801124908
 20
410.7060329992774
 30
0.0
 10
544.5020973188276
 20
411.0508217937862
 30
0.0
 10
544.5066256095779
 20
411.5585723017838
 30
0.0
 10
544.5090844647972
 20
412.1925252700865
 30
0.0
 10
544.5094173896538
 20
412.8757507204203
 30
0.0
 10
544.5076163255416
 20
413.5325110764754
 30
0.0
 10
544.5037251970542
 20
414.0890955369191
 30
0.0
 10
544.497911653019
 20
414.4802153480659
 30
0.0
 10
544.4922313272173
 20
414.6278450147993
 30
0.0
 10
544.4887647169844
 20
414.6374074596108
 30
0.0
 10
544.4879374628675
 20
414.6396893924807
 30
0.0
  0
LINE
  5
14A
330
1F
100
AcDbEntity
  8
0
  6
Continuous
 62
     7
370
    25
100
AcDbLine
 10
544.1053184842
 20
431.639689385
 30
0.0
 11
544.4879374629
 21
431.639689385
 31
0.0
  0
SPLINE
  5
14B
330
1F
100
AcDbEntity
  8
0
  6
Continuous
 62
     7
370
    25
100
AcDbSpline
210
0.0
220
0.0
230
1.0
 70
     8
 71
     3
 72
    17
 73
    13
 74
     0
 42
0.000000001
 43
0.00000001
 40
0.0
 40
0.0
 40
0.0
 40
0.0
 40
0.1073803064629843
 40
0.2147609092556951
 40
0.3221369653078248
 40
0.4295072546273451
 40
0.5368735968042035
 40
0.6442382365452266
 40
0.7516035125237923
 40
0.8589720679839532
 40
0.9663458104041833
 40
1.0
 40
1.0
 40
1.0
 40
1.0
 10
544.4879374628675
 20
431.6396893850301
 30
0.0
 10
544.4905516770025
 20
431.6618038083318
 30
0.0
 10
544.4957801124867
 20
431.7060327159628
 30
0.0
 10
544.5020973188435
 20
432.0508215114343
 30
0.0
 10
544.5066256095176
 20
432.5585720157737
 30
0.0
 10
544.5090844650215
 20
433.1925249977457
 30
0.0
 10
544.5094173888907
 20
433.8757505486263
 30
0.0
 10
544.5076163279671
 20
434.5325111086024
 30
0.0
 10
544.5037251951462
 20
435.0890951859008
 30
0.0
 10
544.4979116534394
 20
435.480215416316
 30
0.0
 10
544.4922313264667
 20
435.6278438418846
 30
0.0
 10
544.488764716958
 20
435.6374077566294
 30
0.0
 10
544.4879374628675
 20
435.6396900406812
 30
0.0
  0
LINE
  5
14C
330
1F
100
AcDbEntity
  8
0
  6
Continuous
 62
     7
370
    25
100
AcDbLine
 10
544.4879374629
 20
435.6396900407
 30
0.0
 11
544.1053184842
 21
435.6396900407
 31
0.0
  0
SPLINE
  5
14D
330
1F
100
AcDbEntity
  8
0
  6
Continuous
 62
     7
370
    25
100
AcDbSpline
210
0.0
220
0.0
230
1.0
 70
     8
 71
     3
 72
    17
 73
    13
 74
     0
 42
0.000000001
 43
0.00000001
 40
0.0
 40
0.0
 40
0.0
 40
0.0
 40
0.0740637593078221
 40
0.1814966882023287
 40
0.2889117053277776
 40
0.3962740125493641
 40
0.5035723820696123
 40
0.6108274039553067
 40
0.7180829244765731
 40
0.8253818094120777
 40
0.9327447862911036
 40
1.0
 40
1.0
 40
1.0
 40
1.0
 10
544.105318484248
 20
435.6396900406812
 30
0.0
 10
544.1001650697439
 20
435.6290470881116
 30
0.0
 10
544.0875363877253
 20
435.6029660376475
 30
0.0
 10
544.0681842730094
 20
435.3538946819212
 30
0.0
 10
544.0505221829483
 20
434.8958026645385
 30
0.0
 10
544.0389993139212
 20
434.2925738018939
 30
0.0
 10
544.0351654796306
 20
433.6168502350754
 30
0.0
 10
544.0395364508153
 20
432.9439251018472
 30
0.0
 10
544.0515132720493
 20
432.348628671022
 30
0.0
 10
544.069480790245
 20
431.901969800091
 30
0.0
 10
544.0885067521068
 20
431.671384684059
 30
0.0
 10
544.1006438213132
 20
431.648502566107
 30
0.0
 10
544.105318484248
 20
431.6396893850301
 30
0.0
  0
LINE
  5
14E
330
1F
100
AcDbEntity
  8
0
  6
Continuous
 62
     7
370
    25
100
AcDbLine
 10
544.1053184842
 20
447.639690145
 30
0.0
 11
544.4879374629
 21
447.639690145
 31
0.0
  0
SPLINE
  5
14F
330
1F
100
AcDbEntity
  8
0
  6
Continuous
 62
     7
370
    25
100
AcDbSpline
210
0.0
220
0.0
230
1.0
 70
     8
 71
     3
 72
    17
 73
    13
 74
     0
 42
0.000000001
 43
0.00000001
 40
0.0
 40
0.0
 40
0.0
 40
0.0
 40
0.1073802550800637
 40
0.2147610008419967
 40
0.3221369442860145
 40
0.4295072322189331
 40
0.5368734243111035
 40
0.644238277025847
 40
0.7516034911157028
 40
0.8589720451892844
 40
0.9663458265071112
 40
1.0
 40
1.0
 40
1.0
 40
1.0
 10
544.4879374628675
 20
447.6396901449893
 30
0.0
 10
544.490551678266
 20
447.6618036349278
 30
0.0
 10
544.4957801210089
 20
447.7060307158537
 30
0.0
 10
544.5020973096435
 20
448.0508227303552
 30
0.0
 10
544.5066256130543
 20
448.5585717158185
 30
0.0
 10
544.5090844637904
 20
449.1925246347774
 30
0.0
 10
544.5094173869919
 20
449.8757501330234
 30
0.0
 10
544.5076163323845
 20
450.532510928355
 30
0.0
 10
544.503725193615
 20
451.0890953091751
 30
0.0
 10
544.4979116513597
 20
451.4802142722218
 30
0.0
 10
544.4922313291538
 20
451.6278464522871
 30
0.0
 10
544.4887647170483
 20
451.6374073704848
 30
0.0
 10
544.4879374628675
 20
451.6396889379953
 30
0.0
  0
LINE
  5
150
330
1F
100
AcDbEntity
  8
0
  6
Continuous
 62
     7
370
    25
100
AcDbLine
 10
544.4879374629
 20
451.639688938
 30
0.0
 11
544.1053184842
 21
451.639688938
 31
0.0
  0
SPLINE
  5
151
330
1F
100
AcDbEntity
  8
0
  6
Continuous
 62
     7
370
    25
100
AcDbSpline
210
0.0
220
0.0
230
1.0
 70
     8
 71
     3
 72
    17
 73
    13
 74
     0
 42
0.000000001
 43
0.00000001
 40
0.0
 40
0.0
 40
0.0
 40
0.0
 40
0.0740637500745771
 40
0.1814966905621565
 40
0.2889117192787454
 40
0.3962739726048023
 40
0.5035725006913805
 40
0.6108273145106116
 40
0.7180830406459839
 40
0.8253817905690524
 40
0.9327447790336025
 40
1.0
 40
1.0
 40
1.0
 40
1.0
 10
544.105318484248
 20
451.6396889379953
 30
0.0
 10
544.1001650695109
 20
451.6290463606659
 30
0.0
 10
544.0875363851827
 20
451.602966226155
 30
0.0
 10
544.0681842729963
 20
451.3538944042392
 30
0.0
 10
544.0505221881367
 20
450.8958025813322
 30
0.0
 10
544.0389993063468
 20
450.2925737411834
 30
0.0
 10
544.0351654759985
 20
449.6168502653545
 30
0.0
 10
544.0395364738405
 20
448.943925284993
 30
0.0
 10
544.0515132394644
 20
448.3486281585019
 30
0.0
 10
544.069480810238
 20
447.9019707364511
 30
0.0
 10
544.0885067506458
 20
447.671385401157
 30
0.0
 10
544.100643820907
 20
447.6485033141483
 30
0.0
 10
544.105318484248
 20
447.6396901449893
 30
0.0
  0
SPLINE
  5
152
330
1F
100
AcDbEntity
  8
0
  6
Continuous
 62
     7
370
    25
100
AcDbSpline
210
0.0
220
0.0
230
1.0
 70
     8
 71
     3
 72
    11
 73
     7
 74
     0
 42
0.000000001
 43
0.00000001
 40
0.0
 40
0.0
 40
0.0
 40
0.0
 40
0.2498043949340599
 40
0.4996153806653804
 40
0.7498070582596782
 40
1.0
 40
1.0
 40
1.0
 40
1.0
 10
533.9874579733026
 20
406.3009446403717
 30
0.0
 10
534.029904568099
 20
395.5277432081704
 30
0.0
 10
534.1147988775958
 20
373.9810561054282
 30
0.0
 10
534.3870443452668
 20
341.6780271194812
 30
0.0
 10
534.732370296388
 20
309.3886162432028
 30
0.0
 10
535.0292539420541
 20
287.8893459314725
 30
0.0
 10
535.1776961399031
 20
277.1396836182807
 30
0.0
  0
SPLINE
  5
153
330
1F
100
AcDbEntity
  8
0
  6
Continuous
 62
     7
370
    25
100
AcDbSpline
210
0.0
220
0.0
230
1.0
 70
     8
 71
     3
 72
     9
 73
     5
 74
     0
 42
0.000000001
 43
0.00000001
 40
0.0
 40
0.0
 40
0.0
 40
0.0
 40
0.4999249197090208
 40
1.0
 40
1.0
 40
1.0
 40
1.0
 10
533.9874579733026
 20
447.9784345171188
 30
0.0
 10
533.9726486328436
 20
441.0332293774308
 30
0.0
 10
533.9430255036997
 20
427.1407329927127
 30
0.0
 10
533.9726456675079
 20
413.2482361262901
 30
0.0
 10
533.9874579733026
 20
406.3009446403717
 30
0.0
  0
SPLINE
  5
154
330
1F
100
AcDbEntity
  8
0
  6
Continuous
 62
     7
370
    25
100
AcDbSpline
210
0.0
220
0.0
230
1.0
 70
     8
 71
     3
 72
    11
 73
     7
 74
     0
 42
0.000000001
 43
0.00000001
 40
0.0
 40
0.0
 40
0.0
 40
0.0
 40
0.2498302531344853
 40
0.4996592613648109
 40
0.7498329413357318
 40
1.0
 40
1.0
 40
1.0
 40
1.0
 10
535.1776961399031
 20
577.1396955392096
 30
0.0
 10
535.0294598184447
 20
566.4056235661358
 30
0.0
 10
534.7329879141896
 20
544.937533107869
 30
0.0
 10
534.3876456713399
 20
512.6638274864255
 30
0.0
 10
534.1150353159007
 20
480.3452405275625
 30
0.0
 10
534.0299833789877
 20
458.7672746692469
 30
0.0
 10
533.9874579733026
 20
447.9784345171188
 30
0.0
  0
LINE
  5
155
330
1F
100
AcDbEntity
  8
0
  6
Continuous
 62
     7
370
    25
100
AcDbLine
 10
544.1053184842
 20
439.639689765
 30
0.0
 11
544.4879374629
 21
439.639689765
 31
0.0
  0
SPLINE
  5
156
330
1F
100
AcDbEntity
  8
0
  6
Continuous
 62
     7
370
    25
100
AcDbSpline
210
0.0
220
0.0
230
1.0
 70
     8
 71
     3
 72
    17
 73
    13
 74
     0
 42
0.000000001
 43
0.00000001
 40
0.0
 40
0.0
 40
0.0
 40
0.0
 40
0.1073802825221499
 40
0.214760958550126
 40
0.322137015659575
 40
0.4295073060363579
 40
0.5368735005722994
 40
0.6442382128239432
 40
0.7516035503619141
 40
0.8589721068793205
 40
0.9663458100727945
 40
1.0
 40
1.0
 40
1.0
 40
1.0
 10
544.4879374628675
 20
439.6396897650097
 30
0.0
 10
544.4905516775727
 20
439.661803727212
 30
0.0
 10
544.4957801165634
 20
439.7060317326556
 30
0.0
 10
544.5020973160719
 20
440.0508221134286
 30
0.0
 10
544.5066256099287
 20
440.5585723063611
 30
0.0
 10
544.5090844639993
 20
441.1925251068798
 30
0.0
 10
544.5094173882849
 20
441.8757504401202
 30
0.0
 10
544.507616327808
 20
442.5325109932331
 30
0.0
 10
544.5037251965656
 20
443.0890954417553
 30
0.0
 10
544.49791165516
 20
443.4802160972874
 30
0.0
 10
544.4922313252493
 20
443.627843217679
 30
0.0
 10
544.4887647169144
 20
443.6374071907224
 30
0.0
 10
544.4879374628675
 20
443.6396894893383
 30
0.0
  0
LINE
  5
157
330
1F
100
AcDbEntity
  8
0
  6
Continuous
 62
     7
370
    25
100
AcDbLine
 10
544.4879374629
 20
443.6396894893
 30
0.0
 11
544.1053184842
 21
443.6396894893
 31
0.0
  0
SPLINE
  5
158
330
1F
100
AcDbEntity
  8
0
  6
Continuous
 62
     7
370
    25
100
AcDbSpline
210
0.0
220
0.0
230
1.0
 70
     8
 71
     3
 72
    17
 73
    13
 74
     0
 42
0.000000001
 43
0.00000001
 40
0.0
 40
0.0
 40
0.0
 40
0.0
 40
0.0740637427594278
 40
0.1814966726360404
 40
0.2889116907434316
 40
0.3962740644274652
 40
0.5035724349285893
 40
0.6108273845813227
 40
0.7180829707631133
 40
0.8253818078157927
 40
0.9327447856762852
 40
1.0
 40
1.0
 40
1.0
 40
1.0
 10
544.105318484248
 20
443.6396894893383
 30
0.0
 10
544.10016506946
 20
443.6290469128219
 30
0.0
 10
544.0875363850073
 20
443.6029667803032
 30
0.0
 10
544.0681842740806
 20
443.3538949382442
 30
0.0
 10
544.0505221769432
 20
442.8958030106798
 30
0.0
 10
544.0389993184438
 20
442.2925738084746
 30
0.0
 10
544.0351654769969
 20
441.616850290051
 30
0.0
 10
544.0395364590499
 20
440.9439252840162
 30
0.0
 10
544.0515132610375
 20
440.3486286283281
 30
0.0
 10
544.0694807969502
 20
439.901970238468
 30
0.0
 10
544.0885067516139
 20
439.6713850498098
 30
0.0
 10
544.100643821176
 20
439.6485029421302
 30
0.0
 10
544.105318484248
 20
439.6396897650097
 30
0.0
  0
LINE
  5
159
330
1F
100
AcDbEntity
  8
0
  6
Continuous
 62
     7
370
    25
100
AcDbLine
 10
544.1053184842
 20
402.6396902195
 30
0.0
 11
544.4879374629
 21
402.6396902195
 31
0.0
  0
SPLINE
  5
15A
330
1F
100
AcDbEntity
  8
0
  6
Continuous
 62
     7
370
    25
100
AcDbSpline
210
0.0
220
0.0
230
1.0
 70
     8
 71
     3
 72
    17
 73
    13
 74
     0
 42
0.000000001
 43
0.00000001
 40
0.0
 40
0.0
 40
0.0
 40
0.0
 40
0.1073802550800637
 40
0.2147610008419967
 40
0.3221369442860145
 40
0.4295072322189331
 40
0.5368734243111035
 40
0.644238277025847
 40
0.7516034911157028
 40
0.8589720451892844
 40
0.9663458265071112
 40
1.0
 40
1.0
 40
1.0
 40
1.0
 10
544.4879374628675
 20
402.6396902194952
 30
0.0
 10
544.490551678266
 20
402.6618037094336
 30
0.0
 10
544.4957801210089
 20
402.7060307903595
 30
0.0
 10
544.5020973096435
 20
403.050822804861
 30
0.0
 10
544.5066256130543
 20
403.5585717903243
 30
0.0
 10
544.5090844637904
 20
404.1925247092832
 30
0.0
 10
544.5094173869919
 20
404.8757502075292
 30
0.0
 10
544.5076163323845
 20
405.5325110028608
 30
0.0
 10
544.503725193615
 20
406.0890953836809
 30
0.0
 10
544.4979116513597
 20
406.4802143467276
 30
0.0
 10
544.4922313291538
 20
406.627846526793
 30
0.0
 10
544.4887647170483
 20
406.6374074449906
 30
0.0
 10
544.4879374628675
 20
406.6396890125011
 30
0.0
  0
LINE
  5
15B
330
1F
100
AcDbEntity
  8
0
  6
Continuous
 62
     7
370
    25
100
AcDbLine
 10
544.4879374629
 20
406.6396890125
 30
0.0
 11
544.1053184842
 21
406.6396890125
 31
0.0
  0
SPLINE
  5
15C
330
1F
100
AcDbEntity
  8
0
  6
Continuous
 62
     7
370
    25
100
AcDbSpline
210
0.0
220
0.0
230
1.0
 70
     8
 71
     3
 72
    17
 73
    13
 74
     0
 42
0.000000001
 43
0.00000001
 40
0.0
 40
0.0
 40
0.0
 40
0.0
 40
0.0740637500745771
 40
0.1814966905621565
 40
0.2889117192787454
 40
0.3962739726048023
 40
0.5035725006913805
 40
0.6108273145106116
 40
0.7180830406459839
 40
0.8253817905690524
 40
0.9327447790336025
 40
1.0
 40
1.0
 40
1.0
 40
1.0
 10
544.105318484248
 20
406.6396890125011
 30
0.0
 10
544.1001650695109
 20
406.6290464351717
 30
0.0
 10
544.0875363851827
 20
406.6029663006609
 30
0.0
 10
544.0681842729963
 20
406.353894478745
 30
0.0
 10
544.0505221881367
 20
405.8958026558379
 30
0.0
 10
544.0389993063468
 20
405.2925738156893
 30
0.0
 10
544.0351654759985
 20
404.6168503398603
 30
0.0
 10
544.0395364738405
 20
403.9439253594989
 30
0.0
 10
544.0515132394644
 20
403.3486282330077
 30
0.0
 10
544.069480810238
 20
402.9019708109569
 30
0.0
 10
544.0885067506458
 20
402.6713854756628
 30
0.0
 10
544.100643820907
 20
402.6485033886541
 30
0.0
 10
544.105318484248
 20
402.6396902194952
 30
0.0
  0
LINE
  5
15D
330
1F
100
AcDbEntity
  8
0
  6
Continuous
 62
     7
370
    25
100
AcDbLine
 10
544.1053184842
 20
418.6396891168
 30
0.0
 11
544.4879374629
 21
418.6396891168
 31
0.0
  0
SPLINE
  5
15E
330
1F
100
AcDbEntity
  8
0
  6
Continuous
 62
     7
370
    25
100
AcDbSpline
210
0.0
220
0.0
230
1.0
 70
     8
 71
     3
 72
    17
 73
    13
 74
     0
 42
0.000000001
 43
0.00000001
 40
0.0
 40
0.0
 40
0.0
 40
0.0
 40
0.1073803083337381
 40
0.2147609851751095
 40
0.3221369874871879
 40
0.4295072786772874
 40
0.5368735483755854
 40
0.6442381899870891
 40
0.751603528338339
 40
0.8589720856690489
 40
0.9663458098178681
 40
1.0
 40
1.0
 40
1.0
 40
1.0
 10
544.4879374628675
 20
418.6396891168092
 30
0.0
 10
544.4905516775073
 20
418.6618034594945
 30
0.0
 10
544.4957801157584
 20
418.7060322207572
 30
0.0
 10
544.5020973143555
 20
419.0508223367758
 30
0.0
 10
544.5066256113374
 20
419.5585721694104
 30
0.0
 10
544.5090844640881
 20
420.1925250846521
 30
0.0
 10
544.5094173890506
 20
420.8757504350355
 30
0.0
 10
544.50761632666
 20
421.5325109149627
 30
0.0
 10
544.5037251967877
 20
422.0890953094747
 30
0.0
 10
544.497911654193
 20
422.4802157573641
 30
0.0
 10
544.492231325865
 20
422.6278435376781
 30
0.0
 10
544.4887647169376
 20
422.6374074812124
 30
0.0
 10
544.4879374628675
 20
422.6396897724603
 30
0.0
  0
LINE
  5
15F
330
1F
100
AcDbEntity
  8
0
  6
Continuous
 62
     7
370
    25
100
AcDbLine
 10
544.4879374629
 20
422.6396897725
 30
0.0
 11
544.1053184842
 21
422.6396897725
 31
0.0
  0
SPLINE
  5
160
330
1F
100
AcDbEntity
  8
0
  6
Continuous
 62
     7
370
    25
100
AcDbSpline
210
0.0
220
0.0
230
1.0
 70
     8
 71
     3
 72
    17
 73
    13
 74
     0
 42
0.000000001
 43
0.00000001
 40
0.0
 40
0.0
 40
0.0
 40
0.0
 40
0.0740637502092058
 40
0.1814966783989605
 40
0.2889117448968768
 40
0.3962739859332006
 40
0.5035723547495795
 40
0.61082744914513
 40
0.7180829689628081
 40
0.825381755467059
 40
0.9327447867322927
 40
1.0
 40
1.0
 40
1.0
 40
1.0
 10
544.105318484248
 20
422.6396897724603
 30
0.0
 10
544.1001650697734
 20
422.6290470033373
 30
0.0
 10
544.0875363869579
 20
422.6029664006226
 30
0.0
 10
544.0681842665339
 20
422.353894872035
 30
0.0
 10
544.0505221936838
 20
421.8958024666643
 30
0.0
 10
544.0389993090076
 20
421.292573932714
 30
0.0
 10
544.0351654808927
 20
420.6168502465603
 30
0.0
 10
544.0395364493332
 20
419.9439250516908
 30
0.0
 10
544.0515132610544
 20
419.348628288306
 30
0.0
 10
544.0694808097093
 20
418.9019708032403
 30
0.0
 10
544.0885067453505
 20
418.6713842439847
 30
0.0
 10
544.1006438204992
 20
418.6485022480933
 30
0.0
 10
544.105318484248
 20
418.6396891168092
 30
0.0
  0
SPLINE
  5
161
330
1F
100
AcDbEntity
  8
0
  6
Continuous
 62
     7
370
    25
100
AcDbSpline
210
0.0
220
0.0
230
1.0
 70
     8
 71
     3
 72
    13
 73
     9
 74
     0
 42
0.000000001
 43
0.00000001
 40
0.0
 40
0.0
 40
0.0
 40
0.0
 40
0.1746133023976724
 40
0.349225960235243
 40
0.5242760209187026
 40
0.6993277565190008
 40
0.8496361299127205
 40
1.0
 40
1.0
 40
1.0
 40
1.0
 10
495.7761458283078
 20
586.4376624963019
 30
0.0
 10
481.5195537776701
 20
586.3919167389273
 30
0.0
 10
453.0064223025708
 20
586.3004253930417
 30
0.0
 10
410.178833357661
 20
586.3167880833442
 30
0.0
 10
367.3337471420358
 20
586.4407365071181
 30
0.0
 10
326.513548567755
 20
586.6900367142119
 30
0.0
 10
287.7554510873204
 20
587.0378475154394
 30
0.0
 10
263.3099586743282
 20
587.3372159276447
 30
0.0
 10
251.0849564498078
 20
587.4869277617667
 30
0.0
  0
LWPOLYLINE
  5
162
330
1F
100
AcDbEntity
  8
0
  6
Continuous
 62
     7
370
    25
100
AcDbPolyline
 90
       14
 70
   128
 43
0.0
 10
251.0849564498
 20
587.4869277618
 10
251.1860459273
 20
591.0669019363
 10
251.3229577964
 20
594.5764234206
 10
251.4942019408
 20
597.9780753991
 10
251.6979902213
 20
601.2355735442
 10
251.9321470683
 20
604.314168348
 10
252.1941690868
 20
607.1810325525
 10
252.4812846606
 20
609.8055591724
 10
252.7903645461
 20
612.1597787282
 10
253.1181602901
 20
614.2185678622
 10
253.4611850207
 20
615.9599622628
 10
253.8157432502
 20
617.3653950832
 10
254.1781096881
 20
618.419875755
 10
254.5443504279
 20
619.1121539018
  0
LWPOLYLINE
  5
163
330
1F
100
AcDbEntity
  8
0
  6
Continuous
 62
     7
370
    25
100
AcDbPolyline
 90
       14
 70
   128
 43
0.0
 10
495.7761458283
 20
586.4376624963
 10
495.7384570664
 20
589.9710109374
 10
495.6883481866
 20
593.4342792175
 10
495.6263370042
 20
596.7914214275
 10
495.5530717199
 20
600.0075390479
 10
495.4693160182
 20
603.0491640708
 10
495.3759341663
 20
605.8846464298
 10
495.2739059156
 20
608.4845116279
 10
495.1642855232
 20
610.8216991565
 10
495.0482166534
 20
612.8719052217
 10
494.9269100254
 20
614.6138062618
 10
494.8016210621
 20
616.0292675636
 10
494.6736573403
 20
617.103581681
 10
494.5443450635
 20
617.8255727432
  0
SPLINE
  5
164
330
1F
100
AcDbEntity
  8
0
  6
Continuous
 62
     7
370
    25
100
AcDbSpline
210
0.0
220
0.0
230
1.0
 70
     8
 71
     3
 72
    15
 73
    11
 74
     0
 42
0.000000001
 43
0.00000001
 40
0.0
 40
0.0
 40
0.0
 40
0.0
 40
0.0974172395182989
 40
0.1948587582884304
 40
0.3287194821080285
 40
0.462597653713047
 40
0.5964569646964178
 40
0.7309642039934552
 40
0.8654899520002576
 40
1.0
 40
1.0
 40
1.0
 40
1.0
 10
243.6048119490754
 20
580.0207307479117
 30
0.0
 10
243.7037009235048
 20
570.111569802572
 30
0.0
 10
243.9015035184152
 20
550.2907782564678
 30
0.0
 10
244.1481929961591
 20
516.8056741620119
 30
0.0
 10
244.3342856181006
 20
479.570758808599
 30
0.0
 10
244.4211256561627
 20
438.5932108239008
 30
0.0
 10
244.3967078342777
 20
397.5429885084335
 30
0.0
 10
244.2555502835816
 20
356.444757099147
 30
0.0
 10
244.0041141271076
 20
315.3131320340152
 30
0.0
 10
243.7379074967839
 20
287.9429438742633
 30
0.0
 10
243.6048119490754
 20
274.2586484095787
 30
0.0
  0
LWPOLYLINE
  5
165
330
1F
100
AcDbEntity
  8
0
  6
Continuous
 62
     7
370
    25
100
AcDbPolyline
 90
       14
 70
   128
 43
0.0
 10
243.6048119491
 20
274.2586484096
 10
240.0770216411
 20
274.3467440746
 10
236.6234093135
 20
274.463911905
 10
233.2798867648
 20
274.6089151046
 10
230.0812333053
 20
274.780248656
 10
227.060738129
 20
274.9761393211
 10
224.249842686
 20
275.1945307395
 10
221.677812857
 20
275.433172836
 10
219.3713515227
 20
275.6895771167
 10
217.3545389598
 20
275.9610613725
 10
215.6482963985
 20
276.2448241851
 10
214.2703860229
 20
276.5378853223
 10
213.2352023547
 20
276.8372198484
 10
212.5534444278
 20
277.1396836183
  0
LWPOLYLINE
  5
166
330
1F
100
AcDbEntity
  8
0
  6
Continuous
 62
     7
370
    25
100
AcDbPolyline
 90
       14
 70
   128
 43
0.0
 10
243.6048119491
 20
580.0207307479
 10
240.0770216411
 20
579.9326350829
 10
236.6234093135
 20
579.8154672525
 10
233.2798867648
 20
579.6704640529
 10
230.0812333053
 20
579.4991305015
 10
227.060738129
 20
579.3032398364
 10
224.249842686
 20
579.084848418
 10
221.677812857
 20
578.8462063215
 10
219.3713515227
 20
578.5898020408
 10
217.3545389598
 20
578.318317785
 10
215.6482963985
 20
578.0345549724
 10
214.2703860229
 20
577.7414938352
 10
213.2352023547
 20
577.4421593091
 10
212.5534444278
 20
577.1396955392
  0
LWPOLYLINE
  5
167
330
1F
100
AcDbEntity
  8
0
  6
Continuous
 62
     7
370
    25
100
AcDbPolyline
 90
       14
 70
   128
 43
0.0
 10
251.0849564498
 20
266.7924513957
 10
251.1860459273
 20
263.2124772212
 10
251.3229577964
 20
259.7029557368
 10
251.4942019408
 20
256.3013037584
 10
251.6979902213
 20
253.0438056133
 10
251.9321470683
 20
249.9652108094
 10
252.1941690868
 20
247.098346605
 10
252.4812846606
 20
244.4738199851
 10
252.7903645461
 20
242.1196004293
 10
253.1181602901
 20
240.0608112952
 10
253.4611850207
 20
238.3194168946
 10
253.8157432502
 20
236.9139840743
 10
254.1781096881
 20
235.8595034024
 10
254.5443504279
 20
235.1672252557
  0
SPLINE
  5
168
330
1F
100
AcDbEntity
  8
0
  6
Continuous
 62
     7
370
    25
100
AcDbSpline
210
0.0
220
0.0
230
1.0
 70
     8
 71
     3
 72
    13
 73
     9
 74
     0
 42
0.000000001
 43
0.00000001
 40
0.0
 40
0.0
 40
0.0
 40
0.0
 40
0.1504173835449093
 40
0.3008889186447929
 40
0.4754528675827586
 40
0.6500152170074402
 40
0.8250072880241625
 40
1.0
 40
1.0
 40
1.0
 40
1.0
 10
251.0849564498078
 20
266.7924513957237
 30
0.0
 10
263.3143120033872
 20
266.942210985284
 30
0.0
 10
287.7774257839866
 20
267.2417840791483
 30
0.0
 10
326.5134967105249
 20
267.5893202104942
 30
0.0
 10
367.2674025476127
 20
267.83821422226
 30
0.0
 10
410.0637013478866
 20
267.9624198594701
 30
0.0
 10
452.9134609124114
 20
267.9791822291489
 30
0.0
 10
481.4885667456081
 20
267.8875385731204
 30
0.0
 10
495.7761458283078
 20
267.8417166611885
 30
0.0
  0
LWPOLYLINE
  5
169
330
1F
100
AcDbEntity
  8
0
  6
Continuous
 62
     7
370
    25
100
AcDbPolyline
 90
       14
 70
   128
 43
0.0
 10
494.5443450635
 20
236.4538064143
 10
494.6736573403
 20
237.1757974765
 10
494.8016210621
 20
238.2501115939
 10
494.9269100254
 20
239.6655728957
 10
495.0482166534
 20
241.4074739358
 10
495.1642855232
 20
243.457680001
 10
495.2739059156
 20
245.7948675296
 10
495.3759341663
 20
248.3947327277
 10
495.4693160182
 20
251.2302150867
 10
495.5530717199
 20
254.2718401096
 10
495.6263370042
 20
257.48795773
 10
495.6883481866
 20
260.84509994
 10
495.7384570664
 20
264.3083682201
 10
495.7761458283
 20
267.8417166612
  0
SPLINE
  5
16A
330
1F
100
AcDbEntity
  8
0
  6
Continuous
 62
     7
370
    25
100
AcDbSpline
210
0.0
220
0.0
230
1.0
 70
     8
 71
     3
 72
    12
 73
     8
 74
     0
 42
0.000000001
 43
0.00000001
 40
0.0
 40
0.0
 40
0.0
 40
0.0
 40
0.1587465058015821
 40
0.3679246016638845
 40
0.5779021838091167
 40
0.7890645239366616
 40
1.0
 40
1.0
 40
1.0
 40
1.0
 10
243.6048119490754
 20
274.2586484095787
 30
0.0
 10
243.6444976247103
 20
273.6373841042139
 30
0.0
 10
243.7364765714342
 20
272.1974883350119
 30
0.0
 10
244.6891424951701
 20
270.0781572232934
 30
0.0
 10
246.379298788056
 20
268.2400748002531
 30
0.0
 10
248.6037445734446
 20
267.0031166943265
 30
0.0
 10
250.2581822267793
 20
266.862647996115
 30
0.0
 10
251.0849564498078
 20
266.7924513957236
 30
0.0
  0
SPLINE
  5
16B
330
1F
100
AcDbEntity
  8
0
  6
Continuous
 62
     7
370
    25
100
AcDbSpline
210
0.0
220
0.0
230
1.0
 70
     8
 71
     3
 72
    12
 73
     8
 74
     0
 42
0.000000001
 43
0.00000001
 40
0.0
 40
0.0
 40
0.0
 40
0.0
 40
0.1608717364865065
 40
0.3700365376144681
 40
0.5794640227746206
 40
0.7898176701513331
 40
1.0
 40
1.0
 40
1.0
 40
1.0
 10
251.0849564498078
 20
587.4869277617667
 30
0.0
 10
250.4561868429596
 20
587.4476709414095
 30
0.0
 10
249.0098934581991
 20
587.3573725571191
 30
0.0
 10
246.8880232550959
 20
586.4009299550845
 30
0.0
 10
245.055089372394
 20
584.7140498303725
 30
0.0
 10
243.8201050157099
 20
582.4961543629144
 30
0.0
 10
243.6765568117787
 20
580.8456478256757
 30
0.0
 10
243.6048119490754
 20
580.0207307479117
 30
0.0
  0
LWPOLYLINE
  5
16C
330
1F
100
AcDbEntity
  8
0
  6
Continuous
 62
     7
370
    25
100
AcDbPolyline
 90
       14
 70
   128
 43
0.0
 10
533.9874579733
 20
447.9784345171
 10
533.2081016315
 20
448.0381788603
 10
532.0605180388
 20
448.0972731403
 10
530.5572253348
 20
448.1550710193
 10
528.7146199191
 20
448.2109429232
 10
526.5528006641
 20
448.2642779044
 10
524.0953477261
 20
448.3144948176
 10
521.369065733
 20
448.3610460452
 10
518.4036922803
 20
448.4034230849
 10
515.2315722009
 20
448.4411658636
 10
511.8873055255
 20
448.4738608739
 10
508.4073702967
 20
448.5011523506
 10
504.8297262912
 20
448.5227422706
 10
501.1933921998
 20
448.5383940778
  0
SPLINE
  5
16D
330
1F
100
AcDbEntity
  8
0
  6
Continuous
 62
     7
370
    25
100
AcDbSpline
210
0.0
220
0.0
230
1.0
 70
     8
 71
     3
 72
    11
 73
     7
 74
     0
 42
0.000000001
 43
0.00000001
 40
0.0
 40
0.0
 40
0.0
 40
0.0
 40
0.2498198002669359
 40
0.4996447786527284
 40
0.7498217468354953
 40
1.0
 40
1.0
 40
1.0
 40
1.0
 10
501.1933921998155
 20
448.5383940777515
 30
0.0
 10
501.1938689487257
 20
459.5217566651298
 30
0.0
 10
501.1948224564277
 20
481.4887094966087
 30
0.0
 10
501.3195968974974
 20
514.4243852800683
 30
0.0
 10
501.5724577596803
 20
547.3473545967906
 30
0.0
 10
501.8236262119049
 20
569.2707601979046
 30
0.0
 10
501.949210760535
 20
580.2324911496374
 30
0.0
  0
LWPOLYLINE
  5
16E
330
1F
100
AcDbEntity
  8
0
  6
Continuous
 62
     7
370
    25
100
AcDbPolyline
 90
       14
 70
   128
 43
0.0
 10
535.1776961399
 20
577.1396955392
 10
534.4199404282
 20
577.4733176372
 10
533.2816751836
 20
577.8031995437
 10
531.7757019004
 20
578.1256159684
 10
529.9189587751
 20
578.4369459293
 10
527.7323279808
 20
578.7336876533
 10
525.2404023124
 20
579.0125032804
 10
522.4712082347
 20
579.2702486655
 10
519.4558912119
 20
579.5040329835
 10
516.2283620959
 20
579.7112336299
 10
512.8249229094
 20
579.8894962213
 10
509.2838510101
 20
580.0368389032
 10
505.6449706828
 20
580.1516076467
 10
501.9492107605
 20
580.2324911496
  0
LWPOLYLINE
  5
16F
330
1F
100
AcDbEntity
  8
0
  6
Continuous
 62
     7
370
    25
100
AcDbPolyline
 90
       14
 70
   128
 43
0.0
 10
535.1776961399
 20
277.1396836183
 10
534.4199404282
 20
276.8060615203
 10
533.2816751836
 20
276.4761796138
 10
531.7757019004
 20
276.1537631891
 10
529.9189587751
 20
275.8424332282
 10
527.7323279808
 20
275.5456915042
 10
525.2404023124
 20
275.2668758771
 10
522.4712082347
 20
275.0091304919
 10
519.4558912119
 20
274.775346174
 10
516.2283620959
 20
274.5681455276
 10
512.8249229094
 20
274.3898829362
 10
509.2838510101
 20
274.2425402543
 10
505.6449706828
 20
274.1277715108
 10
501.9492107605
 20
274.0468880079
  0
SPLINE
  5
170
330
1F
100
AcDbEntity
  8
0
  6
Continuous
 62
     7
370
    25
100
AcDbSpline
210
0.0
220
0.0
230
1.0
 70
     8
 71
     3
 72
    11
 73
     7
 74
     0
 42
0.000000001
 43
0.00000001
 40
0.0
 40
0.0
 40
0.0
 40
0.0
 40
0.2498414851905669
 40
0.4996817594886136
 40
0.7498434916483926
 40
1.0
 40
1.0
 40
1.0
 40
1.0
 10
501.9492107605349
 20
274.0468880078528
 30
0.0
 10
501.8237854057631
 20
284.993856962703
 30
0.0
 10
501.5729353041115
 20
306.8877418163511
 30
0.0
 10
501.3199516247357
 20
339.795851373009
 30
0.0
 10
501.1948677897975
 20
372.7462611708546
 30
0.0
 10
501.1938840597191
 20
394.7428203319219
 30
0.0
 10
501.1933921998155
 20
405.7409850797389
 30
0.0
  0
LWPOLYLINE
  5
171
330
1F
100
AcDbEntity
  8
0
  6
Continuous
 62
     7
370
    25
100
AcDbPolyline
 90
       14
 70
   128
 43
0.0
 10
533.9874579733
 20
406.3009446404
 10
533.2081016315
 20
406.2412002972
 10
532.0605180388
 20
406.1821060172
 10
530.5572253348
 20
406.1243081382
 10
528.7146199191
 20
406.0684362343
 10
526.5528006641
 20
406.0151012531
 10
524.0953477261
 20
405.9648843399
 10
521.369065733
 20
405.9183331123
 10
518.4036922803
 20
405.8759560725
 10
515.2315722009
 20
405.8382132939
 10
511.8873055255
 20
405.8055182836
 10
508.4073702967
 20
405.7782268069
 10
504.8297262912
 20
405.7566368869
 10
501.1933921998
 20
405.7409850797
  0
SPLINE
  5
172
330
1F
100
AcDbEntity
  8
0
  6
Continuous
 62
     7
370
    25
100
AcDbSpline
210
0.0
220
0.0
230
1.0
 70
     8
 71
     3
 72
    12
 73
     8
 74
     0
 42
0.000000001
 43
0.00000001
 40
0.0
 40
0.0
 40
0.0
 40
0.0
 40
0.1510981187138252
 40
0.3625907771061209
 40
0.5748083927029481
 40
0.7875639750034779
 40
1.0
 40
1.0
 40
1.0
 40
1.0
 10
495.7761458283078
 20
267.8417166611885
 30
0.0
 10
496.2660751610624
 20
267.8743659481467
 30
0.0
 10
497.4417605964782
 20
267.9527145763819
 30
0.0
 10
499.1912444936115
 20
268.7252257734922
 30
0.0
 10
500.7324317643734
 20
270.1286383664949
 30
0.0
 10
501.7705056425091
 20
271.9786692301406
 30
0.0
 10
501.8896722415041
 20
273.3578272556079
 30
0.0
 10
501.949210760535
 20
274.0468880078529
 30
0.0
  0
SPLINE
  5
173
330
1F
100
AcDbEntity
  8
0
  6
Continuous
 62
     7
370
    25
100
AcDbSpline
210
0.0
220
0.0
230
1.0
 70
     8
 71
     3
 72
    12
 73
     8
 74
     0
 42
0.000000001
 43
0.00000001
 40
0.0
 40
0.0
 40
0.0
 40
0.0
 40
0.1554048608100158
 40
0.3666177636861885
 40
0.5776101976040678
 40
0.7888219642749511
 40
1.0
 40
1.0
 40
1.0
 40
1.0
 10
501.949210760535
 20
580.2324911496374
 30
0.0
 10
501.9186580165837
 20
580.7350727897255
 30
0.0
 10
501.8465806143485
 20
581.9207201111693
 30
0.0
 10
501.0706729482738
 20
583.6743871282671
 30
0.0
 10
499.674807350559
 20
585.207508715348
 30
0.0
 10
497.8364950883121
 20
586.2450908736474
 30
0.0
 10
496.4628923508675
 20
586.3734753729007
 30
0.0
 10
495.7761458283078
 20
586.4376624963019
 30
0.0
  0
ARC
  5
174
330
1F
100
AcDbEntity
  8
0
  6
Continuous
 62
     7
370
    25
100
AcDbCircle
 10
434.544345898
 20
427.1396895787
 30
0.0
 40
70.00000000000003
100
AcDbArc
 50
17.8000290607
 51
342.1999709393
  0
LINE
  5
175
330
1F
100
AcDbEntity
  8
0
  6
Continuous
 62
     7
370
    25
100
AcDbLine
 10
501.1933921998
 20
405.7409850797
 30
0.0
 11
501.2515383934
 21
424.215492691
 31
0.0
  0
LINE
  5
176
330
1F
100
AcDbEntity
  8
0
  6
Continuous
 62
     7
370
    25
100
AcDbLine
 10
501.2515383934
 20
430.0638864665
 30
0.0
 11
501.2515383934
 21
424.215492691
 31
0.0
  0
LINE
  5
177
330
1F
100
AcDbEntity
  8
0
  6
Continuous
 62
     7
370
    25
100
AcDbLine
 10
501.2515383934
 20
430.0638864665
 30
0.0
 11
501.1933921998
 21
448.5383940778
 31
0.0
  0
ARC
  5
178
330
1F
100
AcDbEntity
  8
0
  6
Continuous
 62
     7
370
    25
100
AcDbCircle
 10
434.544345898
 20
427.1396895787
 30
0.0
 40
66.77125453482508
100
AcDbArc
 50
2.5100283872
 51
357.4899716128
  0
LINE
  5
179
330
1F
100
AcDbEntity
  8
0
  6
Continuous
 62
     7
370
    25
100
AcDbLine
 10
500.6326838558
 20
424.2426209534
 30
0.0
 11
500.6326838558
 21
430.0367582041
 31
0.0
  0
LWPOLYLINE
  5
17A
330
1F
100
AcDbEntity
  8
0
  6
Continuous
 62
     7
370
    25
100
AcDbPolyline
 90
        9
 70
   128
 43
0.0
 10
501.2515383934
 20
430.0638864665
 10
501.1732439672
 20
430.06045431
 10
501.0951115912
 20
430.0570293712
 10
501.0171934193
 20
430.0536137457
 10
500.9395416057
 20
430.0502097617
 10
500.8622138923
 20
430.0468199803
 10
500.7852587079
 20
430.0434464971
 10
500.708731932
 20
430.0400918732
 10
500.6326838558
 20
430.0367582041
  0
LWPOLYLINE
  5
17B
330
1F
100
AcDbEntity
  8
0
  6
Continuous
 62
     7
370
    25
100
AcDbPolyline
 90
        9
 70
   128
 43
0.0
 10
500.6326838558
 20
424.2426209534
 10
500.708731932
 20
424.2392872843
 10
500.7852587079
 20
424.2359326604
 10
500.8622138923
 20
424.2325591772
 10
500.9395416057
 20
424.2291693958
 10
501.0171934193
 20
424.2257654118
 10
501.0951115912
 20
424.2223497863
 10
501.1732439672
 20
424.2189248475
 10
501.2515383934
 20
424.215492691
  0
CIRCLE
  5
17C
330
1F
100
AcDbEntity
  8
0
  6
Continuous
 62
     7
370
    25
100
AcDbCircle
 10
434.544345898
 20
427.1396895787
 30
0.0
 40
58.61177143234619
  0
ARC
  5
17D
330
1F
100
AcDbEntity
  8
0
  6
Continuous
 62
     7
370
    25
100
AcDbCircle
 10
434.544345898
 20
427.1396895787
 30
0.0
 40
66.15180526824551
100
AcDbArc
 50
2.5100283872
 51
357.4899716128
  0
CIRCLE
  5
17E
330
1F
100
AcDbEntity
  8
0
  6
Continuous
 62
     7
370
    25
100
AcDbCircle
 10
434.544345898
 20
427.1396895787
 30
0.0
 40
57.5
  0
LINE
  5
17F
330
1F
100
AcDbEntity
  8
0
  6
Continuous
 62
     7
370
    25
100
AcDbLine
 10
183.1254690116
 20
205.9516956947
 30
0.0
 11
183.1254690116
 21
648.3276834628
 31
0.0
  0
LINE
  5
180
330
1F
100
AcDbEntity
  8
0
  6
Continuous
 62
     7
370
    25
100
AcDbLine
 10
183.1254690116
 20
648.3276834628
 30
0.0
 11
183.5638611739
 21
648.3276834628
 31
0.0
  0
LINE
  5
181
330
1F
100
AcDbEntity
  8
0
  6
Continuous
 62
     7
370
    25
100
AcDbLine
 10
183.5638611739
 20
648.3276834628
 30
0.0
 11
183.5638611739
 21
205.9516956947
 31
0.0
  0
LINE
  5
182
330
1F
100
AcDbEntity
  8
0
  6
Continuous
 62
     7
370
    25
100
AcDbLine
 10
183.1254690116
 20
205.9516956947
 30
0.0
 11
183.5638611739
 21
205.9516956947
 31
0.0
  0
ARC
  5
183
330
1F
100
AcDbEntity
  8
0
  6
Continuous
 62
     7
370
    25
100
AcDbCircle
 10
203.356345898
 20
648.3276895787
 30
0.0
 40
19.79249704433664
100
AcDbArc
 50
90.0
 51
180.0
  0
ARC
  5
184
330
1F
100
AcDbEntity
  8
0
  6
Continuous
 62
     7
370
    25
100
AcDbCircle
 10
203.356345898
 20
648.3276895787
 30
0.0
 40
20.23086819112564
100
AcDbArc
 50
90.0
 51
180.0
  0
LINE
  5
185
330
1F
100
AcDbEntity
  8
0
  6
Continuous
 62
     7
370
    25
100
AcDbLine
 10
203.356358332
 20
668.1201806209
 30
0.0
 11
203.356358332
 21
668.558557882
 31
0.0
  0
LINE
  5
186
330
1F
100
AcDbEntity
  8
0
  6
Continuous
 62
     7
370
    25
100
AcDbLine
 10
164.5443468516
 20
177.1396895787
 30
0.0
 11
164.5443468516
 21
677.1396895787
 31
0.0
  0
LINE
  5
187
330
1F
100
AcDbEntity
  8
0
  6
Continuous
 62
     7
370
    25
100
AcDbLine
 10
164.5443468516
 20
677.1396895787
 30
0.0
 11
165.3443603938
 21
677.1396895787
 31
0.0
  0
LINE
  5
188
330
1F
100
AcDbEntity
  8
0
  6
Continuous
 62
     7
370
    25
100
AcDbLine
 10
165.3443603938
 20
677.1396895787
 30
0.0
 11
165.3443603938
 21
177.1396895787
 31
0.0
  0
LINE
  5
189
330
1F
100
AcDbEntity
  8
0
  6
Continuous
 62
     7
370
    25
100
AcDbLine
 10
164.5443468516
 20
177.1396895787
 30
0.0
 11
165.3443603938
 21
177.1396895787
 31
0.0
  0
LINE
  5
18A
330
1F
100
AcDbEntity
  8
0
  6
Continuous
 62
     7
370
    25
100
AcDbLine
 10
174.5443373149
 20
167.9396828553
 30
0.0
 11
881.544354481
 21
167.9396828553
 31
0.0
  0
LINE
  5
18B
330
1F
100
AcDbEntity
  8
0
  6
Continuous
 62
     7
370
    25
100
AcDbLine
 10
881.544354481
 20
167.9396828553
 30
0.0
 11
881.544354481
 21
167.1396991155
 31
0.0
  0
LINE
  5
18C
330
1F
100
AcDbEntity
  8
0
  6
Continuous
 62
     7
370
    25
100
AcDbLine
 10
881.544354481
 20
167.1396991155
 30
0.0
 11
174.5443373149
 21
167.1396991155
 31
0.0
  0
LINE
  5
18D
330
1F
100
AcDbEntity
  8
0
  6
Continuous
 62
     7
370
    25
100
AcDbLine
 10
174.5443373149
 20
167.1396991155
 30
0.0
 11
174.5443373149
 21
167.9396828553
 31
0.0
  0
ARC
  5
18E
330
1F
100
AcDbEntity
  8
0
  6
Continuous
 62
     7
370
    25
100
AcDbCircle
 10
881.544345898
 20
177.1396895787
 30
0.0
 40
9.200000000000045
100
AcDbArc
 50
270.0
 51
0.0
  0
LINE
  5
18F
330
1F
100
AcDbEntity
  8
0
  6
Continuous
 62
     7
370
    25
100
AcDbLine
 10
890.7443314021
 20
177.1396895787
 30
0.0
 11
891.5443449443
 21
177.1396895787
 31
0.0
  0
ARC
  5
190
330
1F
100
AcDbEntity
  8
0
  6
Continuous
 62
     7
370
    25
100
AcDbCircle
 10
881.544345898
 20
177.1396895787
 30
0.0
 40
10.00000000000003
100
AcDbArc
 50
270.0
 51
0.0
  0
ARC
  5
191
330
1F
100
AcDbEntity
  8
0
  6
Continuous
 62
     7
370
    25
100
AcDbCircle
 10
174.544345898
 20
177.1396895787
 30
0.0
 40
10.00000000000003
100
AcDbArc
 50
180.0
 51
270.0
  0
ARC
  5
192
330
1F
100
AcDbEntity
  8
0
  6
Continuous
 62
     7
370
    25
100
AcDbCircle
 10
174.544345898
 20
177.1396895787
 30
0.0
 40
9.199999999999989
100
AcDbArc
 50
180.0
 51
270.0
  0
LINE
  5
193
330
1F
100
AcDbEntity
  8
0
  6
Continuous
 62
     7
370
    25
100
AcDbLine
 10
203.356358332
 20
668.558557882
 30
0.0
 11
852.732333464
 21
668.558557882
 31
0.0
  0
ARC
  5
194
330
1F
100
AcDbEntity
  8
0
  6
Continuous
 62
     7
370
    25
100
AcDbCircle
 10
203.356345898
 20
205.9516895787
 30
0.0
 40
20.23086819112558
100
AcDbArc
 50
180.0
 51
270.0
  0
LINE
  5
195
330
1F
100
AcDbEntity
  8
0
  6
Continuous
 62
     7
370
    25
100
AcDbLine
 10
852.732333464
 20
185.7208212754
 30
0.0
 11
203.356358332
 21
185.7208212754
 31
0.0
  0
ARC
  5
196
330
1F
100
AcDbEntity
  8
0
  6
Continuous
 62
     7
370
    25
100
AcDbCircle
 10
852.732345898
 20
205.9516895787
 30
0.0
 40
20.23086819112555
100
AcDbArc
 50
270.0
 51
0.0
  0
LINE
  5
197
330
1F
100
AcDbEntity
  8
0
  6
Continuous
 62
     7
370
    25
100
AcDbLine
 10
872.9632227843
 20
648.3276834628
 30
0.0
 11
872.9632227843
 21
205.9516956947
 31
0.0
  0
ARC
  5
198
330
1F
100
AcDbEntity
  8
0
  6
Continuous
 62
     7
370
    25
100
AcDbCircle
 10
852.732345898
 20
648.3276895787
 30
0.0
 40
20.23086819112564
100
AcDbArc
 50
0.0
 51
90.0
  0
LINE
  5
199
330
1F
100
AcDbEntity
  8
0
  6
Continuous
 62
     7
370
    25
100
AcDbLine
 10
890.7443314021
 20
177.1396895787
 30
0.0
 11
890.7443314021
 21
677.1396895787
 31
0.0
  0
ARC
  5
19A
330
1F
100
AcDbEntity
  8
0
  6
Continuous
 62
     7
370
    25
100
AcDbCircle
 10
174.544345898
 20
677.1396895787
 30
0.0
 40
9.200000000000045
100
AcDbArc
 50
90.0
 51
180.0
  0
LINE
  5
19B
330
1F
100
AcDbEntity
  8
0
  6
Continuous
 62
     7
370
    25
100
AcDbLine
 10
881.544354481
 20
686.3396963021
 30
0.0
 11
174.5443373149
 21
686.3396963021
 31
0.0
  0
ARC
  5
19C
330
1F
100
AcDbEntity
  8
0
  6
Continuous
 62
     7
370
    25
100
AcDbCircle
 10
881.544345898
 20
677.1396895787
 30
0.0
 40
9.200000000000045
100
AcDbArc
 50
0.0
 51
90.0
  0
LINE
  5
19D
330
1F
100
AcDbEntity
  8
0
  6
Continuous
 62
     7
370
    25
100
AcDbLine
 10
203.356358332
 20
185.7208212754
 30
0.0
 11
203.356358332
 21
186.1591985366
 31
0.0
  0
LINE
  5
19E
330
1F
100
AcDbEntity
  8
0
  6
Continuous
 62
     7
370
    25
100
AcDbLine
 10
203.356358332
 20
186.1591985366
 30
0.0
 11
852.732333464
 21
186.1591985366
 31
0.0
  0
LINE
  5
19F
330
1F
100
AcDbEntity
  8
0
  6
Continuous
 62
     7
370
    25
100
AcDbLine
 10
852.732333464
 20
185.7208212754
 30
0.0
 11
852.732333464
 21
186.1591985366
 31
0.0
  0
LINE
  5
1A0
330
1F
100
AcDbEntity
  8
0
  6
Continuous
 62
     7
370
    25
100
AcDbLine
 10
881.544354481
 20
686.3396963021
 30
0.0
 11
881.544354481
 21
687.139680042
 31
0.0
  0
ARC
  5
1A1
330
1F
100
AcDbEntity
  8
0
  6
Continuous
 62
     7
370
    25
100
AcDbCircle
 10
881.544345898
 20
677.1396895787
 30
0.0
 40
10.0
100
AcDbArc
 50
0.0
 51
90.0
  0
LINE
  5
1A2
330
1F
100
AcDbEntity
  8
0
  6
Continuous
 62
     7
370
    25
100
AcDbLine
 10
890.7443314021
 20
677.1396895787
 30
0.0
 11
891.5443449443
 21
677.1396895787
 31
0.0
  0
ARC
  5
1A3
330
1F
100
AcDbEntity
  8
0
  6
Continuous
 62
     7
370
    25
100
AcDbCircle
 10
174.544345898
 20
677.1396895787
 30
0.0
 40
10.0
100
AcDbArc
 50
90.0
 51
180.0
  0
LINE
  5
1A4
330
1F
100
AcDbEntity
  8
0
  6
Continuous
 62
     7
370
    25
100
AcDbLine
 10
174.5443373149
 20
687.139680042
 30
0.0
 11
174.5443373149
 21
686.3396963021
 31
0.0
  0
LINE
  5
1A5
330
1F
100
AcDbEntity
  8
0
  6
Continuous
 62
     7
370
    25
100
AcDbLine
 10
174.5443373149
 20
687.139680042
 30
0.0
 11
881.544354481
 21
687.139680042
 31
0.0
  0
LINE
  5
1A6
330
1F
100
AcDbEntity
  8
0
  6
Continuous
 62
     7
370
    25
100
AcDbLine
 10
872.524830622
 20
205.9516956947
 30
0.0
 11
872.524830622
 21
648.3276834628
 31
0.0
  0
LINE
  5
1A7
330
1F
100
AcDbEntity
  8
0
  6
Continuous
 62
     7
370
    25
100
AcDbLine
 10
872.524830622
 20
648.3276834628
 30
0.0
 11
872.9632227843
 21
648.3276834628
 31
0.0
  0
LINE
  5
1A8
330
1F
100
AcDbEntity
  8
0
  6
Continuous
 62
     7
370
    25
100
AcDbLine
 10
872.524830622
 20
205.9516956947
 30
0.0
 11
872.9632227843
 21
205.9516956947
 31
0.0
  0
LINE
  5
1A9
330
1F
100
AcDbEntity
  8
0
  6
Continuous
 62
     7
370
    25
100
AcDbLine
 10
891.5443449443
 20
677.1396895787
 30
0.0
 11
891.5443449443
 21
177.1396895787
 31
0.0
  0
ARC
  5
1AA
330
1F
100
AcDbEntity
  8
0
  6
Continuous
 62
     7
370
    25
100
AcDbCircle
 10
852.732345898
 20
648.3276895787
 30
0.0
 40
19.79249704433664
100
AcDbArc
 50
0.0
 51
90.0
  0
LINE
  5
1AB
330
1F
100
AcDbEntity
  8
0
  6
Continuous
 62
     7
370
    25
100
AcDbLine
 10
852.732333464
 20
668.1201806209
 30
0.0
 11
852.732333464
 21
668.558557882
 31
0.0
  0
ARC
  5
1AC
330
1F
100
AcDbEntity
  8
0
  6
Continuous
 62
     7
370
    25
100
AcDbCircle
 10
203.356345898
 20
205.9516895787
 30
0.0
 40
19.7924970443365
100
AcDbArc
 50
180.0
 51
270.0
  0
ARC
  5
1AD
330
1F
100
AcDbEntity
  8
0
  6
Continuous
 62
     7
370
    25
100
AcDbCircle
 10
852.732345898
 20
205.9516895787
 30
0.0
 40
19.7924970443365
100
AcDbArc
 50
270.0
 51
0.0
  0
LINE
  5
1AE
330
1F
100
AcDbEntity
  8
0
  6
Continuous
 62
     7
370
    25
100
AcDbLine
 10
852.732333464
 20
668.1201806209
 30
0.0
 11
203.356358332
 21
668.1201806209
 31
0.0
  0
LINE
  5
1AF
330
1F
100
AcDbEntity
  8
0
  6
Continuous
 62
     7
370
    25
100
AcDbLine
 10
186.4293246692
 20
205.9516956947
 30
0.0
 11
186.4293246692
 21
648.3276834628
 31
0.0
  0
LINE
  5
1B0
330
1F
100
AcDbEntity
  8
0
  6
Continuous
 62
     7
370
    25
100
AcDbLine
 10
186.4293246692
 20
205.9516956947
 30
0.0
 11
183.5638611739
 21
205.9516956947
 31
0.0
  0
LINE
  5
1B1
330
1F
100
AcDbEntity
  8
0
  6
Continuous
 62
     7
370
    25
100
AcDbLine
 10
186.4293246692
 20
648.3276834628
 30
0.0
 11
183.5638611739
 21
648.3276834628
 31
0.0
  0
ARC
  5
1B2
330
1F
100
AcDbEntity
  8
0
  6
Continuous
 62
     7
370
    25
100
AcDbCircle
 10
203.356345898
 20
205.9516895787
 30
0.0
 40
16.92701680913663
100
AcDbArc
 50
180.0
 51
270.0
  0
LINE
  5
1B3
330
1F
100
AcDbEntity
  8
0
  6
Continuous
 62
     7
370
    25
100
AcDbLine
 10
203.356358332
 20
189.024676933
 30
0.0
 11
203.356358332
 21
186.1591985366
 31
0.0
  0
LINE
  5
1B4
330
1F
100
AcDbEntity
  8
0
  6
Continuous
 62
     7
370
    25
100
AcDbLine
 10
203.356358332
 20
665.2547022245
 30
0.0
 11
852.732333464
 21
665.2547022245
 31
0.0
  0
LINE
  5
1B5
330
1F
100
AcDbEntity
  8
0
  6
Continuous
 62
     7
370
    25
100
AcDbLine
 10
203.356358332
 20
665.2547022245
 30
0.0
 11
203.356358332
 21
668.1201806209
 31
0.0
  0
LINE
  5
1B6
330
1F
100
AcDbEntity
  8
0
  6
Continuous
 62
     7
370
    25
100
AcDbLine
 10
852.732333464
 20
665.2547022245
 30
0.0
 11
852.732333464
 21
668.1201806209
 31
0.0
  0
ARC
  5
1B7
330
1F
100
AcDbEntity
  8
0
  6
Continuous
 62
     7
370
    25
100
AcDbCircle
 10
203.356345898
 20
648.3276895787
 30
0.0
 40
16.92701680913672
100
AcDbArc
 50
90.0
 51
180.0
  0
LINE
  5
1B8
330
1F
100
AcDbEntity
  8
0
  6
Continuous
 62
     7
370
    25
100
AcDbLine
 10
852.732333464
 20
189.024676933
 30
0.0
 11
203.356358332
 21
189.024676933
 31
0.0
  0
LINE
  5
1B9
330
1F
100
AcDbEntity
  8
0
  6
Continuous
 62
     7
370
    25
100
AcDbLine
 10
852.732333464
 20
189.024676933
 30
0.0
 11
852.732333464
 21
186.1591985366
 31
0.0
  0
LINE
  5
1BA
330
1F
100
AcDbEntity
  8
0
  6
Continuous
 62
     7
370
    25
100
AcDbLine
 10
869.6593671268
 20
648.3276834628
 30
0.0
 11
869.6593671268
 21
205.9516956947
 31
0.0
  0
LINE
  5
1BB
330
1F
100
AcDbEntity
  8
0
  6
Continuous
 62
     7
370
    25
100
AcDbLine
 10
869.6593671268
 20
648.3276834628
 30
0.0
 11
872.524830622
 21
648.3276834628
 31
0.0
  0
LINE
  5
1BC
330
1F
100
AcDbEntity
  8
0
  6
Continuous
 62
     7
370
    25
100
AcDbLine
 10
869.6593671268
 20
205.9516956947
 30
0.0
 11
872.524830622
 21
205.9516956947
 31
0.0
  0
ARC
  5
1BD
330
1F
100
AcDbEntity
  8
0
  6
Continuous
 62
     7
370
    25
100
AcDbCircle
 10
852.732345898
 20
648.3276895787
 30
0.0
 40
16.92701680913672
100
AcDbArc
 50
0.0
 51
90.0
  0
ARC
  5
1BE
330
1F
100
AcDbEntity
  8
0
  6
Continuous
 62
     7
370
    25
100
AcDbCircle
 10
852.732345898
 20
205.9516895787
 30
0.0
 40
16.92701680913663
100
AcDbArc
 50
270.0
 51
0.0
  0
LINE
  5
1BF
330
1F
100
AcDbEntity
  8
0
  6
Continuous
 62
     7
370
    25
100
AcDbLine
 10
832.2210042899
 20
618.6396827838
 30
0.0
 11
859.2209845012
 21
617.149343147
 31
0.0
  0
LINE
  5
1C0
330
1F
100
AcDbEntity
  8
0
  6
Continuous
 62
     7
370
    25
100
AcDbLine
 10
859.2209845012
 20
617.149343147
 30
0.0
 11
859.2209845012
 21
617.1396871946
 31
0.0
  0
LINE
  5
1C1
330
1F
100
AcDbEntity
  8
0
  6
Continuous
 62
     7
370
    25
100
AcDbLine
 10
835.1609139865
 20
617.1396871946
 30
0.0
 11
859.2209845012
 21
617.1396871946
 31
0.0
  0
ELLIPSE
  5
1C2
330
1F
100
AcDbEntity
  8
0
  6
Continuous
 62
     7
370
    25
100
AcDbEllipse
 10
889.5109531911
 20
617.1396895787
 30
0.0
 11
57.28996139129617
 21
-0.3163144990814999
 31
0.0
210
0.0
220
0.0
230
1.0
 40
0.0165588239
 41
3.141684079661503
 42
3.463434634058065
  0
LINE
  5
1C3
330
1F
100
AcDbEntity
  8
0
  6
Continuous
 62
     7
370
    25
100
AcDbLine
 10
832.2210042899
 20
617.4559196374
 30
0.0
 11
832.2210042899
 21
618.6396827838
 31
0.0
  0
LINE
  5
1C4
330
1F
100
AcDbEntity
  8
0
  6
Continuous
 62
     7
370
    25
100
AcDbLine
 10
859.2209845012
 20
617.1396871946
 30
0.0
 11
859.2209845012
 21
617.1300312421
 31
0.0
  0
LINE
  5
1C5
330
1F
100
AcDbEntity
  8
0
  6
Continuous
 62
     7
370
    25
100
AcDbLine
 10
859.2209845012
 20
617.1300312421
 30
0.0
 11
831.9270043796
 21
615.6234642408
 31
0.0
  0
LINE
  5
1C6
330
1F
100
AcDbEntity
  8
0
  6
Continuous
 62
     7
370
    25
100
AcDbLine
 10
832.2210042899
 20
615.6550845048
 30
0.0
 11
831.9270043796
 21
615.6234642408
 31
0.0
  0
LINE
  5
1C7
330
1F
100
AcDbEntity
  8
0
  6
Continuous
 62
     7
370
    25
100
AcDbLine
 10
832.2210042899
 20
615.6550845048
 30
0.0
 11
832.2210042899
 21
616.8234547517
 31
0.0
  0
ELLIPSE
  5
1C8
330
1F
100
AcDbEntity
  8
0
  6
Continuous
 62
     7
370
    25
100
AcDbEllipse
 10
889.5109531911
 20
617.1396895787
 30
0.0
 11
57.28996139129696
 21
0.3163144990816135
 31
0.0
210
0.0
220
0.0
230
1.0
 40
0.0165588239
 41
2.81975067312218
 42
3.14150122751882
  0
LINE
  5
1C9
330
1F
100
AcDbEntity
  8
0
  6
Continuous
 62
     7
370
    25
100
AcDbLine
 10
831.9270043796
 20
238.6559149167
 30
0.0
 11
832.2210042899
 21
238.6242946527
 31
0.0
  0
LINE
  5
1CA
330
1F
100
AcDbEntity
  8
0
  6
Continuous
 62
     7
370
    25
100
AcDbLine
 10
831.9270043796
 20
238.6559149167
 30
0.0
 11
859.2209845012
 21
237.1493479154
 31
0.0
  0
LINE
  5
1CB
330
1F
100
AcDbEntity
  8
0
  6
Continuous
 62
     7
370
    25
100
AcDbLine
 10
859.2209845012
 20
237.1493479154
 30
0.0
 11
859.2209845012
 21
237.1396919629
 31
0.0
  0
LINE
  5
1CC
330
1F
100
AcDbEntity
  8
0
  6
Continuous
 62
     7
370
    25
100
AcDbLine
 10
859.2209845012
 20
237.1396919629
 30
0.0
 11
835.1609139865
 21
237.1396919629
 31
0.0
  0
ELLIPSE
  5
1CD
330
1F
100
AcDbEntity
  8
0
  6
Continuous
 62
     7
370
    25
100
AcDbEllipse
 10
889.5109531911
 20
237.1396895787
 30
0.0
 11
57.28996139129696
 21
-0.3163144990816704
 31
0.0
210
0.0
220
0.0
230
1.0
 40
0.0165588239
 41
3.141684079661664
 42
3.463434634058181
  0
LINE
  5
1CE
330
1F
100
AcDbEntity
  8
0
  6
Continuous
 62
     7
370
    25
100
AcDbLine
 10
832.2210042899
 20
237.4559244058
 30
0.0
 11
832.2210042899
 21
238.6242946527
 31
0.0
  0
LINE
  5
1CF
330
1F
100
AcDbEntity
  8
0
  6
Continuous
 62
     7
370
    25
100
AcDbLine
 10
859.2209845012
 20
237.1396919629
 30
0.0
 11
859.2209845012
 21
237.1300360105
 31
0.0
  0
LINE
  5
1D0
330
1F
100
AcDbEntity
  8
0
  6
Continuous
 62
     7
370
    25
100
AcDbLine
 10
859.2209845012
 20
237.1300360105
 30
0.0
 11
832.2210042899
 21
235.6396963737
 31
0.0
  0
LINE
  5
1D1
330
1F
100
AcDbEntity
  8
0
  6
Continuous
 62
     7
370
    25
100
AcDbLine
 10
832.2210042899
 20
235.6396963737
 30
0.0
 11
832.2210042899
 21
236.8234595201
 31
0.0
  0
ELLIPSE
  5
1D2
330
1F
100
AcDbEntity
  8
0
  6
Continuous
 62
     7
370
    25
100
AcDbEllipse
 10
889.5109531911
 20
237.1396895787
 30
0.0
 11
57.28996139129628
 21
0.3163144990816136
 31
0.0
210
0.0
220
0.0
230
1.0
 40
0.0165588239
 41
2.819750673122144
 42
3.14150122751882
  0
LINE
  5
1D3
330
1F
100
AcDbEntity
  8
0
  6
Continuous
 62
     7
370
    25
100
AcDbLine
 10
600.1443444913
 20
237.1396919629
 30
0.0
 11
600.1443444913
 21
237.1493479154
 31
0.0
  0
LINE
  5
1D4
330
1F
100
AcDbEntity
  8
0
  6
Continuous
 62
     7
370
    25
100
AcDbLine
 10
600.1443444913
 20
237.1493479154
 30
0.0
 11
627.4383395141
 21
238.6559149167
 31
0.0
  0
LINE
  5
1D5
330
1F
100
AcDbEntity
  8
0
  6
Continuous
 62
     7
370
    25
100
AcDbLine
 10
627.1443470543
 20
238.6242946527
 30
0.0
 11
627.4383395141
 21
238.6559149167
 31
0.0
  0
LINE
  5
1D6
330
1F
100
AcDbEntity
  8
0
  6
Continuous
 62
     7
370
    25
100
AcDbLine
 10
627.1443470543
 20
238.6242946527
 30
0.0
 11
627.1443470543
 21
237.4559244058
 31
0.0
  0
ELLIPSE
  5
1D7
330
1F
100
AcDbEntity
  8
0
  6
Continuous
 62
     7
370
    25
100
AcDbEllipse
 10
569.8543842672
 20
237.1396895787
 30
0.0
 11
57.28996139129789
 21
0.316314499081642
 31
0.0
210
0.0
220
0.0
230
1.0
 40
0.0165588239
 41
5.961343326712727
 42
6.283093881109436
  0
LINE
  5
1D8
330
1F
100
AcDbEntity
  8
0
  6
Continuous
 62
     7
370
    25
100
AcDbLine
 10
600.1443444913
 20
237.1396919629
 30
0.0
 11
624.204415006
 21
237.1396919629
 31
0.0
  0
LINE
  5
1D9
330
1F
100
AcDbEntity
  8
0
  6
Continuous
 62
     7
370
    25
100
AcDbLine
 10
627.1443470543
 20
235.6396963737
 30
0.0
 11
600.1443444913
 21
237.1300360105
 31
0.0
  0
LINE
  5
1DA
330
1F
100
AcDbEntity
  8
0
  6
Continuous
 62
     7
370
    25
100
AcDbLine
 10
600.1443444913
 20
237.1300360105
 30
0.0
 11
600.1443444913
 21
237.1396919629
 31
0.0
  0
ELLIPSE
  5
1DB
330
1F
100
AcDbEntity
  8
0
  6
Continuous
 62
     7
370
    25
100
AcDbEllipse
 10
569.8543842672
 20
237.1396895787
 30
0.0
 11
57.28996139129594
 21
-0.316314499081642
 31
0.0
210
0.0
220
0.0
230
1.0
 40
0.0165588239
 41
0.0000914260710066
 42
0.3218419804676297
  0
LINE
  5
1DC
330
1F
100
AcDbEntity
  8
0
  6
Continuous
 62
     7
370
    25
100
AcDbLine
 10
627.1443470543
 20
236.8234595201
 30
0.0
 11
627.1443470543
 21
235.6396963737
 31
0.0
  0
LINE
  5
1DD
330
1F
100
AcDbEntity
  8
0
  6
Continuous
 62
     7
370
    25
100
AcDbLine
 10
627.1443470543
 20
237.4559244058
 30
0.0
 11
832.2210042899
 21
237.4559244058
 31
0.0
  0
LINE
  5
1DE
330
1F
100
AcDbEntity
  8
0
  6
Continuous
 62
     7
370
    25
100
AcDbLine
 10
832.2210042899
 20
236.8234595201
 30
0.0
 11
627.1443470543
 21
236.8234595201
 31
0.0
  0
ELLIPSE
  5
1DF
330
1F
100
AcDbEntity
  8
0
  6
Continuous
 62
     7
370
    25
100
AcDbEllipse
 10
569.8543842672
 20
617.1396895787
 30
0.0
 11
57.28996139129594
 21
0.3163144990816136
 31
0.0
210
0.0
220
0.0
230
1.0
 40
0.0165588239
 41
5.961343326712756
 42
6.283093881109598
  0
LINE
  5
1E0
330
1F
100
AcDbEntity
  8
0
  6
Continuous
 62
     7
370
    25
100
AcDbLine
 10
627.1443470543
 20
617.4559196374
 30
0.0
 11
832.2210042899
 21
617.4559196374
 31
0.0
  0
LINE
  5
1E1
330
1F
100
AcDbEntity
  8
0
  6
Continuous
 62
     7
370
    25
100
AcDbLine
 10
832.2210042899
 20
616.8234547517
 30
0.0
 11
627.1443470543
 21
616.8234547517
 31
0.0
  0
ELLIPSE
  5
1E2
330
1F
100
AcDbEntity
  8
0
  6
Continuous
 62
     7
370
    25
100
AcDbEllipse
 10
569.8543842672
 20
617.1396895787
 30
0.0
 11
57.28996139129777
 21
-0.3163144990814999
 31
0.0
210
0.0
220
0.0
230
1.0
 40
0.0165588239
 41
0.0000914260708575
 42
0.3218419804674771
  0
LINE
  5
1E3
330
1F
100
AcDbEntity
  8
0
  6
Continuous
 62
     7
370
    25
100
AcDbLine
 10
627.4383395141
 20
615.6234642408
 30
0.0
 11
627.1443470543
 21
615.6550845048
 31
0.0
  0
LINE
  5
1E4
330
1F
100
AcDbEntity
  8
0
  6
Continuous
 62
     7
370
    25
100
AcDbLine
 10
627.4383395141
 20
615.6234642408
 30
0.0
 11
600.1443444913
 21
617.1300312421
 31
0.0
  0
LINE
  5
1E5
330
1F
100
AcDbEntity
  8
0
  6
Continuous
 62
     7
370
    25
100
AcDbLine
 10
600.1443444913
 20
617.1300312421
 30
0.0
 11
600.1443444913
 21
617.1396871946
 31
0.0
  0
LINE
  5
1E6
330
1F
100
AcDbEntity
  8
0
  6
Continuous
 62
     7
370
    25
100
AcDbLine
 10
624.204415006
 20
617.1396871946
 30
0.0
 11
600.1443444913
 21
617.1396871946
 31
0.0
  0
LINE
  5
1E7
330
1F
100
AcDbEntity
  8
0
  6
Continuous
 62
     7
370
    25
100
AcDbLine
 10
627.1443470543
 20
616.8234547517
 30
0.0
 11
627.1443470543
 21
615.6550845048
 31
0.0
  0
LINE
  5
1E8
330
1F
100
AcDbEntity
  8
0
  6
Continuous
 62
     7
370
    25
100
AcDbLine
 10
600.1443444913
 20
617.1396871946
 30
0.0
 11
600.1443444913
 21
617.149343147
 31
0.0
  0
LINE
  5
1E9
330
1F
100
AcDbEntity
  8
0
  6
Continuous
 62
     7
370
    25
100
AcDbLine
 10
600.1443444913
 20
617.149343147
 30
0.0
 11
627.1443470543
 21
618.6396827838
 31
0.0
  0
LINE
  5
1EA
330
1F
100
AcDbEntity
  8
0
  6
Continuous
 62
     7
370
    25
100
AcDbLine
 10
627.1443470543
 20
618.6396827838
 30
0.0
 11
627.1443470543
 21
617.4559196374
 31
0.0
  0
LINE
  5
1EB
330
1F
100
AcDbEntity
  8
0
  6
Continuous
 62
     7
370
    25
100
AcDbLine
 10
832.2210042899
 20
238.6242946527
 30
0.0
 11
627.1443470543
 21
238.6242946527
 31
0.0
  0
LINE
  5
1EC
330
1F
100
AcDbEntity
  8
0
  6
Continuous
 62
     7
370
    25
100
AcDbLine
 10
627.1443470543
 20
235.6396963737
 30
0.0
 11
832.2210042899
 21
235.6396963737
 31
0.0
  0
LINE
  5
1ED
330
1F
100
AcDbEntity
  8
0
  6
Continuous
 62
     7
370
    25
100
AcDbLine
 10
627.1443470543
 20
618.6396827838
 30
0.0
 11
832.2210042899
 21
618.6396827838
 31
0.0
  0
LINE
  5
1EE
330
1F
100
AcDbEntity
  8
0
  6
Continuous
 62
     7
370
    25
100
AcDbLine
 10
627.1443470543
 20
615.6550845048
 30
0.0
 11
832.2210042899
 21
615.6550845048
 31
0.0
  0
LINE
  5
1EF
330
1F
100
AcDbEntity
  8
0
  6
Continuous
 62
     7
370
    25
100
AcDbLine
 10
836.4035516208
 20
428.6728138254
 30
0.0
 11
835.9035282558
 21
428.6728138254
 31
0.0
  0
LINE
  5
1F0
330
1F
100
AcDbEntity
  8
0
  6
Continuous
 62
     7
370
    25
100
AcDbLine
 10
835.9035282558
 20
428.6728138254
 30
0.0
 11
835.8035414642
 21
428.7728137719
 31
0.0
  0
LINE
  5
1F1
330
1F
100
AcDbEntity
  8
0
  6
Continuous
 62
     7
370
    25
100
AcDbLine
 10
835.8035414642
 20
428.7728137719
 30
0.0
 11
836.5035384124
 21
428.7728137719
 31
0.0
  0
LINE
  5
1F2
330
1F
100
AcDbEntity
  8
0
  6
Continuous
 62
     7
370
    25
100
AcDbLine
 10
836.4035516208
 20
428.6728138254
 30
0.0
 11
836.5035384124
 21
428.7728137719
 31
0.0
  0
LINE
  5
1F3
330
1F
100
AcDbEntity
  8
0
  6
Continuous
 62
     7
370
    25
100
AcDbLine
 10
833.6321740573
 20
430.9796894817
 30
0.0
 11
833.6321740573
 21
423.2996896758
 31
0.0
  0
LINE
  5
1F4
330
1F
100
AcDbEntity
  8
0
  6
Continuous
 62
     7
370
    25
100
AcDbLine
 10
833.5321872657
 20
423.19968938
 30
0.0
 11
833.6321740573
 21
423.2996896758
 31
0.0
  0
LINE
  5
1F5
330
1F
100
AcDbEntity
  8
0
  6
Continuous
 62
     7
370
    25
100
AcDbLine
 10
833.5321872657
 20
423.19968938
 30
0.0
 11
833.5321872657
 21
431.0796897775
 31
0.0
  0
LINE
  5
1F6
330
1F
100
AcDbEntity
  8
0
  6
Continuous
 62
     7
370
    25
100
AcDbLine
 10
833.6321740573
 20
430.9796894817
 30
0.0
 11
833.5321872657
 21
431.0796897775
 31
0.0
  0
LINE
  5
1F7
330
1F
100
AcDbEntity
  8
0
  6
Continuous
 62
     7
370
    25
100
AcDbLine
 10
839.2729788249
 20
439.3596894956
 30
0.0
 11
839.2729788249
 21
435.3102654136
 31
0.0
  0
LINE
  5
1F8
330
1F
100
AcDbEntity
  8
0
  6
Continuous
 62
     7
370
    25
100
AcDbLine
 10
839.2729788249
 20
435.3102654136
 30
0.0
 11
839.1729920333
 21
435.4102652437
 31
0.0
  0
LINE
  5
1F9
330
1F
100
AcDbEntity
  8
0
  6
Continuous
 62
     7
370
    25
100
AcDbLine
 10
839.1729920333
 20
435.4102652437
 30
0.0
 11
839.1729920333
 21
439.4596893257
 31
0.0
  0
LINE
  5
1FA
330
1F
100
AcDbEntity
  8
0
  6
Continuous
 62
     7
370
    25
100
AcDbLine
 10
839.2729788249
 20
439.3596894956
 30
0.0
 11
839.1729920333
 21
439.4596893257
 31
0.0
  0
LINE
  5
1FB
330
1F
100
AcDbEntity
  8
0
  6
Continuous
 62
     7
370
    25
100
AcDbLine
 10
839.2729788249
 20
435.3102654136
 30
0.0
 11
833.6321740573
 21
435.3102654136
 31
0.0
  0
LINE
  5
1FC
330
1F
100
AcDbEntity
  8
0
  6
Continuous
 62
     7
370
    25
100
AcDbLine
 10
833.6321740573
 20
435.3102654136
 30
0.0
 11
833.5321872657
 21
435.4102652437
 31
0.0
  0
LINE
  5
1FD
330
1F
100
AcDbEntity
  8
0
  6
Continuous
 62
     7
370
    25
100
AcDbLine
 10
833.5321872657
 20
435.4102652437
 30
0.0
 11
839.1729920333
 21
435.4102652437
 31
0.0
  0
LINE
  5
1FE
330
1F
100
AcDbEntity
  8
0
  6
Continuous
 62
     7
370
    25
100
AcDbLine
 10
841.5443330234
 20
439.4596893257
 30
0.0
 11
841.5443330234
 21
431.5796893938
 31
0.0
  0
LINE
  5
1FF
330
1F
100
AcDbEntity
  8
0
  6
Continuous
 62
     7
370
    25
100
AcDbLine
 10
841.5443330234
 20
431.5796893938
 30
0.0
 11
841.4443462318
 21
431.6796896896
 31
0.0
  0
LINE
  5
200
330
1F
100
AcDbEntity
  8
0
  6
Continuous
 62
     7
370
    25
100
AcDbLine
 10
841.4443462318
 20
431.6796896896
 30
0.0
 11
841.4443462318
 21
439.3596894956
 31
0.0
  0
LINE
  5
201
330
1F
100
AcDbEntity
  8
0
  6
Continuous
 62
     7
370
    25
100
AcDbLine
 10
841.5443330234
 20
439.4596893257
 30
0.0
 11
841.4443462318
 21
439.3596894956
 31
0.0
  0
LINE
  5
202
330
1F
100
AcDbEntity
  8
0
  6
Continuous
 62
     7
370
    25
100
AcDbLine
 10
836.4035516208
 20
445.2498754403
 30
0.0
 11
835.9035282558
 21
445.2498754403
 31
0.0
  0
LINE
  5
203
330
1F
100
AcDbEntity
  8
0
  6
Continuous
 62
     7
370
    25
100
AcDbLine
 10
835.9035282558
 20
445.2498754403
 30
0.0
 11
835.8035414642
 21
445.3498752705
 31
0.0
  0
LINE
  5
204
330
1F
100
AcDbEntity
  8
0
  6
Continuous
 62
     7
370
    25
100
AcDbLine
 10
835.8035414642
 20
445.3498752705
 30
0.0
 11
836.5035384124
 21
445.3498752705
 31
0.0
  0
LINE
  5
205
330
1F
100
AcDbEntity
  8
0
  6
Continuous
 62
     7
370
    25
100
AcDbLine
 10
836.4035516208
 20
445.2498754403
 30
0.0
 11
836.5035384124
 21
445.3498752705
 31
0.0
  0
LINE
  5
206
330
1F
100
AcDbEntity
  8
0
  6
Continuous
 62
     7
370
    25
100
AcDbLine
 10
836.5035384124
 20
414.2222613013
 30
0.0
 11
836.5035384124
 21
408.9182218454
 31
0.0
  0
LINE
  5
207
330
1F
100
AcDbEntity
  8
0
  6
Continuous
 62
     7
370
    25
100
AcDbLine
 10
836.5035384124
 20
408.9182218454
 30
0.0
 11
836.4035516208
 21
409.0182216755
 31
0.0
  0
LINE
  5
208
330
1F
100
AcDbEntity
  8
0
  6
Continuous
 62
     7
370
    25
100
AcDbLine
 10
836.4035516208
 20
409.0182216755
 30
0.0
 11
836.4035516208
 21
414.3222611314
 31
0.0
  0
LINE
  5
209
330
1F
100
AcDbEntity
  8
0
  6
Continuous
 62
     7
370
    25
100
AcDbLine
 10
836.5035384124
 20
414.2222613013
 30
0.0
 11
836.4035516208
 21
414.3222611314
 31
0.0
  0
LINE
  5
20A
330
1F
100
AcDbEntity
  8
0
  6
Continuous
 62
     7
370
    25
100
AcDbLine
 10
835.8035414642
 20
422.5996894679
 30
0.0
 11
833.6321740573
 21
422.5996894679
 31
0.0
  0
LINE
  5
20B
330
1F
100
AcDbEntity
  8
0
  6
Continuous
 62
     7
370
    25
100
AcDbLine
 10
833.5321872657
 20
422.6996897637
 30
0.0
 11
833.6321740573
 21
422.5996894679
 31
0.0
  0
LINE
  5
20C
330
1F
100
AcDbEntity
  8
0
  6
Continuous
 62
     7
370
    25
100
AcDbLine
 10
833.5321872657
 20
422.6996897637
 30
0.0
 11
835.9035282558
 21
422.6996897637
 31
0.0
  0
LINE
  5
20D
330
1F
100
AcDbEntity
  8
0
  6
Continuous
 62
     7
370
    25
100
AcDbLine
 10
835.8035414642
 20
422.5996894679
 30
0.0
 11
835.9035282558
 21
422.6996897637
 31
0.0
  0
LINE
  5
20E
330
1F
100
AcDbEntity
  8
0
  6
Continuous
 62
     7
370
    25
100
AcDbLine
 10
835.8035414642
 20
408.9182218454
 30
0.0
 11
835.8035414642
 21
414.2196899197
 31
0.0
  0
LINE
  5
20F
330
1F
100
AcDbEntity
  8
0
  6
Continuous
 62
     7
370
    25
100
AcDbLine
 10
836.5035384124
 20
408.9182218454
 30
0.0
 11
835.8035414642
 21
408.9182218454
 31
0.0
  0
LINE
  5
210
330
1F
100
AcDbEntity
  8
0
  6
Continuous
 62
     7
370
    25
100
AcDbLine
 10
841.4321868842
 20
414.2222613013
 30
0.0
 11
836.5035384124
 21
414.2222613013
 31
0.0
  0
LINE
  5
211
330
1F
100
AcDbEntity
  8
0
  6
Continuous
 62
     7
370
    25
100
AcDbLine
 10
841.4321868842
 20
407.4396895162
 30
0.0
 11
841.4321868842
 21
414.2222613013
 31
0.0
  0
ARC
  5
212
330
1F
100
AcDbEntity
  8
0
  6
Continuous
 62
     7
370
    25
100
AcDbCircle
 10
840.532178088
 20
407.4396895787
 30
0.0
 40
0.900000000000091
100
AcDbArc
 50
270.0
 51
0.0
  0
LINE
  5
213
330
1F
100
AcDbEntity
  8
0
  6
Continuous
 62
     7
370
    25
100
AcDbLine
 10
839.2729788249
 20
406.5396891824
 30
0.0
 11
840.5321865504
 21
406.5396891824
 31
0.0
  0
LINE
  5
214
330
1F
100
AcDbEntity
  8
0
  6
Continuous
 62
     7
370
    25
100
AcDbLine
 10
839.2729788249
 20
412.0703529483
 30
0.0
 11
839.2729788249
 21
406.5396891824
 31
0.0
  0
LINE
  5
215
330
1F
100
AcDbEntity
  8
0
  6
Continuous
 62
     7
370
    25
100
AcDbLine
 10
838.5729818767
 20
412.0703529483
 30
0.0
 11
839.2729788249
 21
412.0703529483
 31
0.0
  0
LINE
  5
216
330
1F
100
AcDbEntity
  8
0
  6
Continuous
 62
     7
370
    25
100
AcDbLine
 10
838.5729818767
 20
406.5396891824
 30
0.0
 11
838.5729818767
 21
412.0703529483
 31
0.0
  0
LINE
  5
217
330
1F
100
AcDbEntity
  8
0
  6
Continuous
 62
     7
370
    25
100
AcDbLine
 10
834.5321743911
 20
406.5396891824
 30
0.0
 11
838.5729818767
 21
406.5396891824
 31
0.0
  0
ARC
  5
218
330
1F
100
AcDbEntity
  8
0
  6
Continuous
 62
     7
370
    25
100
AcDbCircle
 10
834.532178088
 20
407.4396895787
 30
0.0
 40
0.9000000000000341
100
AcDbArc
 50
180.0
 51
270.0
  0
LINE
  5
219
330
1F
100
AcDbEntity
  8
0
  6
Continuous
 62
     7
370
    25
100
AcDbLine
 10
833.6321740573
 20
414.2196899197
 30
0.0
 11
833.6321740573
 21
407.4396895162
 31
0.0
  0
LINE
  5
21A
330
1F
100
AcDbEntity
  8
0
  6
Continuous
 62
     7
370
    25
100
AcDbLine
 10
835.8035414642
 20
414.2196899197
 30
0.0
 11
833.6321740573
 21
414.2196899197
 31
0.0
  0
LINE
  5
21B
330
1F
100
AcDbEntity
  8
0
  6
Continuous
 62
     7
370
    25
100
AcDbLine
 10
841.4443462318
 20
439.3596894956
 30
0.0
 11
839.2729788249
 21
439.3596894956
 31
0.0
  0
LINE
  5
21C
330
1F
100
AcDbEntity
  8
0
  6
Continuous
 62
     7
370
    25
100
AcDbLine
 10
839.1729920333
 20
439.4596893257
 30
0.0
 11
841.5443330234
 21
439.4596893257
 31
0.0
  0
ARC
  5
21D
330
1F
100
AcDbEntity
  8
0
  6
Continuous
 62
     7
370
    25
100
AcDbCircle
 10
834.532178088
 20
407.4396895787
 30
0.0
 40
1.0
100
AcDbArc
 50
180.0
 51
270.0
  0
LINE
  5
21E
330
1F
100
AcDbEntity
  8
0
  6
Continuous
 62
     7
370
    25
100
AcDbLine
 10
833.5321872657
 20
407.4396895162
 30
0.0
 11
833.6321740573
 21
407.4396895162
 31
0.0
  0
LINE
  5
21F
330
1F
100
AcDbEntity
  8
0
  6
Continuous
 62
     7
370
    25
100
AcDbLine
 10
834.5321743911
 20
406.4396893522
 30
0.0
 11
834.5321743911
 21
406.5396891824
 31
0.0
  0
LINE
  5
220
330
1F
100
AcDbEntity
  8
0
  6
Continuous
 62
     7
370
    25
100
AcDbLine
 10
838.6729686683
 20
425.5492021479
 30
0.0
 11
839.1729920333
 21
425.5492021479
 31
0.0
  0
LINE
  5
221
330
1F
100
AcDbEntity
  8
0
  6
Continuous
 62
     7
370
    25
100
AcDbLine
 10
839.1729920333
 20
425.5492021479
 30
0.0
 11
839.2729788249
 21
425.4492022014
 31
0.0
  0
LINE
  5
222
330
1F
100
AcDbEntity
  8
0
  6
Continuous
 62
     7
370
    25
100
AcDbLine
 10
839.2729788249
 20
425.4492022014
 30
0.0
 11
838.5729818767
 21
425.4492022014
 31
0.0
  0
LINE
  5
223
330
1F
100
AcDbEntity
  8
0
  6
Continuous
 62
     7
370
    25
100
AcDbLine
 10
838.6729686683
 20
425.5492021479
 30
0.0
 11
838.5729818767
 21
425.4492022014
 31
0.0
  0
LINE
  5
224
330
1F
100
AcDbEntity
  8
0
  6
Continuous
 62
     7
370
    25
100
AcDbLine
 10
833.6321740573
 20
446.8396896413
 30
0.0
 11
833.6321740573
 21
440.0596892378
 31
0.0
  0
ARC
  5
225
330
1F
100
AcDbEntity
  8
0
  6
Continuous
 62
     7
370
    25
100
AcDbCircle
 10
834.532178088
 20
446.8396895787
 30
0.0
 40
0.8999999999999773
100
AcDbArc
 50
90.0
 51
180.0
  0
LINE
  5
226
330
1F
100
AcDbEntity
  8
0
  6
Continuous
 62
     7
370
    25
100
AcDbLine
 10
840.544345898
 20
447.7396899751
 30
0.0
 11
834.5321743911
 21
447.7396899751
 31
0.0
  0
ARC
  5
227
330
1F
100
AcDbEntity
  8
0
  6
Continuous
 62
     7
370
    25
100
AcDbCircle
 10
840.544345898
 20
446.8396895787
 30
0.0
 40
0.8999999999999773
100
AcDbArc
 50
0.0
 51
90.0
  0
LINE
  5
228
330
1F
100
AcDbEntity
  8
0
  6
Continuous
 62
     7
370
    25
100
AcDbLine
 10
841.4443462318
 20
440.0596892378
 30
0.0
 11
841.4443462318
 21
446.8396896413
 31
0.0
  0
LINE
  5
229
330
1F
100
AcDbEntity
  8
0
  6
Continuous
 62
     7
370
    25
100
AcDbLine
 10
836.5035384124
 20
440.0596892378
 30
0.0
 11
841.4443462318
 21
440.0596892378
 31
0.0
  0
LINE
  5
22A
330
1F
100
AcDbEntity
  8
0
  6
Continuous
 62
     7
370
    25
100
AcDbLine
 10
836.5035384124
 20
445.3498752705
 30
0.0
 11
836.5035384124
 21
440.0596892378
 31
0.0
  0
LINE
  5
22B
330
1F
100
AcDbEntity
  8
0
  6
Continuous
 62
     7
370
    25
100
AcDbLine
 10
835.8035414642
 20
440.0596892378
 30
0.0
 11
835.8035414642
 21
445.3498752705
 31
0.0
  0
LINE
  5
22C
330
1F
100
AcDbEntity
  8
0
  6
Continuous
 62
     7
370
    25
100
AcDbLine
 10
833.6321740573
 20
440.0596892378
 30
0.0
 11
835.8035414642
 21
440.0596892378
 31
0.0
  0
LINE
  5
22D
330
1F
100
AcDbEntity
  8
0
  6
Continuous
 62
     7
370
    25
100
AcDbLine
 10
839.2729788249
 20
441.9158570385
 30
0.0
 11
838.5729818767
 21
441.9158570385
 31
0.0
  0
LINE
  5
22E
330
1F
100
AcDbEntity
  8
0
  6
Continuous
 62
     7
370
    25
100
AcDbLine
 10
839.2729788249
 20
445.3498752705
 30
0.0
 11
839.2729788249
 21
441.9158570385
 31
0.0
  0
LINE
  5
22F
330
1F
100
AcDbEntity
  8
0
  6
Continuous
 62
     7
370
    25
100
AcDbLine
 10
838.5729818767
 20
445.3498752705
 30
0.0
 11
839.2729788249
 21
445.3498752705
 31
0.0
  0
LINE
  5
230
330
1F
100
AcDbEntity
  8
0
  6
Continuous
 62
     7
370
    25
100
AcDbLine
 10
838.5729818767
 20
441.9158570385
 30
0.0
 11
838.5729818767
 21
445.3498752705
 31
0.0
  0
LINE
  5
231
330
1F
100
AcDbEntity
  8
0
  6
Continuous
 62
     7
370
    25
100
AcDbLine
 10
836.4035516208
 20
414.3222611314
 30
0.0
 11
841.5321736758
 21
414.3222611314
 31
0.0
  0
LINE
  5
232
330
1F
100
AcDbEntity
  8
0
  6
Continuous
 62
     7
370
    25
100
AcDbLine
 10
841.4321868842
 20
414.2222613013
 30
0.0
 11
841.5321736758
 21
414.3222611314
 31
0.0
  0
LINE
  5
233
330
1F
100
AcDbEntity
  8
0
  6
Continuous
 62
     7
370
    25
100
AcDbLine
 10
833.6321740573
 20
446.8396896413
 30
0.0
 11
833.5321872657
 21
446.8396896413
 31
0.0
  0
ARC
  5
234
330
1F
100
AcDbEntity
  8
0
  6
Continuous
 62
     7
370
    25
100
AcDbCircle
 10
834.532178088
 20
446.8396895787
 30
0.0
 40
0.9999999999999432
100
AcDbArc
 50
90.0
 51
180.0
  0
LINE
  5
235
330
1F
100
AcDbEntity
  8
0
  6
Continuous
 62
     7
370
    25
100
AcDbLine
 10
834.5321743911
 20
447.7396899751
 30
0.0
 11
834.5321743911
 21
447.8396898052
 31
0.0
  0
LINE
  5
236
330
1F
100
AcDbEntity
  8
0
  6
Continuous
 62
     7
370
    25
100
AcDbLine
 10
839.1729920333
 20
411.9703531182
 30
0.0
 11
838.6729686683
 21
411.9703531182
 31
0.0
  0
LINE
  5
237
330
1F
100
AcDbEntity
  8
0
  6
Continuous
 62
     7
370
    25
100
AcDbLine
 10
838.6729686683
 20
411.9703531182
 30
0.0
 11
838.5729818767
 21
412.0703529483
 31
0.0
  0
LINE
  5
238
330
1F
100
AcDbEntity
  8
0
  6
Continuous
 62
     7
370
    25
100
AcDbLine
 10
839.1729920333
 20
411.9703531182
 30
0.0
 11
839.2729788249
 21
412.0703529483
 31
0.0
  0
LINE
  5
239
330
1F
100
AcDbEntity
  8
0
  6
Continuous
 62
     7
370
    25
100
AcDbLine
 10
835.8035414642
 20
408.9182218454
 30
0.0
 11
835.9035282558
 21
409.0182216755
 31
0.0
  0
LINE
  5
23A
330
1F
100
AcDbEntity
  8
0
  6
Continuous
 62
     7
370
    25
100
AcDbLine
 10
835.9035282558
 20
409.0182216755
 30
0.0
 11
836.4035516208
 21
409.0182216755
 31
0.0
  0
LINE
  5
23B
330
1F
100
AcDbEntity
  8
0
  6
Continuous
 62
     7
370
    25
100
AcDbLine
 10
835.9035282558
 20
445.2498754403
 30
0.0
 11
835.9035282558
 21
439.9596894077
 31
0.0
  0
LINE
  5
23C
330
1F
100
AcDbEntity
  8
0
  6
Continuous
 62
     7
370
    25
100
AcDbLine
 10
835.8035414642
 20
440.0596892378
 30
0.0
 11
835.9035282558
 21
439.9596894077
 31
0.0
  0
LINE
  5
23D
330
1F
100
AcDbEntity
  8
0
  6
Continuous
 62
     7
370
    25
100
AcDbLine
 10
841.4321868842
 20
407.4396895162
 30
0.0
 11
841.5321736758
 21
407.4396895162
 31
0.0
  0
ARC
  5
23E
330
1F
100
AcDbEntity
  8
0
  6
Continuous
 62
     7
370
    25
100
AcDbCircle
 10
840.532178088
 20
407.4396895787
 30
0.0
 40
1.000000000000114
100
AcDbArc
 50
270.0
 51
0.0
  0
LINE
  5
23F
330
1F
100
AcDbEntity
  8
0
  6
Continuous
 62
     7
370
    25
100
AcDbLine
 10
840.5321865504
 20
406.4396893522
 30
0.0
 11
840.5321865504
 21
406.5396891824
 31
0.0
  0
LINE
  5
240
330
1F
100
AcDbEntity
  8
0
  6
Continuous
 62
     7
370
    25
100
AcDbLine
 10
841.4443462318
 20
430.9796894817
 30
0.0
 11
833.6321740573
 21
430.9796894817
 31
0.0
  0
LINE
  5
241
330
1F
100
AcDbEntity
  8
0
  6
Continuous
 62
     7
370
    25
100
AcDbLine
 10
833.5321872657
 20
431.0796897775
 30
0.0
 11
841.5443330234
 21
431.0796897775
 31
0.0
  0
LINE
  5
242
330
1F
100
AcDbEntity
  8
0
  6
Continuous
 62
     7
370
    25
100
AcDbLine
 10
841.4443462318
 20
430.9796894817
 30
0.0
 11
841.5443330234
 21
431.0796897775
 31
0.0
  0
LINE
  5
243
330
1F
100
AcDbEntity
  8
0
  6
Continuous
 62
     7
370
    25
100
AcDbLine
 10
833.6321740573
 20
414.2196899197
 30
0.0
 11
833.5321872657
 21
414.3196897498
 31
0.0
  0
LINE
  5
244
330
1F
100
AcDbEntity
  8
0
  6
Continuous
 62
     7
370
    25
100
AcDbLine
 10
833.5321872657
 20
414.3196897498
 30
0.0
 11
835.9035282558
 21
414.3196897498
 31
0.0
  0
LINE
  5
245
330
1F
100
AcDbEntity
  8
0
  6
Continuous
 62
     7
370
    25
100
AcDbLine
 10
835.8035414642
 20
414.2196899197
 30
0.0
 11
835.9035282558
 21
414.3196897498
 31
0.0
  0
LINE
  5
246
330
1F
100
AcDbEntity
  8
0
  6
Continuous
 62
     7
370
    25
100
AcDbLine
 10
835.9035282558
 20
428.6728138254
 30
0.0
 11
835.9035282558
 21
423.19968938
 31
0.0
  0
LINE
  5
247
330
1F
100
AcDbEntity
  8
0
  6
Continuous
 62
     7
370
    25
100
AcDbLine
 10
835.9035282558
 20
423.19968938
 30
0.0
 11
835.8035414642
 21
423.2996896758
 31
0.0
  0
LINE
  5
248
330
1F
100
AcDbEntity
  8
0
  6
Continuous
 62
     7
370
    25
100
AcDbLine
 10
835.8035414642
 20
423.2996896758
 30
0.0
 11
835.8035414642
 21
428.7728137719
 31
0.0
  0
LINE
  5
249
330
1F
100
AcDbEntity
  8
0
  6
Continuous
 62
     7
370
    25
100
AcDbLine
 10
839.1729920333
 20
425.5492021479
 30
0.0
 11
839.1729920333
 21
428.6728138254
 31
0.0
  0
LINE
  5
24A
330
1F
100
AcDbEntity
  8
0
  6
Continuous
 62
     7
370
    25
100
AcDbLine
 10
839.2729788249
 20
428.7728137719
 30
0.0
 11
839.1729920333
 21
428.6728138254
 31
0.0
  0
LINE
  5
24B
330
1F
100
AcDbEntity
  8
0
  6
Continuous
 62
     7
370
    25
100
AcDbLine
 10
839.2729788249
 20
428.7728137719
 30
0.0
 11
839.2729788249
 21
425.4492022014
 31
0.0
  0
LINE
  5
24C
330
1F
100
AcDbEntity
  8
0
  6
Continuous
 62
     7
370
    25
100
AcDbLine
 10
839.1729920333
 20
406.4396893522
 30
0.0
 11
839.1729920333
 21
411.9703531182
 31
0.0
  0
LINE
  5
24D
330
1F
100
AcDbEntity
  8
0
  6
Continuous
 62
     7
370
    25
100
AcDbLine
 10
839.1729920333
 20
406.4396893522
 30
0.0
 11
839.2729788249
 21
406.5396891824
 31
0.0
  0
LINE
  5
24E
330
1F
100
AcDbEntity
  8
0
  6
Continuous
 62
     7
370
    25
100
AcDbLine
 10
834.5321743911
 20
447.8396898052
 30
0.0
 11
840.544345898
 21
447.8396898052
 31
0.0
  0
LINE
  5
24F
330
1F
100
AcDbEntity
  8
0
  6
Continuous
 62
     7
370
    25
100
AcDbLine
 10
840.544345898
 20
447.7396899751
 30
0.0
 11
840.544345898
 21
447.8396898052
 31
0.0
  0
LINE
  5
250
330
1F
100
AcDbEntity
  8
0
  6
Continuous
 62
     7
370
    25
100
AcDbLine
 10
841.5443330234
 20
431.5796893938
 30
0.0
 11
833.5321872657
 21
431.5796893938
 31
0.0
  0
LINE
  5
251
330
1F
100
AcDbEntity
  8
0
  6
Continuous
 62
     7
370
    25
100
AcDbLine
 10
833.5321872657
 20
431.5796893938
 30
0.0
 11
833.6321740573
 21
431.6796896896
 31
0.0
  0
LINE
  5
252
330
1F
100
AcDbEntity
  8
0
  6
Continuous
 62
     7
370
    25
100
AcDbLine
 10
833.6321740573
 20
431.6796896896
 30
0.0
 11
841.4443462318
 21
431.6796896896
 31
0.0
  0
LINE
  5
253
330
1F
100
AcDbEntity
  8
0
  6
Continuous
 62
     7
370
    25
100
AcDbLine
 10
833.6321740573
 20
435.3102654136
 30
0.0
 11
833.6321740573
 21
431.6796896896
 31
0.0
  0
LINE
  5
254
330
1F
100
AcDbEntity
  8
0
  6
Continuous
 62
     7
370
    25
100
AcDbLine
 10
833.5321872657
 20
431.5796893938
 30
0.0
 11
833.5321872657
 21
435.4102652437
 31
0.0
  0
LINE
  5
255
330
1F
100
AcDbEntity
  8
0
  6
Continuous
 62
     7
370
    25
100
AcDbLine
 10
838.6729686683
 20
442.0158568687
 30
0.0
 11
839.1729920333
 21
442.0158568687
 31
0.0
  0
LINE
  5
256
330
1F
100
AcDbEntity
  8
0
  6
Continuous
 62
     7
370
    25
100
AcDbLine
 10
839.1729920333
 20
442.0158568687
 30
0.0
 11
839.2729788249
 21
441.9158570385
 31
0.0
  0
LINE
  5
257
330
1F
100
AcDbEntity
  8
0
  6
Continuous
 62
     7
370
    25
100
AcDbLine
 10
838.5729818767
 20
441.9158570385
 30
0.0
 11
838.6729686683
 21
442.0158568687
 31
0.0
  0
LINE
  5
258
330
1F
100
AcDbEntity
  8
0
  6
Continuous
 62
     7
370
    25
100
AcDbLine
 10
835.9035282558
 20
423.19968938
 30
0.0
 11
833.5321872657
 21
423.19968938
 31
0.0
  0
LINE
  5
259
330
1F
100
AcDbEntity
  8
0
  6
Continuous
 62
     7
370
    25
100
AcDbLine
 10
833.6321740573
 20
423.2996896758
 30
0.0
 11
835.8035414642
 21
423.2996896758
 31
0.0
  0
LINE
  5
25A
330
1F
100
AcDbEntity
  8
0
  6
Continuous
 62
     7
370
    25
100
AcDbLine
 10
838.6729686683
 20
428.6728138254
 30
0.0
 11
838.6729686683
 21
425.5492021479
 31
0.0
  0
LINE
  5
25B
330
1F
100
AcDbEntity
  8
0
  6
Continuous
 62
     7
370
    25
100
AcDbLine
 10
838.5729818767
 20
425.4492022014
 30
0.0
 11
838.5729818767
 21
428.7728137719
 31
0.0
  0
LINE
  5
25C
330
1F
100
AcDbEntity
  8
0
  6
Continuous
 62
     7
370
    25
100
AcDbLine
 10
838.5729818767
 20
428.7728137719
 30
0.0
 11
838.6729686683
 21
428.6728138254
 31
0.0
  0
LINE
  5
25D
330
1F
100
AcDbEntity
  8
0
  6
Continuous
 62
     7
370
    25
100
AcDbLine
 10
835.9035282558
 20
417.0800283468
 30
0.0
 11
835.9035282558
 21
414.8196898318
 31
0.0
  0
LINE
  5
25E
330
1F
100
AcDbEntity
  8
0
  6
Continuous
 62
     7
370
    25
100
AcDbLine
 10
835.9035282558
 20
414.8196898318
 30
0.0
 11
835.8035414642
 21
414.9196896619
 31
0.0
  0
LINE
  5
25F
330
1F
100
AcDbEntity
  8
0
  6
Continuous
 62
     7
370
    25
100
AcDbLine
 10
835.8035414642
 20
414.9196896619
 30
0.0
 11
835.8035414642
 21
417.1800291083
 31
0.0
  0
LINE
  5
260
330
1F
100
AcDbEntity
  8
0
  6
Continuous
 62
     7
370
    25
100
AcDbLine
 10
835.9035282558
 20
417.0800283468
 30
0.0
 11
835.8035414642
 21
417.1800291083
 31
0.0
  0
LINE
  5
261
330
1F
100
AcDbEntity
  8
0
  6
Continuous
 62
     7
370
    25
100
AcDbLine
 10
839.1729920333
 20
442.0158568687
 30
0.0
 11
839.1729920333
 21
445.2498754403
 31
0.0
  0
LINE
  5
262
330
1F
100
AcDbEntity
  8
0
  6
Continuous
 62
     7
370
    25
100
AcDbLine
 10
839.1729920333
 20
445.2498754403
 30
0.0
 11
839.2729788249
 21
445.3498752705
 31
0.0
  0
LINE
  5
263
330
1F
100
AcDbEntity
  8
0
  6
Continuous
 62
     7
370
    25
100
AcDbLine
 10
838.5729818767
 20
428.7728137719
 30
0.0
 11
839.2729788249
 21
428.7728137719
 31
0.0
  0
LINE
  5
264
330
1F
100
AcDbEntity
  8
0
  6
Continuous
 62
     7
370
    25
100
AcDbLine
 10
839.1729920333
 20
428.6728138254
 30
0.0
 11
838.6729686683
 21
428.6728138254
 31
0.0
  0
LINE
  5
265
330
1F
100
AcDbEntity
  8
0
  6
Continuous
 62
     7
370
    25
100
AcDbLine
 10
841.4443462318
 20
423.2996896758
 30
0.0
 11
841.4443462318
 21
430.9796894817
 31
0.0
  0
LINE
  5
266
330
1F
100
AcDbEntity
  8
0
  6
Continuous
 62
     7
370
    25
100
AcDbLine
 10
836.5035384124
 20
423.2996896758
 30
0.0
 11
841.4443462318
 21
423.2996896758
 31
0.0
  0
LINE
  5
267
330
1F
100
AcDbEntity
  8
0
  6
Continuous
 62
     7
370
    25
100
AcDbLine
 10
836.5035384124
 20
428.7728137719
 30
0.0
 11
836.5035384124
 21
423.2996896758
 31
0.0
  0
LINE
  5
268
330
1F
100
AcDbEntity
  8
0
  6
Continuous
 62
     7
370
    25
100
AcDbLine
 10
841.4443462318
 20
423.2996896758
 30
0.0
 11
841.5443330234
 21
423.19968938
 31
0.0
  0
LINE
  5
269
330
1F
100
AcDbEntity
  8
0
  6
Continuous
 62
     7
370
    25
100
AcDbLine
 10
841.5443330234
 20
423.19968938
 30
0.0
 11
836.4035516208
 21
423.19968938
 31
0.0
  0
LINE
  5
26A
330
1F
100
AcDbEntity
  8
0
  6
Continuous
 62
     7
370
    25
100
AcDbLine
 10
836.5035384124
 20
423.2996896758
 30
0.0
 11
836.4035516208
 21
423.19968938
 31
0.0
  0
LINE
  5
26B
330
1F
100
AcDbEntity
  8
0
  6
Continuous
 62
     7
370
    25
100
AcDbLine
 10
836.4035516208
 20
423.19968938
 30
0.0
 11
836.4035516208
 21
428.6728138254
 31
0.0
  0
LINE
  5
26C
330
1F
100
AcDbEntity
  8
0
  6
Continuous
 62
     7
370
    25
100
AcDbLine
 10
841.5443330234
 20
431.0796897775
 30
0.0
 11
841.5443330234
 21
423.19968938
 31
0.0
  0
LINE
  5
26D
330
1F
100
AcDbEntity
  8
0
  6
Continuous
 62
     7
370
    25
100
AcDbLine
 10
838.6729686683
 20
411.9703531182
 30
0.0
 11
838.6729686683
 21
406.4396893522
 31
0.0
  0
LINE
  5
26E
330
1F
100
AcDbEntity
  8
0
  6
Continuous
 62
     7
370
    25
100
AcDbLine
 10
838.6729686683
 20
406.4396893522
 30
0.0
 11
838.5729818767
 21
406.5396891824
 31
0.0
  0
LINE
  5
26F
330
1F
100
AcDbEntity
  8
0
  6
Continuous
 62
     7
370
    25
100
AcDbLine
 10
833.5321872657
 20
414.8196898318
 30
0.0
 11
833.5321872657
 21
422.6996897637
 31
0.0
  0
LINE
  5
270
330
1F
100
AcDbEntity
  8
0
  6
Continuous
 62
     7
370
    25
100
AcDbLine
 10
833.6321740573
 20
422.5996894679
 30
0.0
 11
833.6321740573
 21
414.9196896619
 31
0.0
  0
LINE
  5
271
330
1F
100
AcDbEntity
  8
0
  6
Continuous
 62
     7
370
    25
100
AcDbLine
 10
833.5321872657
 20
414.8196898318
 30
0.0
 11
833.6321740573
 21
414.9196896619
 31
0.0
  0
LINE
  5
272
330
1F
100
AcDbEntity
  8
0
  6
Continuous
 62
     7
370
    25
100
AcDbLine
 10
838.6729686683
 20
406.4396893522
 30
0.0
 11
834.5321743911
 21
406.4396893522
 31
0.0
  0
LINE
  5
273
330
1F
100
AcDbEntity
  8
0
  6
Continuous
 62
     7
370
    25
100
AcDbLine
 10
835.9035282558
 20
439.9596894077
 30
0.0
 11
833.5321872657
 21
439.9596894077
 31
0.0
  0
LINE
  5
274
330
1F
100
AcDbEntity
  8
0
  6
Continuous
 62
     7
370
    25
100
AcDbLine
 10
833.6321740573
 20
440.0596892378
 30
0.0
 11
833.5321872657
 21
439.9596894077
 31
0.0
  0
LINE
  5
275
330
1F
100
AcDbEntity
  8
0
  6
Continuous
 62
     7
370
    25
100
AcDbLine
 10
840.5321865504
 20
406.4396893522
 30
0.0
 11
839.1729920333
 21
406.4396893522
 31
0.0
  0
LINE
  5
276
330
1F
100
AcDbEntity
  8
0
  6
Continuous
 62
     7
370
    25
100
AcDbLine
 10
835.8035414642
 20
420.8106043665
 30
0.0
 11
835.8035414642
 21
422.5996894679
 31
0.0
  0
LINE
  5
277
330
1F
100
AcDbEntity
  8
0
  6
Continuous
 62
     7
370
    25
100
AcDbLine
 10
835.9035282558
 20
422.6996897637
 30
0.0
 11
835.9035282558
 21
420.9106041967
 31
0.0
  0
LINE
  5
278
330
1F
100
AcDbEntity
  8
0
  6
Continuous
 62
     7
370
    25
100
AcDbLine
 10
835.8035414642
 20
420.8106043665
 30
0.0
 11
835.9035282558
 21
420.9106041967
 31
0.0
  0
LINE
  5
279
330
1F
100
AcDbEntity
  8
0
  6
Continuous
 62
     7
370
    25
100
AcDbLine
 10
841.4443462318
 20
420.8106043665
 30
0.0
 11
835.8035414642
 21
420.8106043665
 31
0.0
  0
LINE
  5
27A
330
1F
100
AcDbEntity
  8
0
  6
Continuous
 62
     7
370
    25
100
AcDbLine
 10
835.9035282558
 20
420.9106041967
 30
0.0
 11
841.5443330234
 21
420.9106041967
 31
0.0
  0
LINE
  5
27B
330
1F
100
AcDbEntity
  8
0
  6
Continuous
 62
     7
370
    25
100
AcDbLine
 10
841.4443462318
 20
420.8106043665
 30
0.0
 11
841.5443330234
 21
420.9106041967
 31
0.0
  0
LINE
  5
27C
330
1F
100
AcDbEntity
  8
0
  6
Continuous
 62
     7
370
    25
100
AcDbLine
 10
839.1729920333
 20
445.2498754403
 30
0.0
 11
838.6729686683
 21
445.2498754403
 31
0.0
  0
LINE
  5
27D
330
1F
100
AcDbEntity
  8
0
  6
Continuous
 62
     7
370
    25
100
AcDbLine
 10
838.5729818767
 20
445.3498752705
 30
0.0
 11
838.6729686683
 21
445.2498754403
 31
0.0
  0
LINE
  5
27E
330
1F
100
AcDbEntity
  8
0
  6
Continuous
 62
     7
370
    25
100
AcDbLine
 10
841.5443330234
 20
446.8396896413
 30
0.0
 11
841.5443330234
 21
439.9596894077
 31
0.0
  0
LINE
  5
27F
330
1F
100
AcDbEntity
  8
0
  6
Continuous
 62
     7
370
    25
100
AcDbLine
 10
841.5443330234
 20
439.9596894077
 30
0.0
 11
841.4443462318
 21
440.0596892378
 31
0.0
  0
LINE
  5
280
330
1F
100
AcDbEntity
  8
0
  6
Continuous
 62
     7
370
    25
100
AcDbLine
 10
841.5443330234
 20
446.8396896413
 30
0.0
 11
841.4443462318
 21
446.8396896413
 31
0.0
  0
LINE
  5
281
330
1F
100
AcDbEntity
  8
0
  6
Continuous
 62
     7
370
    25
100
AcDbLine
 10
841.5321736758
 20
414.3222611314
 30
0.0
 11
841.5321736758
 21
407.4396895162
 31
0.0
  0
LINE
  5
282
330
1F
100
AcDbEntity
  8
0
  6
Continuous
 62
     7
370
    25
100
AcDbLine
 10
841.5443330234
 20
439.9596894077
 30
0.0
 11
836.4035516208
 21
439.9596894077
 31
0.0
  0
LINE
  5
283
330
1F
100
AcDbEntity
  8
0
  6
Continuous
 62
     7
370
    25
100
AcDbLine
 10
836.4035516208
 20
439.9596894077
 30
0.0
 11
836.5035384124
 21
440.0596892378
 31
0.0
  0
LINE
  5
284
330
1F
100
AcDbEntity
  8
0
  6
Continuous
 62
     7
370
    25
100
AcDbLine
 10
833.5321872657
 20
439.9596894077
 30
0.0
 11
833.5321872657
 21
446.8396896413
 31
0.0
  0
LINE
  5
285
330
1F
100
AcDbEntity
  8
0
  6
Continuous
 62
     7
370
    25
100
AcDbLine
 10
841.4443462318
 20
417.1800291083
 30
0.0
 11
841.4443462318
 21
420.8106043665
 31
0.0
  0
LINE
  5
286
330
1F
100
AcDbEntity
  8
0
  6
Continuous
 62
     7
370
    25
100
AcDbLine
 10
841.5443330234
 20
420.9106041967
 30
0.0
 11
841.5443330234
 21
417.0800283468
 31
0.0
  0
LINE
  5
287
330
1F
100
AcDbEntity
  8
0
  6
Continuous
 62
     7
370
    25
100
AcDbLine
 10
841.4443462318
 20
417.1800291083
 30
0.0
 11
841.5443330234
 21
417.0800283468
 31
0.0
  0
LINE
  5
288
330
1F
100
AcDbEntity
  8
0
  6
Continuous
 62
     7
370
    25
100
AcDbLine
 10
835.8035414642
 20
417.1800291083
 30
0.0
 11
841.4443462318
 21
417.1800291083
 31
0.0
  0
LINE
  5
289
330
1F
100
AcDbEntity
  8
0
  6
Continuous
 62
     7
370
    25
100
AcDbLine
 10
841.5443330234
 20
417.0800283468
 30
0.0
 11
835.9035282558
 21
417.0800283468
 31
0.0
  0
LINE
  5
28A
330
1F
100
AcDbEntity
  8
0
  6
Continuous
 62
     7
370
    25
100
AcDbLine
 10
838.6729686683
 20
445.2498754403
 30
0.0
 11
838.6729686683
 21
442.0158568687
 31
0.0
  0
ARC
  5
28B
330
1F
100
AcDbEntity
  8
0
  6
Continuous
 62
     7
370
    25
100
AcDbCircle
 10
840.544345898
 20
446.8396895787
 30
0.0
 40
1.0
100
AcDbArc
 50
0.0
 51
90.0
  0
LINE
  5
28C
330
1F
100
AcDbEntity
  8
0
  6
Continuous
 62
     7
370
    25
100
AcDbLine
 10
835.9035282558
 20
414.3196897498
 30
0.0
 11
835.9035282558
 21
409.0182216755
 31
0.0
  0
LINE
  5
28D
330
1F
100
AcDbEntity
  8
0
  6
Continuous
 62
     7
370
    25
100
AcDbLine
 10
833.6321740573
 20
414.9196896619
 30
0.0
 11
835.8035414642
 21
414.9196896619
 31
0.0
  0
LINE
  5
28E
330
1F
100
AcDbEntity
  8
0
  6
Continuous
 62
     7
370
    25
100
AcDbLine
 10
833.5321872657
 20
407.4396895162
 30
0.0
 11
833.5321872657
 21
414.3196897498
 31
0.0
  0
LINE
  5
28F
330
1F
100
AcDbEntity
  8
0
  6
Continuous
 62
     7
370
    25
100
AcDbLine
 10
836.4035516208
 20
439.9596894077
 30
0.0
 11
836.4035516208
 21
445.2498754403
 31
0.0
  0
LINE
  5
290
330
1F
100
AcDbEntity
  8
0
  6
Continuous
 62
     7
370
    25
100
AcDbLine
 10
835.9035282558
 20
414.8196898318
 30
0.0
 11
833.5321872657
 21
414.8196898318
 31
0.0
  0
ARC
  5
291
330
1F
100
AcDbEntity
  8
0
  6
Continuous
 62
     7
370
    25
100
AcDbCircle
 10
852.732345898
 20
648.3276895787
 30
0.0
 40
16.48864566234761
100
AcDbArc
 50
0.0
 51
90.0
  0
LINE
  5
292
330
1F
100
AcDbEntity
  8
0
  6
Continuous
 62
     7
370
    25
100
AcDbLine
 10
852.732333464
 20
665.2547022245
 30
0.0
 11
852.732333464
 21
664.8163398645
 31
0.0
  0
LINE
  5
293
330
1F
100
AcDbEntity
  8
0
  6
Continuous
 62
     7
370
    25
100
AcDbLine
 10
869.2210047668
 20
648.3276834628
 30
0.0
 11
869.6593671268
 21
648.3276834628
 31
0.0
  0
ARC
  5
294
330
1F
100
AcDbEntity
  8
0
  6
Continuous
 62
     7
370
    25
100
AcDbCircle
 10
852.732345898
 20
205.9516895787
 30
0.0
 40
16.48864566234755
100
AcDbArc
 50
270.0
 51
0.0
  0
LINE
  5
295
330
1F
100
AcDbEntity
  8
0
  6
Continuous
 62
     7
370
    25
100
AcDbLine
 10
869.2210047668
 20
205.9516956947
 30
0.0
 11
869.6593671268
 21
205.9516956947
 31
0.0
  0
LINE
  5
296
330
1F
100
AcDbEntity
  8
0
  6
Continuous
 62
     7
370
    25
100
AcDbLine
 10
852.732333464
 20
189.463039293
 30
0.0
 11
852.732333464
 21
189.024676933
 31
0.0
  0
LINE
  5
297
330
1F
100
AcDbEntity
  8
0
  6
Continuous
 62
     7
370
    25
100
AcDbLine
 10
869.2210047668
 20
205.9516956947
 30
0.0
 11
869.2210047668
 21
648.3276834628
 31
0.0
  0
LINE
  5
298
330
1F
100
AcDbEntity
  8
0
  6
Continuous
 62
     7
370
    25
100
AcDbLine
 10
203.356358332
 20
665.2547022245
 30
0.0
 11
203.356358332
 21
664.8163398645
 31
0.0
  0
ARC
  5
299
330
1F
100
AcDbEntity
  8
0
  6
Continuous
 62
     7
370
    25
100
AcDbCircle
 10
203.356345898
 20
648.3276895787
 30
0.0
 40
16.48864566234761
100
AcDbArc
 50
90.0
 51
180.0
  0
LINE
  5
29A
330
1F
100
AcDbEntity
  8
0
  6
Continuous
 62
     7
370
    25
100
AcDbLine
 10
186.4293246692
 20
648.3276834628
 30
0.0
 11
186.8676870292
 21
648.3276834628
 31
0.0
  0
LINE
  5
29B
330
1F
100
AcDbEntity
  8
0
  6
Continuous
 62
     7
370
    25
100
AcDbLine
 10
852.732333464
 20
664.8163398645
 30
0.0
 11
203.356358332
 21
664.8163398645
 31
0.0
  0
LINE
  5
29C
330
1F
100
AcDbEntity
  8
0
  6
Continuous
 62
     7
370
    25
100
AcDbLine
 10
203.356358332
 20
189.463039293
 30
0.0
 11
852.732333464
 21
189.463039293
 31
0.0
  0
LINE
  5
29D
330
1F
100
AcDbEntity
  8
0
  6
Continuous
 62
     7
370
    25
100
AcDbLine
 10
203.356358332
 20
189.463039293
 30
0.0
 11
203.356358332
 21
189.024676933
 31
0.0
  0
ARC
  5
29E
330
1F
100
AcDbEntity
  8
0
  6
Continuous
 62
     7
370
    25
100
AcDbCircle
 10
203.356345898
 20
205.9516895787
 30
0.0
 40
16.48864566234755
100
AcDbArc
 50
180.0
 51
270.0
  0
LINE
  5
29F
330
1F
100
AcDbEntity
  8
0
  6
Continuous
 62
     7
370
    25
100
AcDbLine
 10
186.4293246692
 20
205.9516956947
 30
0.0
 11
186.8676870292
 21
205.9516956947
 31
0.0
  0
LINE
  5
2A0
330
1F
100
AcDbEntity
  8
0
  6
Continuous
 62
     7
370
    25
100
AcDbLine
 10
186.8676870292
 20
648.3276834628
 30
0.0
 11
186.8676870292
 21
205.9516956947
 31
0.0
  0
LINE
  5
2A1
330
1F
100
AcDbEntity
  8
0
  6
Continuous
 62
     7
370
    25
100
AcDbLine
 10
627.4383395141
 20
238.6559149167
 30
0.0
 11
831.9270043796
 21
238.6559149167
 31
0.0
  0
LINE
  5
2A2
330
1F
100
AcDbEntity
  8
0
  6
Continuous
 62
     7
370
    25
100
AcDbLine
 10
831.9270043796
 20
615.6234642408
 30
0.0
 11
627.4383395141
 21
615.6234642408
 31
0.0
  0
LINE
  5
2A3
330
1F
100
AcDbEntity
  8
0
  6
Continuous
 62
     7
370
    25
100
AcDbLine
 10
257.9443483775
 20
630.9896906755
 30
0.0
 11
491.1443471139
 21
630.9896906755
 31
0.0
  0
ARC
  5
2A4
330
1F
100
AcDbEntity
  8
0
  6
Continuous
 62
     7
370
    25
100
AcDbCircle
 10
257.944345898
 20
573.9896895787
 30
0.0
 40
57.00000000000034
100
AcDbArc
 50
90.0
 51
180.0
  0
LINE
  5
2A5
330
1F
100
AcDbEntity
  8
0
  6
Continuous
 62
     7
370
    25
100
AcDbLine
 10
200.9443371719
 20
280.2896847865
 30
0.0
 11
200.9443371719
 21
573.989694371
 31
0.0
  0
ARC
  5
2A6
330
1F
100
AcDbEntity
  8
0
  6
Continuous
 62
     7
370
    25
100
AcDbCircle
 10
257.944345898
 20
280.2896895787
 30
0.0
 40
57.00000000000037
100
AcDbArc
 50
180.0
 51
270.0
  0
LINE
  5
2A7
330
1F
100
AcDbEntity
  8
0
  6
Continuous
 62
     7
370
    25
100
AcDbLine
 10
491.1443471139
 20
223.289688482
 30
0.0
 11
257.9443483775
 21
223.289688482
 31
0.0
  0
ARC
  5
2A8
330
1F
100
AcDbEntity
  8
0
  6
Continuous
 62
     7
370
    25
100
AcDbCircle
 10
491.144345898
 20
280.2896895787
 30
0.0
 40
57.00000000000034
100
AcDbArc
 50
270.0
 51
0.0
  0
LINE
  5
2A9
330
1F
100
AcDbEntity
  8
0
  6
Continuous
 62
     7
370
    25
100
AcDbLine
 10
548.1443452811
 20
573.989694371
 30
0.0
 11
548.1443452811
 21
280.2896847865
 31
0.0
  0
ARC
  5
2AA
330
1F
100
AcDbEntity
  8
0
  6
Continuous
 62
     7
370
    25
100
AcDbCircle
 10
491.144345898
 20
573.9896895787
 30
0.0
 40
57.00000000000034
100
AcDbArc
 50
0.0
 51
90.0
  0
LINE
  5
2AB
330
1F
100
AcDbEntity
  8
0
  6
Continuous
 62
     7
370
    25
100
AcDbLine
 10
257.9443483775
 20
630.9896906755
 30
0.0
 11
257.9443483775
 21
628.9896866224
 31
0.0
  0
ARC
  5
2AC
330
1F
100
AcDbEntity
  8
0
  6
Continuous
 62
     7
370
    25
100
AcDbCircle
 10
257.944345898
 20
573.9896895787
 30
0.0
 40
55.0
100
AcDbArc
 50
90.0
 51
180.0
  0
LINE
  5
2AD
330
1F
100
AcDbEntity
  8
0
  6
Continuous
 62
     7
370
    25
100
AcDbLine
 10
200.9443371719
 20
573.989694371
 30
0.0
 11
202.944341225
 21
573.989694371
 31
0.0
  0
LINE
  5
2AE
330
1F
100
AcDbEntity
  8
0
  6
Continuous
 62
     7
370
    25
100
AcDbLine
 10
548.1443452811
 20
573.989694371
 30
0.0
 11
546.1443468159
 21
573.989694371
 31
0.0
  0
ARC
  5
2AF
330
1F
100
AcDbEntity
  8
0
  6
Continuous
 62
     7
370
    25
100
AcDbCircle
 10
491.144345898
 20
573.9896895787
 30
0.0
 40
55.00000000000011
100
AcDbArc
 50
0.0
 51
90.0
  0
LINE
  5
2B0
330
1F
100
AcDbEntity
  8
0
  6
Continuous
 62
     7
370
    25
100
AcDbLine
 10
491.1443471139
 20
630.9896906755
 30
0.0
 11
491.1443471139
 21
628.9896866224
 31
0.0
  0
LINE
  5
2B1
330
1F
100
AcDbEntity
  8
0
  6
Continuous
 62
     7
370
    25
100
AcDbLine
 10
546.1443468159
 20
280.2896847865
 30
0.0
 11
546.1443468159
 21
573.989694371
 31
0.0
  0
LINE
  5
2B2
330
1F
100
AcDbEntity
  8
0
  6
Continuous
 62
     7
370
    25
100
AcDbLine
 10
546.1443468159
 20
280.2896847865
 30
0.0
 11
548.1443452811
 21
280.2896847865
 31
0.0
  0
LINE
  5
2B3
330
1F
100
AcDbEntity
  8
0
  6
Continuous
 62
     7
370
    25
100
AcDbLine
 10
491.1443471139
 20
628.9896866224
 30
0.0
 11
257.9443483775
 21
628.9896866224
 31
0.0
  0
ARC
  5
2B4
330
1F
100
AcDbEntity
  8
0
  6
Continuous
 62
     7
370
    25
100
AcDbCircle
 10
491.144345898
 20
280.2896895787
 30
0.0
 40
55.00000000000011
100
AcDbArc
 50
270.0
 51
0.0
  0
LINE
  5
2B5
330
1F
100
AcDbEntity
  8
0
  6
Continuous
 62
     7
370
    25
100
AcDbLine
 10
491.1443471139
 20
225.2896925351
 30
0.0
 11
491.1443471139
 21
223.289688482
 31
0.0
  0
LINE
  5
2B6
330
1F
100
AcDbEntity
  8
0
  6
Continuous
 62
     7
370
    25
100
AcDbLine
 10
202.944341225
 20
573.989694371
 30
0.0
 11
202.944341225
 21
280.2896847865
 31
0.0
  0
LINE
  5
2B7
330
1F
100
AcDbEntity
  8
0
  6
Continuous
 62
     7
370
    25
100
AcDbLine
 10
202.944341225
 20
280.2896847865
 30
0.0
 11
200.9443371719
 21
280.2896847865
 31
0.0
  0
ARC
  5
2B8
330
1F
100
AcDbEntity
  8
0
  6
Continuous
 62
     7
370
    25
100
AcDbCircle
 10
257.944345898
 20
280.2896895787
 30
0.0
 40
55.00000000000006
100
AcDbArc
 50
180.0
 51
270.0
  0
LINE
  5
2B9
330
1F
100
AcDbEntity
  8
0
  6
Continuous
 62
     7
370
    25
100
AcDbLine
 10
257.9443483775
 20
225.2896925351
 30
0.0
 11
257.9443483775
 21
223.289688482
 31
0.0
  0
LINE
  5
2BA
330
1F
100
AcDbEntity
  8
0
  6
Continuous
 62
     7
370
    25
100
AcDbLine
 10
257.9443483775
 20
225.2896925351
 30
0.0
 11
491.1443471139
 21
225.2896925351
 31
0.0
  0
LINE
  5
2BB
330
1F
100
AcDbEntity
  8
0
  6
Continuous
 62
     8
370
    25
100
AcDbLine
 10
446.5896441763
 20
411.1129021189
 30
0.0
 11
445.8713486021
 21
410.5974411509
 31
0.0
  0
LWPOLYLINE
  5
2BC
330
1F
100
AcDbEntity
  8
0
  6
Continuous
 62
     8
370
    25
100
AcDbPolyline
 90
        3
 70
   128
 43
0.0
 10
439.356687588
 20
407.6772009871
 10
439.2073407
 20
407.6408794067
 10
437.5831737345
 20
407.3227116755
  0
LINE
  5
2BD
330
1F
100
AcDbEntity
  8
0
  6
Continuous
 62
     8
370
    25
100
AcDbLine
 10
430.5978520935
 20
407.4833350173
 30
0.0
 11
428.8575976318
 21
407.9144982538
 31
0.0
  0
LWPOLYLINE
  5
2BE
330
1F
100
AcDbEntity
  8
0
  6
Continuous
 62
     8
370
    25
100
AcDbPolyline
 90
        3
 70
   128
 43
0.0
 10
422.4687024181
 20
411.1357530496
 10
421.3034614151
 20
412.0855856604
 10
420.9372877305
 20
412.4157264746
  0
LWPOLYLINE
  5
2BF
330
1F
100
AcDbEntity
  8
0
  6
Continuous
 62
     8
370
    25
100
AcDbPolyline
 90
        3
 70
   128
 43
0.0
 10
416.6354491537
 20
418.1275660089
 10
416.4020820683
 20
418.6070779255
 10
415.8994062966
 20
419.7699435903
  0
LINE
  5
2C0
330
1F
100
AcDbEntity
  8
0
  6
Continuous
 62
     8
370
    25
100
AcDbLine
 10
414.5026534026
 20
426.6128733438
 30
0.0
 11
414.5352198904
 21
428.3973844872
 31
0.0
  0
LINE
  5
2C1
330
1F
100
AcDbEntity
  8
0
  6
Continuous
 62
     8
370
    25
100
AcDbLine
 10
416.2560208862
 20
435.3545609778
 30
0.0
 11
417.0672624534
 21
436.9630547157
 31
0.0
  0
LINE
  5
2C2
330
1F
100
AcDbEntity
  8
0
  6
Continuous
 62
     8
370
    25
100
AcDbLine
 10
421.6294168656
 20
442.4743451095
 30
0.0
 11
422.4990486329
 21
443.1664770386
 31
0.0
  0
LINE
  5
2C3
330
1F
100
AcDbEntity
  8
0
  6
Continuous
 62
     8
370
    25
100
AcDbLine
 10
422.4990486329
 20
443.1664770386
 30
0.0
 11
423.2173367565
 21
443.6819380066
 31
0.0
  0
LWPOLYLINE
  5
2C4
330
1F
100
AcDbEntity
  8
0
  6
Continuous
 62
     8
370
    25
100
AcDbPolyline
 90
        3
 70
   128
 43
0.0
 10
429.5659764832
 20
446.5603729627
 10
429.8813521093
 20
446.6384997508
 10
431.5055190747
 20
446.956667482
  0
LINE
  5
2C5
330
1F
100
AcDbEntity
  8
0
  6
Continuous
 62
     8
370
    25
100
AcDbLine
 10
438.4908407157
 20
446.7960441402
 30
0.0
 11
440.2393206185
 21
446.3624464265
 31
0.0
  0
LWPOLYLINE
  5
2C6
330
1F
100
AcDbEntity
  8
0
  6
Continuous
 62
     8
370
    25
100
AcDbPolyline
 90
        3
 70
   128
 43
0.0
 10
446.6199903911
 20
443.1436261079
 10
447.7852313941
 20
442.1937934971
 10
448.1514050787
 20
441.8636526829
  0
LWPOLYLINE
  5
2C7
330
1F
100
AcDbEntity
  8
0
  6
Continuous
 62
     8
370
    25
100
AcDbPolyline
 90
        3
 70
   128
 43
0.0
 10
452.4471267288
 20
436.1639687708
 10
452.6866032904
 20
435.672301232
 10
453.1892865127
 20
434.5094355671
  0
LINE
  5
2C8
330
1F
100
AcDbEntity
  8
0
  6
Continuous
 62
     8
370
    25
100
AcDbLine
 10
454.5860394066
 20
427.6665058137
 30
0.0
 11
454.5405834144
 21
425.6914449074
 31
0.0
  0
LINE
  5
2C9
330
1F
100
AcDbEntity
  8
0
  6
Continuous
 62
     8
370
    25
100
AcDbLine
 10
452.832671923
 20
418.9248181796
 30
0.0
 11
452.0214303558
 21
417.3163244418
 31
0.0
  0
LINE
  5
2CA
330
1F
100
AcDbEntity
  8
0
  6
Continuous
 62
     8
370
    25
100
AcDbLine
 10
447.4592759436
 20
411.805034048
 30
0.0
 11
446.5896441763
 21
411.1129021189
 31
0.0
  0
LINE
  5
2CB
330
1F
100
AcDbEntity
  8
0
  6
Continuous
 62
     8
370
    25
100
AcDbLine
 10
446.9553633755
 20
410.6262953869
 30
0.0
 11
447.8520407503
 21
411.3399790517
 31
0.0
  0
LINE
  5
2CC
330
1F
100
AcDbEntity
  8
0
  6
Continuous
 62
     8
370
    25
100
AcDbLine
 10
452.4573489254
 20
416.8513523332
 30
0.0
 11
453.3856093114
 21
418.6702029696
 31
0.0
  0
LWPOLYLINE
  5
2CD
330
1F
100
AcDbEntity
  8
0
  6
Continuous
 62
     8
370
    25
100
AcDbPolyline
 90
        3
 70
   128
 43
0.0
 10
455.1478578871
 20
425.649500467
 10
455.2006527012
 20
426.9332937842
 10
455.1945357745
 20
427.6829678133
  0
LWPOLYLINE
  5
2CE
330
1F
100
AcDbEntity
  8
0
  6
Continuous
 62
     8
370
    25
100
AcDbPolyline
 90
        3
 70
   128
 43
0.0
 10
453.7559627717
 20
434.7317483193
 10
453.7072657769
 20
434.8538298077
 10
452.9102473682
 20
436.5958640269
  0
LWPOLYLINE
  5
2CF
330
1F
100
AcDbEntity
  8
0
  6
Continuous
 62
     8
370
    25
100
AcDbPolyline
 90
        3
 70
   128
 43
0.0
 10
448.5635041421
 20
442.3116570255
 10
447.2828536456
 20
443.4017905882
 10
446.9878553575
 20
443.6286086133
  0
LWPOLYLINE
  5
2D0
330
1F
100
AcDbEntity
  8
0
  6
Continuous
 62
     8
370
    25
100
AcDbPolyline
 90
        3
 70
   128
 43
0.0
 10
440.5855714505
 20
446.8939056537
 10
440.0899513786
 20
447.0387281767
 10
438.6112495487
 20
447.3927332005
  0
LINE
  5
2D1
330
1F
100
AcDbEntity
  8
0
  6
Continuous
 62
     8
370
    25
100
AcDbLine
 10
431.4121707504
 20
447.5581845185
 30
0.0
 11
429.4167935079
 21
447.1505278638
 31
0.0
  0
LINE
  5
2D2
330
1F
100
AcDbEntity
  8
0
  6
Continuous
 62
     8
370
    25
100
AcDbLine
 10
422.8715776628
 20
444.1829262218
 30
0.0
 11
422.1333294337
 21
443.6530837706
 31
0.0
  0
LINE
  5
2D3
330
1F
100
AcDbEntity
  8
0
  6
Continuous
 62
     8
370
    25
100
AcDbLine
 10
422.1333294337
 20
443.6530837706
 30
0.0
 11
421.2366520589
 21
442.9394001058
 31
0.0
  0
LINE
  5
2D4
330
1F
100
AcDbEntity
  8
0
  6
Continuous
 62
     8
370
    25
100
AcDbLine
 10
416.6313438838
 20
437.4280268243
 30
0.0
 11
415.7030834978
 21
435.6091761878
 31
0.0
  0
LWPOLYLINE
  5
2D5
330
1F
100
AcDbEntity
  8
0
  6
Continuous
 62
     8
370
    25
100
AcDbPolyline
 90
        3
 70
   128
 43
0.0
 10
413.9408349221
 20
428.6298786905
 10
413.888040108
 20
427.3460853733
 10
413.8941570347
 20
426.5964113442
  0
LWPOLYLINE
  5
2D6
330
1F
100
AcDbEntity
  8
0
  6
Continuous
 62
     8
370
    25
100
AcDbPolyline
 90
        3
 70
   128
 43
0.0
 10
415.3327300375
 20
419.5476308382
 10
415.3814270323
 20
419.4255493498
 10
416.1784454411
 20
417.6835151306
  0
LWPOLYLINE
  5
2D7
330
1F
100
AcDbEntity
  8
0
  6
Continuous
 62
     8
370
    25
100
AcDbPolyline
 90
        3
 70
   128
 43
0.0
 10
420.5251812165
 20
411.9677221319
 10
421.8058391636
 20
410.8775885693
 10
422.1008300012
 20
410.6507705441
  0
LWPOLYLINE
  5
2D8
330
1F
100
AcDbEntity
  8
0
  6
Continuous
 62
     8
370
    25
100
AcDbPolyline
 90
        3
 70
   128
 43
0.0
 10
428.5031139081
 20
407.3854735038
 10
428.9987414306
 20
407.2406509808
 10
430.4774432605
 20
406.886645957
  0
LINE
  5
2D9
330
1F
100
AcDbEntity
  8
0
  6
Continuous
 62
     8
370
    25
100
AcDbLine
 10
437.6765220588
 20
406.7211946389
 30
0.0
 11
439.6718993014
 21
407.1288512937
 31
0.0
  0
LINE
  5
2DA
330
1F
100
AcDbEntity
  8
0
  6
Continuous
 62
     8
370
    25
100
AcDbLine
 10
446.2171151465
 20
410.0964529357
 30
0.0
 11
446.9553633755
 21
410.6262953869
 31
0.0
  0
LINE
  5
2DB
330
1F
100
AcDbEntity
  8
0
  6
Continuous
 62
     8
370
    25
100
AcDbLine
 10
447.7891429489
 20
409.5169132492
 30
0.0
 11
448.7440168088
 21
410.276825904
 31
0.0
  0
LINE
  5
2DC
330
1F
100
AcDbEntity
  8
0
  6
Continuous
 62
     8
370
    25
100
AcDbLine
 10
453.6611839359
 20
416.1609154111
 30
0.0
 11
454.6518950885
 21
418.1023541755
 31
0.0
  0
LWPOLYLINE
  5
2DD
330
1F
100
AcDbEntity
  8
0
  6
Continuous
 62
     8
370
    25
100
AcDbPolyline
 90
        3
 70
   128
 43
0.0
 10
456.5319820469
 20
425.5488072672
 10
456.5883531397
 20
426.9194279481
 10
456.5819158381
 20
427.7162676012
  0
LWPOLYLINE
  5
2DE
330
1F
100
AcDbEntity
  8
0
  6
Continuous
 62
     8
370
    25
100
AcDbPolyline
 90
        3
 70
   128
 43
0.0
 10
455.043899936
 20
435.2486481807
 10
454.9946441477
 20
435.3720717049
 10
454.1474833315
 20
437.2245281852
  0
LWPOLYLINE
  5
2DF
330
1F
100
AcDbEntity
  8
0
  6
Continuous
 62
     8
370
    25
100
AcDbPolyline
 90
        3
 70
   128
 43
0.0
 10
449.5014055794
 20
443.3345397851
 10
448.1386347836
 20
444.4942915729
 10
447.8257700031
 20
444.7348801336
  0
LWPOLYLINE
  5
2E0
330
1F
100
AcDbEntity
  8
0
  6
Continuous
 62
     8
370
    25
100
AcDbPolyline
 90
        3
 70
   128
 43
0.0
 10
440.9961282437
 20
448.2195706955
 10
440.4625102108
 20
448.3755597762
 10
438.8759463256
 20
448.7550569615
  0
LINE
  5
2E1
330
1F
100
AcDbEntity
  8
0
  6
Continuous
 62
     8
370
    25
100
AcDbLine
 10
431.2059386795
 20
448.9305591128
 30
0.0
 11
429.0771885937
 21
448.4961194834
 31
0.0
  0
LINE
  5
2E2
330
1F
100
AcDbEntity
  8
0
  6
Continuous
 62
     8
370
    25
100
AcDbLine
 10
422.0818235701
 20
445.3240906737
 30
0.0
 11
421.2995498603
 21
444.7624659083
 31
0.0
  0
LINE
  5
2E3
330
1F
100
AcDbEntity
  8
0
  6
Continuous
 62
     8
370
    25
100
AcDbLine
 10
421.2995498603
 20
444.7624659083
 30
0.0
 11
420.3446685498
 21
444.0025532535
 31
0.0
  0
LINE
  5
2E4
330
1F
100
AcDbEntity
  8
0
  6
Continuous
 62
     8
370
    25
100
AcDbLine
 10
415.4275088733
 20
438.1184637463
 30
0.0
 11
414.4367977207
 21
436.177024982
 31
0.0
  0
LWPOLYLINE
  5
2E5
330
1F
100
AcDbEntity
  8
0
  6
Continuous
 62
     8
370
    25
100
AcDbPolyline
 90
        3
 70
   128
 43
0.0
 10
412.5567107623
 20
428.7305718903
 10
412.5003322189
 20
427.3599512093
 10
412.5067769712
 20
426.5631115563
  0
LWPOLYLINE
  5
2E6
330
1F
100
AcDbEntity
  8
0
  6
Continuous
 62
     8
370
    25
100
AcDbPolyline
 90
        3
 70
   128
 43
0.0
 10
414.0447928732
 20
419.0307309768
 10
414.0940486615
 20
418.9073074526
 10
414.9412094777
 20
417.0548509723
  0
LWPOLYLINE
  5
2E7
330
1F
100
AcDbEntity
  8
0
  6
Continuous
 62
     8
370
    25
100
AcDbPolyline
 90
        3
 70
   128
 43
0.0
 10
419.5872872298
 20
410.9448393724
 10
420.9500580257
 20
409.7850875846
 10
421.2629228061
 20
409.5444990239
  0
LWPOLYLINE
  5
2E8
330
1F
100
AcDbEntity
  8
0
  6
Continuous
 62
     8
370
    25
100
AcDbPolyline
 90
        3
 70
   128
 43
0.0
 10
428.0925645655
 20
406.059808462
 10
428.6261825984
 20
405.9038193813
 10
430.2127464836
 20
405.524322196
  0
LINE
  5
2E9
330
1F
100
AcDbEntity
  8
0
  6
Continuous
 62
     8
370
    25
100
AcDbLine
 10
437.8827466791
 20
405.3488200447
 30
0.0
 11
440.011496765
 21
405.783259674
 31
0.0
  0
LINE
  5
2EA
330
1F
100
AcDbEntity
  8
0
  6
Continuous
 62
     8
370
    25
100
AcDbLine
 10
447.0068692392
 20
408.9552884838
 30
0.0
 11
447.7891429489
 21
409.5169132492
 31
0.0
  0
LINE
  5
2EB
330
1F
100
AcDbEntity
  8
0
  6
Continuous
 62
     8
370
    25
100
AcDbLine
 10
450.5674719041
 20
405.8202275923
 30
0.0
 11
449.6224402612
 21
405.1417088053
 31
0.0
  0
LWPOLYLINE
  5
2EC
330
1F
100
AcDbEntity
  8
0
  6
Continuous
 62
     8
370
    25
100
AcDbPolyline
 90
        3
 70
   128
 43
0.0
 10
441.161851508
 20
401.3042742303
 10
439.294974429
 20
400.8967554114
 10
438.5850533074
 20
400.7781123659
  0
LWPOLYLINE
  5
2ED
330
1F
100
AcDbEntity
  8
0
  6
Continuous
 62
     8
370
    25
100
AcDbPolyline
 90
        3
 70
   128
 43
0.0
 10
429.2963697737
 20
400.9916720829
 10
427.0118578499
 20
401.5560684643
 10
426.7477943724
 20
401.635299801
  0
LINE
  5
2EE
330
1F
100
AcDbEntity
  8
0
  6
Continuous
 62
     8
370
    25
100
AcDbLine
 10
418.4702514833
 20
405.85863161
 30
0.0
 11
416.4548768824
 21
407.5429731897
 31
0.0
  0
LWPOLYLINE
  5
2EF
330
1F
100
AcDbEntity
  8
0
  6
Continuous
 62
     8
370
    25
100
AcDbPolyline
 90
        3
 70
   128
 43
0.0
 10
410.8281462615
 20
414.9412535048
 10
410.7663883989
 20
415.062075845
 10
409.7442506974
 20
417.3307450405
  0
LWPOLYLINE
  5
2F0
330
1F
100
AcDbEntity
  8
0
  6
Continuous
 62
     8
370
    25
100
AcDbPolyline
 90
        3
 70
   128
 43
0.0
 10
407.8840567892
 20
426.4404099235
 10
407.875160796
 20
427.018268238
 10
407.9441382712
 20
429.0603670674
  0
LWPOLYLINE
  5
2F1
330
1F
100
AcDbEntity
  8
0
  6
Continuous
 62
     8
370
    25
100
AcDbPolyline
 90
        3
 70
   128
 43
0.0
 10
410.2213039225
 20
438.0781458608
 10
410.657401306
 20
439.0002911827
 10
411.4109008735
 20
440.4100984252
  0
LINE
  5
2F2
330
1F
100
AcDbEntity
  8
0
  6
Continuous
 62
     8
370
    25
100
AcDbLine
 10
417.3752694553
 20
447.5475991062
 30
0.0
 11
418.5212209051
 21
448.4591515652
 31
0.0
  0
LINE
  5
2F3
330
1F
100
AcDbEntity
  8
0
  6
Continuous
 62
     8
370
    25
100
AcDbLine
 10
418.5212209051
 20
448.4591515652
 30
0.0
 11
419.466252548
 21
449.1376703522
 31
0.0
  0
LWPOLYLINE
  5
2F4
330
1F
100
AcDbEntity
  8
0
  6
Continuous
 62
     8
370
    25
100
AcDbPolyline
 90
        3
 70
   128
 43
0.0
 10
427.9268413013
 20
452.9751049272
 10
429.7937109297
 20
453.3826237461
 10
430.5036395019
 20
453.5012667916
  0
LWPOLYLINE
  5
2F5
330
1F
100
AcDbEntity
  8
0
  6
Continuous
 62
     8
370
    25
100
AcDbPolyline
 90
        3
 70
   128
 43
0.0
 10
439.7923230355
 20
453.2877070746
 10
442.0768349593
 20
452.7233106932
 10
442.3408909863
 20
452.6440793565
  0
LINE
  5
2F6
330
1F
100
AcDbEntity
  8
0
  6
Continuous
 62
     8
370
    25
100
AcDbLine
 10
450.618441326
 20
448.4207475475
 30
0.0
 11
452.6338159269
 21
446.7364059678
 31
0.0
  0
LWPOLYLINE
  5
2F7
330
1F
100
AcDbEntity
  8
0
  6
Continuous
 62
     8
370
    25
100
AcDbPolyline
 90
        3
 70
   128
 43
0.0
 10
458.2605465477
 20
439.3381256527
 10
458.3223044103
 20
439.2173033125
 10
459.3444421118
 20
436.948634117
  0
LWPOLYLINE
  5
2F8
330
1F
100
AcDbEntity
  8
0
  6
Continuous
 62
     8
370
    25
100
AcDbPolyline
 90
        3
 70
   128
 43
0.0
 10
461.20463602
 20
427.838969234
 10
461.2135320132
 20
427.2611109195
 10
461.1445545381
 20
425.2190120901
  0
LWPOLYLINE
  5
2F9
330
1F
100
AcDbEntity
  8
0
  6
Continuous
 62
     8
370
    25
100
AcDbPolyline
 90
        3
 70
   128
 43
0.0
 10
458.8673814362
 20
416.2012332967
 10
458.4312915033
 20
415.2790879748
 10
457.6777919357
 20
413.8692807323
  0
LINE
  5
2FA
330
1F
100
AcDbEntity
  8
0
  6
Continuous
 62
     8
370
    25
100
AcDbLine
 10
451.713423354
 20
406.7317800513
 30
0.0
 11
450.5674719041
 21
405.8202275923
 31
0.0
  0
SPLINE
  5
2FB
330
1F
100
AcDbEntity
  8
0
  6
Continuous
 62
     8
370
    25
100
AcDbSpline
210
0.0
220
0.0
230
1.0
 70
     8
 71
     3
 72
     9
 73
     5
 74
     0
 42
0.000000001
 43
0.00000001
 40
0.0
 40
0.0
 40
0.0
 40
0.0
 40
0.4794755264897233
 40
1.0
 40
1.0
 40
1.0
 40
1.0
 10
441.657136303724
 20
432.5493484652375
 30
0.0
 10
442.601736142421
 20
433.267766887634
 30
0.0
 10
444.5718050750577
 20
434.766109102629
 30
0.0
 10
446.5738243641937
 20
436.288754673363
 30
0.0
 10
447.6159244006287
 20
437.0813289574121
 30
0.0
  0
SPLINE
  5
2FC
330
1F
100
AcDbEntity
  8
0
  6
Continuous
 62
     8
370
    25
100
AcDbSpline
210
0.0
220
0.0
230
1.0
 70
     8
 71
     3
 72
     9
 73
     5
 74
     0
 42
0.000000001
 43
0.00000001
 40
0.0
 40
0.0
 40
0.0
 40
0.0
 40
0.6626738678822881
 40
1.0
 40
1.0
 40
1.0
 40
1.0
 10
421.4727684085976
 20
417.1980502000783
 30
0.0
 10
422.7996267293778
 20
418.2071971224693
 30
0.0
 10
424.8019062594588
 20
419.7300381024765
 30
0.0
 10
426.7682555162997
 20
421.2255540740439
 30
0.0
 10
427.4315565055024
 20
421.730030692253
 30
0.0
  0
SPLINE
  5
2FD
330
1F
100
AcDbEntity
  8
0
  6
Continuous
 62
     8
370
    25
100
AcDbSpline
210
0.0
220
0.0
230
1.0
 70
     8
 71
     3
 72
    12
 73
     8
 74
     0
 42
0.000000001
 43
0.00000001
 40
0.0
 40
0.0
 40
0.0
 40
0.0
 40
0.3049411519433112
 40
0.525055248969555
 40
0.7558016988718148
 40
0.9865457590808829
 40
1.0
 40
1.0
 40
1.0
 40
1.0
 10
431.1455293720376
 20
419.6772481231724
 30
0.0
 10
431.0998585971697
 20
419.5769707741661
 30
0.0
 10
431.0212215227175
 20
419.4043107441474
 30
0.0
 10
430.9240344350169
 20
419.1909456748789
 30
0.0
 10
430.8599245107089
 20
419.0501723880874
 30
0.0
 10
430.8256273663817
 20
418.9748866107979
 30
0.0
 10
430.8227428785232
 20
418.968544862043
 30
0.0
 10
430.8225839560639
 20
418.9681954598759
 30
0.0
  0
LWPOLYLINE
  5
2FE
330
1F
100
AcDbEntity
  8
0
  6
Continuous
 62
     8
370
    25
100
AcDbPolyline
 90
        3
 70
   128
 43
0.0
 10
403.942476136
 20
429.34149447
 10
403.8635223334
 20
427.0428413151
 10
403.8736849254
 20
426.3440955114
  0
LWPOLYLINE
  5
2FF
330
1F
100
AcDbEntity
  8
0
  6
Continuous
 62
     8
370
    25
100
AcDbPolyline
 90
        3
 70
   128
 43
0.0
 10
406.017716152
 20
415.8457167363
 10
406.7398487752
 20
414.169249489
 10
407.2554587548
 20
413.11689037
  0
LWPOLYLINE
  5
300
330
1F
100
AcDbEntity
  8
0
  6
Continuous
 62
     8
370
    25
100
AcDbPolyline
 90
        3
 70
   128
 43
0.0
 10
413.7420087283
 20
404.5878587208
 10
414.7558166807
 20
403.6932321182
 10
416.0418315952
 20
402.6656368664
  0
LWPOLYLINE
  5
301
330
1F
100
AcDbEntity
  8
0
  6
Continuous
 62
     8
370
    25
100
AcDbPolyline
 90
        3
 70
   128
 43
0.0
 10
425.5848406976
 20
397.796043559
 10
426.4296769326
 20
397.55127336
 10
428.494463784
 20
397.0611052505
  0
LWPOLYLINE
  5
302
330
1F
100
AcDbEntity
  8
0
  6
Continuous
 62
     8
370
    25
100
AcDbPolyline
 90
        3
 70
   128
 43
0.0
 10
439.2013951367
 20
396.8142190865
 10
439.6035253232
 20
396.8787075869
 10
442.1479582017
 20
397.4158385685
  0
LINE
  5
303
330
1F
100
AcDbEntity
  8
0
  6
Continuous
 62
     8
370
    25
100
AcDbLine
 10
451.8961786454
 20
401.8368007532
 30
0.0
 11
454.2941852635
 21
403.6606339655
 31
0.0
  0
LWPOLYLINE
  5
304
330
1F
100
AcDbEntity
  8
0
  6
Continuous
 62
     8
370
    25
100
AcDbPolyline
 90
        3
 70
   128
 43
0.0
 10
461.155730409
 20
411.8702247656
 10
462.4301745718
 20
414.3450431443
 10
462.5259145325
 20
414.5558005116
  0
LWPOLYLINE
  5
305
330
1F
100
AcDbEntity
  8
0
  6
Continuous
 62
     8
370
    25
100
AcDbPolyline
 90
        3
 70
   128
 43
0.0
 10
465.1455759233
 20
424.9289810109
 10
465.2251704758
 20
427.2365378424
 10
465.2148290699
 20
427.9419722884
  0
LWPOLYLINE
  5
306
330
1F
100
AcDbEntity
  8
0
  6
Continuous
 62
     8
370
    25
100
AcDbPolyline
 90
        3
 70
   128
 43
0.0
 10
463.0733682936
 20
438.4276172063
 10
462.348844034
 20
440.1101296684
 10
461.8302687233
 20
441.1682573995
  0
LWPOLYLINE
  5
307
330
1F
100
AcDbEntity
  8
0
  6
Continuous
 62
     8
370
    25
100
AcDbPolyline
 90
        3
 70
   128
 43
0.0
 10
455.3473173803
 20
449.6909355662
 10
454.3328761285
 20
450.5861470393
 10
453.0432849353
 20
451.6164468518
  0
LWPOLYLINE
  5
308
330
1F
100
AcDbEntity
  8
0
  6
Continuous
 62
     8
370
    25
100
AcDbPolyline
 90
        3
 70
   128
 43
0.0
 10
443.500506801
 20
456.484356328
 10
442.6590158766
 20
456.7281057975
 10
440.5935584729
 20
457.2184080175
  0
LWPOLYLINE
  5
309
330
1F
100
AcDbEntity
  8
0
  6
Continuous
 62
     8
370
    25
100
AcDbPolyline
 90
        3
 70
   128
 43
0.0
 10
429.8813074058
 20
457.4642399243
 10
429.485167486
 20
457.4006715706
 10
426.9454731768
 20
456.8647531709
  0
LINE
  5
30A
330
1F
100
AcDbEntity
  8
0
  6
Continuous
 62
     8
370
    25
100
AcDbLine
 10
417.1868889754
 20
452.4387208662
 30
0.0
 11
414.8011087602
 21
450.6242977372
 31
0.0
  0
LWPOLYLINE
  5
30B
330
1F
100
AcDbEntity
  8
0
  6
Continuous
 62
     8
370
    25
100
AcDbPolyline
 90
        3
 70
   128
 43
0.0
 10
407.9300790256
 20
442.4041345632
 10
406.6585182374
 20
439.9343360132
 10
406.5661235874
 20
439.7310087374
  0
LINE
  5
30C
330
1F
100
AcDbEntity
  8
0
  6
Continuous
 62
     8
370
    25
100
AcDbLine
 10
498.6391562199
 20
225.802739515
 30
0.0
 11
494.5443450635
 21
225.6396910093
 31
0.0
  0
LINE
  5
30D
330
1F
100
AcDbEntity
  8
0
  6
Continuous
 62
     8
370
    25
100
AcDbLine
 10
254.5443504279
 20
225.6396910093
 30
0.0
 11
250.4495411342
 21
225.802739515
 31
0.0
  0
LINE
  5
30E
330
1F
100
AcDbEntity
  8
0
  6
Continuous
 62
     8
370
    25
100
AcDbLine
 10
250.4495411342
 20
628.4766396425
 30
0.0
 11
254.5443504279
 21
628.6396881482
 31
0.0
  0
LINE
  5
30F
330
1F
100
AcDbEntity
  8
0
  6
Continuous
 62
     8
370
    25
100
AcDbLine
 10
494.5443450635
 20
628.6396881482
 30
0.0
 11
498.6391562199
 21
628.4766396425
 31
0.0
  0
ENDSEC
  0
SECTION
  2
OBJECTS
  0
DICTIONARY
  5
C
330
0
100
AcDbDictionary
281
     1
  3
ACAD_GROUP
350
D
  3
ACAD_LAYOUT
350
1A
  3
ACAD_MLINESTYLE
350
17
  3
ACAD_PLOTSETTINGS
350
19
  3
ACAD_PLOTSTYLENAME
350
E
  3
ACAD_SCALELIST
350
47
  0
DICTIONARY
  5
D
102
{ACAD_REACTORS
330
C
102
}
330
C
100
AcDbDictionary
281
     1
  0
DICTIONARY
  5
1A
102
{ACAD_REACTORS
330
C
102
}
330
C
100
AcDbDictionary
281
     1
  3
Layout1
350
1E
  3
Layout2
350
26
  3
Model
350
22
  0
DICTIONARY
  5
17
102
{ACAD_REACTORS
330
C
102
}
330
C
100
AcDbDictionary
281
     1
  3
Standard
350
18
  0
DICTIONARY
  5
19
102
{ACAD_REACTORS
330
C
102
}
330
C
100
AcDbDictionary
281
     1
  0
ACDBDICTIONARYWDFLT
  5
E
102
{ACAD_REACTORS
330
C
102
}
330
C
100
AcDbDictionary
281
     1
  3
Normal
350
F
100
AcDbDictionaryWithDefault
340
F
  0
DICTIONARY
  5
47
102
{ACAD_REACTORS
330
C
102
}
330
C
100
AcDbDictionary
281
     1
  3
A0
350
48
  3
A1
350
49
  3
A2
350
4A
  3
A3
350
4B
  3
A4
350
4C
  3
A5
350
4D
  3
A6
350
4E
  3
A7
350
4F
  3
A8
350
50
  3
A9
350
51
  3
B0
350
52
  3
B1
350
53
  3
B2
350
54
  3
B3
350
55
  3
B4
350
56
  3
B5
350
57
  3
B6
350
58
  3
B7
350
59
  3
B8
350
5A
  3
B9
350
5B
  3
C0
350
5C
  3
C1
350
5D
  3
C2
350
5E
  3
C3
350
5F
  3
C4
350
60
  3
C5
350
61
  3
C6
350
62
  3
C7
350
63
  3
C8
350
64
  3
C9
350
65
  3
D0
350
66
  3
D1
350
67
  3
D2
350
68
  0
LAYOUT
  5
1E
102
{ACAD_REACTORS
330
1A
102
}
330
1A
100
AcDbPlotSettings
  1

  2
none_device
  4

  6

 40
0.0
 41
0.0
 42
0.0
 43
0.0
 44
0.0
 45
0.0
 46
0.0
 47
0.0
 48
0.0
 49
0.0
140
0.0
141
0.0
142
1.0
143
1.0
 70
   688
 72
     1
 73
     0
 74
     5
  7

 75
    16
147
1.0
148
0.0
149
0.0
100
AcDbLayout
  1
Layout1
 70
     1
 71
     1
 10
0.0
 20
0.0
 11
420.0
 21
297.0
 12
0.0
 22
0.0
 32
0.0
 14
1.0000000000E+20
 24
1.0000000000E+20
 34
1.0000000000E+20
 15
-1.0000000000E+20
 25
-1.0000000000E+20
 35
-1.0000000000E+20
146
0.0
 13
0.0
 23
0.0
 33
0.0
 16
1.0
 26
0.0
 36
0.0
 17
0.0
 27
1.0
 37
0.0
 76
     0
330
1B
  0
LAYOUT
  5
26
102
{ACAD_REACTORS
330
1A
102
}
330
1A
100
AcDbPlotSettings
  1

  2
none_device
  4

  6

 40
0.0
 41
0.0
 42
0.0
 43
0.0
 44
0.0
 45
0.0
 46
0.0
 47
0.0
 48
0.0
 49
0.0
140
0.0
141
0.0
142
1.0
143
1.0
 70
   688
 72
     1
 73
     0
 74
     5
  7

 75
    16
147
1.0
148
0.0
149
0.0
100
AcDbLayout
  1
Layout2
 70
     1
 71
     2
 10
0.0
 20
0.0
 11
0.0
 21
0.0
 12
0.0
 22
0.0
 32
0.0
 14
0.0
 24
0.0
 34
0.0
 15
0.0
 25
0.0
 35
0.0
146
0.0
 13
0.0
 23
0.0
 33
0.0
 16
1.0
 26
0.0
 36
0.0
 17
0.0
 27
1.0
 37
0.0
 76
     0
330
23
  0
LAYOUT
  5
22
102
{ACAD_REACTORS
330
1A
102
}
330
1A
100
AcDbPlotSettings
  1

  2
none_device
  4
Letter_(8.50_x_11.00_Inches)
  6

 40
6.35
 41
6.35
 42
6.35000508
 43
6.35000508
 44
215.9
 45
279.4
 46
0.0
 47
0.0
 48
0.0
 49
0.0
140
0.0
141
0.0
142
1.0
143
1.0
 70
  1712
 72
     1
 73
     0
 74
     0
  7

 75
     0
147
1.0
148
0.0
149
0.0
100
AcDbLayout
  1
Model
 70
     1
 71
     0
 10
0.0
 20
0.0
 11
1000.0
 21
800.0
 12
0.0
 22
0.0
 32
0.0
 14
0.0
 24
0.0
 34
0.0
 15
1000.0
 25
800.0
 35
0.0
146
0.0
 13
0.0
 23
0.0
 33
0.0
 16
1.0
 26
0.0
 36
0.0
 17
0.0
 27
1.0
 37
0.0
 76
     0
330
1F
331
29
  0
MLINESTYLE
  5
18
102
{ACAD_REACTORS
330
17
102
}
330
17
100
AcDbMlineStyle
  2
Standard
 70
     0
  3

 62
   256
 51
90.0
 52
90.0
 71
     2
 49
0.5
 62
   256
  6
BYLAYER
 49
-0.5
 62
   256
  6
BYLAYER
  0
ACDBPLACEHOLDER
  5
F
102
{ACAD_REACTORS
330
E
102
}
330
E
  0
SCALE
  5
48
102
{ACAD_REACTORS
330
47
102
}
330
47
100
AcDbScale
 70
     0
300
1:1
140
1.0
141
1.0
290
     1
  0
SCALE
  5
49
102
{ACAD_REACTORS
330
47
102
}
330
47
100
AcDbScale
 70
     0
300
1:2
140
1.0
141
2.0
290
     0
  0
SCALE
  5
4A
102
{ACAD_REACTORS
330
47
102
}
330
47
100
AcDbScale
 70
     0
300
1:4
140
1.0
141
4.0
290
     0
  0
SCALE
  5
4B
102
{ACAD_REACTORS
330
47
102
}
330
47
100
AcDbScale
 70
     0
300
1:5
140
1.0
141
5.0
290
     0
  0
SCALE
  5
4C
102
{ACAD_REACTORS
330
47
102
}
330
47
100
AcDbScale
 70
     0
300
1:8
140
1.0
141
8.0
290
     0
  0
SCALE
  5
4D
102
{ACAD_REACTORS
330
47
102
}
330
47
100
AcDbScale
 70
     0
300
1:10
140
1.0
141
10.0
290
     0
  0
SCALE
  5
4E
102
{ACAD_REACTORS
330
47
102
}
330
47
100
AcDbScale
 70
     0
300
1:16
140
1.0
141
16.0
290
     0
  0
SCALE
  5
4F
102
{ACAD_REACTORS
330
47
102
}
330
47
100
AcDbScale
 70
     0
300
1:20
140
1.0
141
20.0
290
     0
  0
SCALE
  5
50
102
{ACAD_REACTORS
330
47
102
}
330
47
100
AcDbScale
 70
     0
300
1:30
140
1.0
141
30.0
290
     0
  0
SCALE
  5
51
102
{ACAD_REACTORS
330
47
102
}
330
47
100
AcDbScale
 70
     0
300
1:40
140
1.0
141
40.0
290
     0
  0
SCALE
  5
52
102
{ACAD_REACTORS
330
47
102
}
330
47
100
AcDbScale
 70
     0
300
1:50
140
1.0
141
50.0
290
     0
  0
SCALE
  5
53
102
{ACAD_REACTORS
330
47
102
}
330
47
100
AcDbScale
 70
     0
300
1:100
140
1.0
141
100.0
290
     0
  0
SCALE
  5
54
102
{ACAD_REACTORS
330
47
102
}
330
47
100
AcDbScale
 70
     0
300
2:1
140
2.0
141
1.0
290
     0
  0
SCALE
  5
55
102
{ACAD_REACTORS
330
47
102
}
330
47
100
AcDbScale
 70
     0
300
4:1
140
4.0
141
1.0
290
     0
  0
SCALE
  5
56
102
{ACAD_REACTORS
330
47
102
}
330
47
100
AcDbScale
 70
     0
300
8:1
140
8.0
141
1.0
290
     0
  0
SCALE
  5
57
102
{ACAD_REACTORS
330
47
102
}
330
47
100
AcDbScale
 70
     0
300
10:1
140
10.0
141
1.0
290
     0
  0
SCALE
  5
58
102
{ACAD_REACTORS
330
47
102
}
330
47
100
AcDbScale
 70
     0
300
100:1
140
100.0
141
1.0
290
     0
  0
SCALE
  5
59
102
{ACAD_REACTORS
330
47
102
}
330
47
100
AcDbScale
 70
     0
300
1/128" = 1'-0"
140
0.0078125
141
12.0
290
     0
  0
SCALE
  5
5A
102
{ACAD_REACTORS
330
47
102
}
330
47
100
AcDbScale
 70
     0
300
1/64" = 1'-0"
140
0.015625
141
12.0
290
     0
  0
SCALE
  5
5B
102
{ACAD_REACTORS
330
47
102
}
330
47
100
AcDbScale
 70
     0
300
1/32" = 1'-0"
140
0.03125
141
12.0
290
     0
  0
SCALE
  5
5C
102
{ACAD_REACTORS
330
47
102
}
330
47
100
AcDbScale
 70
     0
300
1/16" = 1'-0"
140
0.0625
141
12.0
290
     0
  0
SCALE
  5
5D
102
{ACAD_REACTORS
330
47
102
}
330
47
100
AcDbScale
 70
     0
300
3/32" = 1'-0"
140
0.09375
141
12.0
290
     0
  0
SCALE
  5
5E
102
{ACAD_REACTORS
330
47
102
}
330
47
100
AcDbScale
 70
     0
300
1/8" = 1'-0"
140
0.125
141
12.0
290
     0
  0
SCALE
  5
5F
102
{ACAD_REACTORS
330
47
102
}
330
47
100
AcDbScale
 70
     0
300
3/16" = 1'-0"
140
0.1875
141
12.0
290
     0
  0
SCALE
  5
60
102
{ACAD_REACTORS
330
47
102
}
330
47
100
AcDbScale
 70
     0
300
1/4" = 1'-0"
140
0.25
141
12.0
290
     0
  0
SCALE
  5
61
102
{ACAD_REACTORS
330
47
102
}
330
47
100
AcDbScale
 70
     0
300
3/8" = 1'-0"
140
0.375
141
12.0
290
     0
  0
SCALE
  5
62
102
{ACAD_REACTORS
330
47
102
}
330
47
100
AcDbScale
 70
     0
300
1/2" = 1'-0"
140
0.5
141
12.0
290
     0
  0
SCALE
  5
63
102
{ACAD_REACTORS
330
47
102
}
330
47
100
AcDbScale
 70
     0
300
3/4" = 1'-0"
140
0.75
141
12.0
290
     0
  0
SCALE
  5
64
102
{ACAD_REACTORS
330
47
102
}
330
47
100
AcDbScale
 70
     0
300
1" = 1'-0"
140
1.0
141
12.0
290
     0
  0
SCALE
  5
65
102
{ACAD_REACTORS
330
47
102
}
330
47
100
AcDbScale
 70
     0
300
1-1/2" = 1'-0"
140
1.5
141
12.0
290
     0
  0
SCALE
  5
66
102
{ACAD_REACTORS
330
47
102
}
330
47
100
AcDbScale
 70
     0
300
3" = 1'-0"
140
3.0
141
12.0
290
     0
  0
SCALE
  5
67
102
{ACAD_REACTORS
330
47
102
}
330
47
100
AcDbScale
 70
     0
300
6" = 1'-0"
140
6.0
141
12.0
290
     0
  0
SCALE
  5
68
102
{ACAD_REACTORS
330
47
102
}
330
47
100
AcDbScale
 70
     0
300
1'-0" = 1'-0"
140
12.0
141
12.0
290
     0
  0
ENDSEC
  0
EOF
