  0
SECTION
  2
HEADER
  9
$ACADVER
  1
AC1015
  9
$ACADMAINTVER
 70
     6
  9
$DWGCODEPAGE
  3
ANSI_1252
  9
$INSBASE
 10
0.0
 20
0.0
 30
0.0
  9
$EXTMIN
 10
0.0
 20
0.0
 30
0.0
  9
$EXTMAX
 10
700.0
 20
600.0
 30
0.0
  9
$LIMMIN
 10
0.0
 20
0.0
  9
$LIMMAX
 10
700.0
 20
600.0
  9
$ORTHOMODE
 70
     0
  9
$REGENMODE
 70
     1
  9
$FILLMODE
 70
     1
  9
$QTEXTMODE
 70
     0
  9
$MIRRTEXT
 70
     1
  9
$LTSCALE
 40
1.0
  9
$ATTMODE
 70
     1
  9
$TEXTSIZE
 40
2.8222222222
  9
$TRACEWID
 40
1.0
  9
$TEXTSTYLE
  7
Standard
  9
$CLAYER
  8
0
  9
$CELTYPE
  6
ByLayer
  9
$CECOLOR
 62
   256
  9
$CELTSCALE
 40
1.0
  9
$DISPSILH
 70
     0
  9
$DIMSCALE
 40
1.0
  9
$DIMASZ
 40
2.0
  9
$DIMEXO
 40
1.0
  9
$DIMDLI
 40
3.75
  9
$DIMRND
 40
0.0
  9
$DIMDLE
 40
0.0
  9
$DIMEXE
 40
1.0
  9
$DIMTP
 40
0.0
  9
$DIMTM
 40
0.0
  9
$DIMTXT
 40
8.4666666667
  9
$DIMCEN
 40
2.5
  9
$DIMTSZ
 40
0.0
  9
$DIMTOL
 70
     0
  9
$DIMLIM
 70
     0
  9
$DIMTIH
 70
     1
  9
$DIMTOH
 70
     1
  9
$DIMSE1
 70
     0
  9
$DIMSE2
 70
     0
  9
$DIMTAD
 70
     1
  9
$DIMZIN
 70
     0
  9
$DIMBLK
  1

  9
$DIMASO
 70
     1
  9
$DIMSHO
 70
     1
  9
$DIMPOST
  1

  9
$DIMAPOST
  1

  9
$DIMALT
 70
     0
  9
$DIMALTD
 70
     3
  9
$DIMALTF
 40
0.0393700787
  9
$DIMLFAC
 40
1.0
  9
$DIMTOFL
 70
     1
  9
$DIMTVP
 40
0.0
  9
$DIMTIX
 70
     0
  9
$DIMSOXD
 70
     0
  9
$DIMSAH
 70
     0
  9
$DIMBLK1
  1

  9
$DIMBLK2
  1

  9
$DIMSTYLE
  2
ISO-25
  9
$DIMCLRD
 70
     0
  9
$DIMCLRE
 70
     0
  9
$DIMCLRT
 70
     0
  9
$DIMTFAC
 40
1.0
  9
$DIMGAP
 40
1.524
  9
$DIMJUST
 70
     0
  9
$DIMSD1
 70
     0
  9
$DIMSD2
 70
     0
  9
$DIMTOLJ
 70
     0
  9
$DIMTZIN
 70
     0
  9
$DIMALTZ
 70
     0
  9
$DIMALTTZ
 70
     0
  9
$DIMUPT
 70
     0
  9
$DIMDEC
 70
     2
  9
$DIMTDEC
 70
     2
  9
$DIMALTU
 70
     2
  9
$DIMALTTD
 70
     3
  9
$DIMTXSTY
  7
Standard
  9
$DIMAUNIT
 70
     0
  9
$DIMADEC
 70
     2
  9
$DIMALTRND
 40
0.0
  9
$DIMAZIN
 70
     0
  9
$DIMDSEP
 70
    44
  9
$DIMATFIT
 70
     3
  9
$DIMFRAC
 70
     0
  9
$DIMLDRBLK
  1

  9
$DIMLUNIT
 70
     2
  9
$DIMLWD
 70
    -2
  9
$DIMLWE
 70
    -2
  9
$DIMTMOVE
 70
     0
  9
$LUNITS
 70
     2
  9
$LUPREC
 70
     2
  9
$SKETCHINC
 40
1.0
  9
$FILLETRAD
 40
10.0
  9
$AUNITS
 70
     0
  9
$AUPREC
 70
     2
  9
$MENU
  1
.
  9
$ELEVATION
 40
0.0
  9
$PELEVATION
 40
0.0
  9
$THICKNESS
 40
0.0
  9
$LIMCHECK
 70
     0
  9
$CHAMFERA
 40
0.0
  9
$CHAMFERB
 40
0.0
  9
$CHAMFERC
 40
0.0
  9
$CHAMFERD
 40
0.0
  9
$SKPOLY
 70
     0
  9
$TDCREATE
 40
2458499.446921551
  9
$TDUCREATE
 40
2458499.363588218
  9
$TDUPDATE
 40
2458499.4469239
  9
$TDUUPDATE
 40
2458499.363590567
  9
$TDINDWG
 40
0.0000000116
  9
$TDUSRTIMER
 40
0.0000000116
  9
$USRTIMER
 70
     1
  9
$ANGBASE
 50
0.0
  9
$ANGDIR
 70
     0
  9
$PDMODE
 70
     0
  9
$PDSIZE
 40
-1.0
  9
$PLINEWID
 40
0.0
  9
$SPLFRAME
 70
     0
  9
$SPLINETYPE
 70
     6
  9
$SPLINESEGS
 70
     8
  9
$HANDSEED
  5
236
  9
$SURFTAB1
 70
     6
  9
$SURFTAB2
 70
     6
  9
$SURFTYPE
 70
     6
  9
$SURFU
 70
     6
  9
$SURFV
 70
     6
  9
$UCSBASE
  2

  9
$UCSNAME
  2

  9
$UCSORG
 10
0.0
 20
0.0
 30
0.0
  9
$UCSXDIR
 10
1.0
 20
0.0
 30
0.0
  9
$UCSYDIR
 10
0.0
 20
1.0
 30
0.0
  9
$UCSORTHOREF
  2

  9
$UCSORTHOVIEW
 70
     0
  9
$UCSORGTOP
 10
0.0
 20
0.0
 30
0.0
  9
$UCSORGBOTTOM
 10
0.0
 20
0.0
 30
0.0
  9
$UCSORGLEFT
 10
0.0
 20
0.0
 30
0.0
  9
$UCSORGRIGHT
 10
0.0
 20
0.0
 30
0.0
  9
$UCSORGFRONT
 10
0.0
 20
0.0
 30
0.0
  9
$UCSORGBACK
 10
0.0
 20
0.0
 30
0.0
  9
$PUCSBASE
  2

  9
$PUCSNAME
  2

  9
$PUCSORG
 10
0.0
 20
0.0
 30
0.0
  9
$PUCSXDIR
 10
1.0
 20
0.0
 30
0.0
  9
$PUCSYDIR
 10
0.0
 20
1.0
 30
0.0
  9
$PUCSORTHOREF
  2

  9
$PUCSORTHOVIEW
 70
     0
  9
$PUCSORGTOP
 10
0.0
 20
0.0
 30
0.0
  9
$PUCSORGBOTTOM
 10
0.0
 20
0.0
 30
0.0
  9
$PUCSORGLEFT
 10
0.0
 20
0.0
 30
0.0
  9
$PUCSORGRIGHT
 10
0.0
 20
0.0
 30
0.0
  9
$PUCSORGFRONT
 10
0.0
 20
0.0
 30
0.0
  9
$PUCSORGBACK
 10
0.0
 20
0.0
 30
0.0
  9
$USERI1
 70
     0
  9
$USERI2
 70
     0
  9
$USERI3
 70
     0
  9
$USERI4
 70
     0
  9
$USERI5
 70
     0
  9
$USERR1
 40
0.0
  9
$USERR2
 40
0.0
  9
$USERR3
 40
0.0
  9
$USERR4
 40
0.0
  9
$USERR5
 40
0.0
  9
$WORLDVIEW
 70
     1
  9
$SHADEDGE
 70
     3
  9
$SHADEDIF
 70
    70
  9
$TILEMODE
 70
     1
  9
$MAXACTVP
 70
    64
  9
$PINSBASE
 10
0.0
 20
0.0
 30
0.0
  9
$PLIMCHECK
 70
     0
  9
$PEXTMIN
 10
1.0000000000E+20
 20
1.0000000000E+20
 30
1.0000000000E+20
  9
$PEXTMAX
 10
-1.0000000000E+20
 20
-1.0000000000E+20
 30
-1.0000000000E+20
  9
$PLIMMIN
 10
0.0
 20
0.0
  9
$PLIMMAX
 10
420.0
 20
297.0
  9
$UNITMODE
 70
     0
  9
$VISRETAIN
 70
     1
  9
$PLINEGEN
 70
     0
  9
$PSLTSCALE
 70
     1
  9
$TREEDEPTH
 70
  3020
  9
$CMLSTYLE
  2
Standard
  9
$CMLJUST
 70
     0
  9
$CMLSCALE
 40
20.0
  9
$PROXYGRAPHICS
 70
     1
  9
$MEASUREMENT
 70
     1
  9
$CELWEIGHT
370
    -1
  9
$ENDCAPS
280
     0
  9
$JOINSTYLE
280
     0
  9
$LWDISPLAY
290
     1
  9
$INSUNITS
 70
     4
  9
$HYPERLINKBASE
  1

  9
$STYLESHEET
  1

  9
$XEDIT
290
     1
  9
$CEPSNTYPE
380
     0
  9
$PSTYLEMODE
290
     1
  9
$FINGERPRINTGUID
  2
{474FC31E-046C-45CD-BA34-2523D7B0F085}
  9
$VERSIONGUID
  2
{FAEB1C32-E019-11D5-929B-00C0DF256EC4}
  9
$EXTNAMES
290
     1
  9
$PSVPSCALE
 40
0.0
  9
$OLESTARTUP
290
     0
  0
ENDSEC
  0
SECTION
  2
CLASSES
  0
CLASS
  1
ACDBDICTIONARYWDFLT
  2
AcDbDictionaryWithDefault
  3
ObjectDBX Classes
 90
        0
280
     0
281
     0
  0
CLASS
  1
VISUALSTYLE
  2
AcDbVisualStyle
  3
ObjectDBX Classes
 90
     4095
280
     0
281
     0
  0
CLASS
  1
MATERIAL
  2
AcDbMaterial
  3
ObjectDBX Classes
 90
     1153
280
     0
281
     0
  0
CLASS
  1
SCALE
  2
AcDbScale
  3
ObjectDBX Classes
 90
     1153
280
     0
281
     0
  0
CLASS
  1
TABLESTYLE
  2
AcDbTableStyle
  3
ObjectDBX Classes
 90
     4095
280
     0
281
     0
  0
CLASS
  1
MLEADERSTYLE
  2
AcDbMLeaderStyle
  3
ACDB_MLEADERSTYLE_CLASS
 90
     4095
280
     0
281
     0
  0
CLASS
  1
SUN
  2
AcDbSun
  3
SCENEOE
 90
     1153
280
     0
281
     0
  0
CLASS
  1
ACDBPLACEHOLDER
  2
AcDbPlaceHolder
  3
ObjectDBX Classes
 90
        0
280
     0
281
     0
  0
CLASS
  1
LAYOUT
  2
AcDbLayout
  3
ObjectDBX Classes
 90
        0
280
     0
281
     0
  0
ENDSEC
  0
SECTION
  2
TABLES
  0
TABLE
  2
VPORT
  5
8
330
0
100
AcDbSymbolTable
 70
     1
  0
VPORT
  5
29
330
8
100
AcDbSymbolTableRecord
100
AcDbViewportTableRecord
  2
*Active
 70
     0
 10
0.0
 20
0.0
 11
1.0
 21
1.0
 12
350.0
 22
300.0
 13
0.0
 23
0.0
 14
10.0
 24
10.0
 15
10.0
 25
10.0
 16
0.0
 26
0.0
 36
1.0
 17
0.0
 27
0.0
 37
0.0
 40
600.0
 41
1.1666666667
 42
50.0
 43
0.0
 44
0.0
 50
0.0
 51
0.0
 71
     0
 72
  2000
 73
     1
 74
     3
 75
     0
 76
     0
 77
     0
 78
     0
281
     0
 65
     1
110
0.0
120
0.0
130
0.0
111
1.0
121
0.0
131
0.0
112
0.0
122
1.0
132
0.0
 79
     0
146
0.0
  0
ENDTAB
  0
TABLE
  2
LTYPE
  5
5
330
0
100
AcDbSymbolTable
 70
     6
  0
LTYPE
  5
14
330
5
100
AcDbSymbolTableRecord
100
AcDbLinetypeTableRecord
  2
ByBlock
 70
     0
  3

 72
    65
 73
     0
 40
0.0
  0
LTYPE
  5
15
330
5
100
AcDbSymbolTableRecord
100
AcDbLinetypeTableRecord
  2
ByLayer
 70
     0
  3

 72
    65
 73
     0
 40
0.0
  0
LTYPE
  5
16
330
5
100
AcDbSymbolTableRecord
100
AcDbLinetypeTableRecord
  2
Continuous
 70
     0
  3
Solid line
 72
    65
 73
     0
 40
0.0
  0
LTYPE
  5
6E
330
5
100
AcDbSymbolTableRecord
100
AcDbLinetypeTableRecord
  2
HIDDEN
 70
     0
  3
Hidden __ __ __ __ __ __ __ __ __ __ __ __ __ __
 72
    65
 73
     2
 40
1.905
 49
1.27
 74
     0
 49
-0.635
 74
     0
  0
LTYPE
  5
6F
330
5
100
AcDbSymbolTableRecord
100
AcDbLinetypeTableRecord
  2
PHANTOM
 70
     0
  3
Phantom ______  __  __  ______  __  __  ______
 72
    65
 73
     6
 40
12.7
 49
6.35
 74
     0
 49
-1.27
 74
     0
 49
1.27
 74
     0
 49
-1.27
 74
     0
 49
1.27
 74
     0
 49
-1.27
 74
     0
  0
LTYPE
  5
70
330
5
100
AcDbSymbolTableRecord
100
AcDbLinetypeTableRecord
  2
CENTER
 70
     0
  3
Center ____ _ ____ _ ____ _ ____ _ ____ _ ____
 72
    65
 73
     4
 40
10.16
 49
6.35
 74
     0
 49
-1.27
 74
     0
 49
1.27
 74
     0
 49
-1.27
 74
     0
  0
LTYPE
  5
71
330
5
100
AcDbSymbolTableRecord
100
AcDbLinetypeTableRecord
  2
CENTERX2
 70
     0
  3
Center (2x) ________  __  ________  __  _____
 72
    65
 73
     4
 40
20.32
 49
12.7
 74
     0
 49
-2.54
 74
     0
 49
2.54
 74
     0
 49
-2.54
 74
     0
  0
LTYPE
  5
72
330
5
100
AcDbSymbolTableRecord
100
AcDbLinetypeTableRecord
  2
DOT2
 70
     0
  3
Dot (.5x) ........................................
 72
    65
 73
     2
 40
0.635
 49
0.0
 74
     0
 49
-0.635
 74
     0
  0
ENDTAB
  0
TABLE
  2
LAYER
  5
2
330
0
100
AcDbSymbolTable
 70
     2
  0
LAYER
  5
10
330
2
100
AcDbSymbolTableRecord
100
AcDbLayerTableRecord
  2
0
 70
     0
 62
     7
  6
Continuous
370
    -3
390
F
  0
LAYER
  5
73
330
2
100
AcDbSymbolTableRecord
100
AcDbLayerTableRecord
  2
TABLE_BL1
 70
     0
 62
   179
  6
Continuous
370
    -3
390
F
  0
ENDTAB
  0
TABLE
  2
STYLE
  5
3
330
0
100
AcDbSymbolTable
 70
     1
  0
STYLE
  5
11
330
3
100
AcDbSymbolTableRecord
100
AcDbTextStyleTableRecord
  2
Standard
 70
     0
 40
0.0
 41
1.0
 50
0.0
 71
     0
 42
2.8222222222
  3
txt
  4

  0
ENDTAB
  0
TABLE
  2
VIEW
  5
6
330
0
100
AcDbSymbolTable
 70
     0
  0
ENDTAB
  0
TABLE
  2
UCS
  5
7
330
0
100
AcDbSymbolTable
 70
     0
  0
ENDTAB
  0
TABLE
  2
APPID
  5
9
330
0
100
AcDbSymbolTable
 70
     1
  0
APPID
  5
12
330
9
100
AcDbSymbolTableRecord
100
AcDbRegAppTableRecord
  2
ACAD
 70
     0
  0
ENDTAB
  0
TABLE
  2
DIMSTYLE
  5
A
330
0
100
AcDbSymbolTable
 70
     1
100
AcDbDimStyleTable
  0
DIMSTYLE
105
27
330
A
100
AcDbSymbolTableRecord
100
AcDbDimStyleTableRecord
  2
ISO-25
 70
     0
 41
2.5
 42
0.625
 43
3.75
 44
1.25
 73
     0
 74
     0
 77
     1
 78
     8
140
2.5
141
2.5
143
0.0393700787
147
0.625
171
     3
172
     1
178
     0
271
     2
272
     2
274
     3
278
    44
283
     0
284
     8
340
11
  0
ENDTAB
  0
TABLE
  2
BLOCK_RECORD
  5
1
330
0
100
AcDbSymbolTable
 70
     1
  0
BLOCK_RECORD
  5
1F
330
1
100
AcDbSymbolTableRecord
100
AcDbBlockTableRecord
  2
*Model_Space
340
22
  0
BLOCK_RECORD
  5
1B
330
1
100
AcDbSymbolTableRecord
100
AcDbBlockTableRecord
  2
*Paper_Space
340
1E
  0
BLOCK_RECORD
  5
23
330
1
100
AcDbSymbolTableRecord
100
AcDbBlockTableRecord
  2
*Paper_Space0
340
26
  0
ENDTAB
  0
ENDSEC
  0
SECTION
  2
BLOCKS
  0
BLOCK
  5
20
330
1F
100
AcDbEntity
  8
0
100
AcDbBlockBegin
  2
*Model_Space
 70
     0
 10
0.0
 20
0.0
 30
0.0
  3
*Model_Space
  1

  0
ENDBLK
  5
21
330
1F
100
AcDbEntity
  8
0
100
AcDbBlockEnd
  0
BLOCK
  5
1C
330
1B
100
AcDbEntity
 67
     1
  8
0
100
AcDbBlockBegin
  2
*Paper_Space
 70
     0
 10
0.0
 20
0.0
 30
0.0
  3
*Paper_Space
  1

  0
ENDBLK
  5
1D
330
1B
100
AcDbEntity
 67
     1
  8
0
100
AcDbBlockEnd
  0
BLOCK
  5
24
330
23
100
AcDbEntity
  8
0
100
AcDbBlockBegin
  2
*Paper_Space0
 70
     0
 10
0.0
 20
0.0
 30
0.0
  3
*Paper_Space0
  1

  0
ENDBLK
  5
25
330
23
100
AcDbEntity
  8
0
100
AcDbBlockEnd
  0
ENDSEC
  0
SECTION
  2
ENTITIES
  0
ARC
  5
74
330
1F
100
AcDbEntity
  8
0
  6
Continuous
 62
     7
370
    25
100
AcDbCircle
 10
568.5238518479
 20
400.0790375802
 30
0.0
 40
51.49999999999989
100
AcDbArc
 50
0.0
 51
90.0
  0
LINE
  5
75
330
1F
100
AcDbEntity
  8
0
  6
Continuous
 62
     7
370
    25
100
AcDbLine
 10
620.023864341
 20
400.0790408298
 30
0.0
 11
620.023864341
 21
160.0790387437
 31
0.0
  0
LINE
  5
76
330
1F
100
AcDbEntity
  8
0
  6
Continuous
 62
     7
370
    25
100
AcDbLine
 10
620.023864341
 20
400.0790408298
 30
0.0
 11
618.5238538506
 21
400.0790408298
 31
0.0
  0
ARC
  5
77
330
1F
100
AcDbEntity
  8
0
  6
Continuous
 62
     7
370
    25
100
AcDbCircle
 10
568.5238518479
 20
400.0790375802
 30
0.0
 40
50.0
100
AcDbArc
 50
0.0
 51
90.0
  0
LINE
  5
78
330
1F
100
AcDbEntity
  8
0
  6
Continuous
 62
     7
370
    25
100
AcDbLine
 10
568.5238568308
 20
450.079030399
 30
0.0
 11
498.5238490822
 21
450.079030399
 31
0.0
  0
ARC
  5
79
330
1F
100
AcDbEntity
  8
0
  6
Continuous
 62
     7
370
    25
100
AcDbCircle
 10
568.5238518479
 20
160.0790375802
 30
0.0
 40
49.99999999999997
100
AcDbArc
 50
270.0
 51
0.0
  0
LINE
  5
7A
330
1F
100
AcDbEntity
  8
0
  6
Continuous
 62
     7
370
    25
100
AcDbLine
 10
620.023864341
 20
160.0790387437
 30
0.0
 11
618.5238538506
 21
160.0790387437
 31
0.0
  0
LINE
  5
7B
330
1F
100
AcDbEntity
  8
0
  6
Continuous
 62
     7
370
    25
100
AcDbLine
 10
448.5238520624
 20
400.0790408298
 30
0.0
 11
448.5238520624
 21
160.0790387437
 31
0.0
  0
ARC
  5
7C
330
1F
100
AcDbEntity
  8
0
  6
Continuous
 62
     7
370
    25
100
AcDbCircle
 10
498.5238518479
 20
400.0790375802
 30
0.0
 40
49.99999999999994
100
AcDbArc
 50
90.0
 51
180.0
  0
LINE
  5
7D
330
1F
100
AcDbEntity
  8
0
  6
Continuous
 62
     7
370
    25
100
AcDbLine
 10
618.5238538506
 20
160.0790387437
 30
0.0
 11
618.5238538506
 21
400.0790408298
 31
0.0
  0
LINE
  5
7E
330
1F
100
AcDbEntity
  8
0
  6
Continuous
 62
     7
370
    25
100
AcDbLine
 10
498.5238490822
 20
110.0790417239
 30
0.0
 11
568.5238568308
 21
110.0790417239
 31
0.0
  0
ARC
  5
7F
330
1F
100
AcDbEntity
  8
0
  6
Continuous
 62
     7
370
    25
100
AcDbCircle
 10
498.5238518479
 20
160.0790375802
 30
0.0
 40
50.00000000000003
100
AcDbArc
 50
180.0
 51
270.0
  0
LINE
  5
80
330
1F
100
AcDbEntity
  8
0
  6
Continuous
 62
     7
370
    25
100
AcDbLine
 10
568.5238568308
 20
450.079030399
 30
0.0
 11
568.5238568308
 21
448.085687165
 31
0.0
  0
SPLINE
  5
81
330
1F
100
AcDbEntity
  8
0
  6
Continuous
 62
     7
370
    25
100
AcDbSpline
210
0.0
220
0.0
230
1.0
 70
     8
 71
     3
 72
     9
 73
     5
 74
     0
 42
0.000000001
 43
0.00000001
 40
0.0
 40
0.0
 40
0.0
 40
0.0
 40
0.4999575335273718
 40
1.0
 40
1.0
 40
1.0
 40
1.0
 10
498.5238490822059
 20
448.085687164972
 30
0.0
 10
510.1895260917166
 20
448.0731857985622
 30
0.0
 10
533.5228618796691
 20
448.0481809420066
 30
0.0
 10
556.8561979241119
 20
448.0731843827782
 30
0.0
 10
568.5238568308098
 20
448.085687164972
 30
0.0
  0
LINE
  5
82
330
1F
100
AcDbEntity
  8
0
  6
Continuous
 62
     7
370
    25
100
AcDbLine
 10
498.5238490822
 20
450.079030399
 30
0.0
 11
498.5238490822
 21
448.085687165
 31
0.0
  0
LINE
  5
83
330
1F
100
AcDbEntity
  8
0
  6
Continuous
 62
     7
370
    25
100
AcDbLine
 10
568.5238568308
 20
110.0790417239
 30
0.0
 11
568.5238568308
 21
112.072384958
 31
0.0
  0
SPLINE
  5
84
330
1F
100
AcDbEntity
  8
0
  6
Continuous
 62
     7
370
    25
100
AcDbSpline
210
0.0
220
0.0
230
1.0
 70
     8
 71
     3
 72
    21
 73
    17
 74
     0
 42
0.000000001
 43
0.00000001
 40
0.0
 40
0.0
 40
0.0
 40
0.0
 40
0.067501470472333
 40
0.1335523089999437
 40
0.1981502947653483
 40
0.2612925645088278
 40
0.3229769065413465
 40
0.3832013634288567
 40
0.441963467668724
 40
0.4992618269309596
 40
0.5832874723055629
 40
0.6670895913278428
 40
0.7506649835754491
 40
0.8340106492102417
 40
0.9171233021730755
 40
1.0
 40
1.0
 40
1.0
 40
1.0
 10
616.4279757263405
 20
160.0790387436845
 30
0.0
 10
616.3814567046309
 20
158.3836446431235
 30
0.0
 10
616.2894183724545
 20
155.0292910977796
 30
0.0
 10
615.4897156823541
 20
150.105772752344
 30
0.0
 10
614.2538639052873
 20
145.3936636356528
 30
0.0
 10
612.5800561910737
 20
140.9331712006087
 30
0.0
 10
610.5277357137609
 20
136.7570782795789
 30
0.0
 10
608.1419588324397
 20
132.8908362922089
 30
0.0
 10
605.4715563462673
 20
129.3527169283763
 30
0.0
 10
602.0875428673374
 20
125.6308311295263
 30
0.0
 10
597.8304684487201
 20
121.8845879442079
 30
0.0
 10
592.5676068819221
 20
118.3660832034326
 30
0.0
 10
586.9029483856372
 20
115.572737442376
 30
0.0
 10
580.9380830498945
 20
113.5673159532349
 30
0.0
 10
574.7779402953674
 20
112.3032799383528
 30
0.0
 10
570.6065747762972
 20
112.1492769793075
 30
0.0
 10
568.5238568308098
 20
112.0723849579789
 30
0.0
  0
LINE
  5
85
330
1F
100
AcDbEntity
  8
0
  6
Continuous
 62
     7
370
    25
100
AcDbLine
 10
618.5238538506
 20
160.0790387437
 30
0.0
 11
616.4279757263
 21
160.0790387437
 31
0.0
  0
LINE
  5
86
330
1F
100
AcDbEntity
  8
0
  6
Continuous
 62
     7
370
    25
100
AcDbLine
 10
618.5238538506
 20
400.0790408298
 30
0.0
 11
616.4300320866
 21
400.0790408298
 31
0.0
  0
SPLINE
  5
87
330
1F
100
AcDbEntity
  8
0
  6
Continuous
 62
     7
370
    25
100
AcDbSpline
210
0.0
220
0.0
230
1.0
 70
     8
 71
     3
 72
    21
 73
    17
 74
     0
 42
0.000000001
 43
0.00000001
 40
0.0
 40
0.0
 40
0.0
 40
0.0
 40
0.0828002562203981
 40
0.165836226364334
 40
0.2491047856291388
 40
0.3117266936783892
 40
0.3744765501916719
 40
0.4373529070354806
 40
0.5003542417092139
 40
0.5771200500630117
 40
0.6564898625648203
 40
0.7384593731447345
 40
0.8016596405526669
 40
0.866318002267606
 40
0.9324325079870839
 40
1.0
 40
1.0
 40
1.0
 40
1.0
 10
568.5238568308098
 20
448.085687164972
 30
0.0
 10
570.6046894341724
 20
448.0089433843151
 30
0.0
 10
574.7722783087647
 20
447.8552373505174
 30
0.0
 10
580.9267938309343
 20
446.5934584586328
 30
0.0
 10
586.3893865968811
 20
444.7590140287667
 30
0.0
 10
591.1352547828722
 20
442.5177604371619
 30
0.0
 10
595.1979177459015
 20
440.0860826601628
 30
0.0
 10
599.0081044026791
 20
437.2587560171633
 30
0.0
 10
602.780589063553
 20
433.831893936378
 30
0.0
 10
606.4315596775253
 20
429.6966528261319
 30
0.0
 10
609.8177475840779
 20
424.7508833065427
 30
0.0
 10
612.3940294159967
 20
419.7182695202574
 30
0.0
 10
614.2495678373399
 20
414.7783510047876
 30
0.0
 10
615.4878255713277
 20
410.0619349548591
 30
0.0
 10
616.2891519563894
 20
405.1337796674288
 30
0.0
 10
616.38136704187
 20
401.7761185539591
 30
0.0
 10
616.4279757263405
 20
400.079040829847
 30
0.0
  0
SPLINE
  5
88
330
1F
100
AcDbEntity
  8
0
  6
Continuous
 62
     7
370
    25
100
AcDbSpline
210
0.0
220
0.0
230
1.0
 70
     8
 71
     3
 72
    24
 73
    20
 74
     0
 42
0.000000001
 43
0.00000001
 40
0.0
 40
0.0
 40
0.0
 40
0.0
 40
0.056832530197595
 40
0.1175217308883537
 40
0.1820696443038251
 40
0.2499276878365533
 40
0.2890990740891087
 40
0.3310434465046286
 40
0.3828147123266134
 40
0.4444128097403162
 40
0.5127772736845426
 40
0.5710001466046499
 40
0.6381653852474456
 40
0.6973730708069367
 40
0.7486233915574562
 40
0.8158505838292683
 40
0.880405328470711
 40
0.9417874618535753
 40
1.0
 40
1.0
 40
1.0
 40
1.0
 10
615.6251309635384
 20
249.0550009951093
 30
0.0
 10
615.6382810290555
 20
247.3676664650799
 30
0.0
 10
615.6654735270051
 20
243.8784944386489
 30
0.0
 10
615.7127879772061
 20
238.4756419425405
 30
0.0
 10
615.7661699929743
 20
232.7476319783779
 30
0.0
 10
615.81607674804
 20
227.6596517151606
 30
0.0
 10
615.8612602570344
 20
223.2434513464181
 30
0.0
 10
615.9022003763957
 20
219.3046519370158
 30
0.0
 10
615.9499706058766
 20
214.701428299117
 30
0.0
 10
616.0057769730822
 20
209.3153937791018
 30
0.0
 10
616.0632491985505
 20
203.7384905351425
 30
0.0
 10
616.1212118464945
 20
197.9961500841232
 30
0.0
 10
616.1746143346787
 20
192.5244220417636
 30
0.0
 10
616.2240945816409
 20
187.2584082117966
 30
0.0
 10
616.2712121924401
 20
181.9892836296945
 30
0.0
 10
616.316369489112
 20
176.5596711569104
 30
0.0
 10
616.3597897631371
 20
170.8272521258941
 30
0.0
 10
616.3973710769488
 20
165.3603264149651
 30
0.0
 10
616.4179560295946
 20
161.8080865173229
 30
0.0
 10
616.4279757263405
 20
160.0790387436845
 30
0.0
  0
SPLINE
  5
89
330
1F
100
AcDbEntity
  8
0
  6
Continuous
 62
     7
370
    25
100
AcDbSpline
210
0.0
220
0.0
230
1.0
 70
     8
 71
     3
 72
    18
 73
    14
 74
     0
 42
0.000000001
 43
0.00000001
 40
0.0
 40
0.0
 40
0.0
 40
0.0
 40
0.0896962809897196
 40
0.1868268853060379
 40
0.2832696391348797
 40
0.3808185639799517
 40
0.4700178227842322
 40
0.5510619468834796
 40
0.6361096468651792
 40
0.7331593908338432
 40
0.8239104073858882
 40
0.912049429933402
 40
1.0
 40
1.0
 40
1.0
 40
1.0
 10
615.6243263008339
 20
311.0997407183148
 30
0.0
 10
615.606485295703
 20
309.2423569578813
 30
0.0
 10
615.569324564148
 20
305.3736433506853
 30
0.0
 10
615.4825821426434
 20
299.5280469965722
 30
0.0
 10
615.383860039576
 20
293.5283898838936
 30
0.0
 10
615.3112602946602
 20
287.6714045606641
 30
0.0
 10
615.2749631850256
 20
282.1155123128771
 30
0.0
 10
615.2811840309987
 20
276.8128161623818
 30
0.0
 10
615.3267063811387
 20
271.3578866279021
 30
0.0
 10
615.4005489105471
 20
265.7183095441946
 30
0.0
 10
615.4877760021037
 20
260.0264033708745
 30
0.0
 10
615.5750913850122
 20
254.5244238836494
 30
0.0
 10
615.6080853780905
 20
250.8766717937073
 30
0.0
 10
615.624564719413
 20
249.054747675369
 30
0.0
  0
SPLINE
  5
8A
330
1F
100
AcDbEntity
  8
0
  6
Continuous
 62
     7
370
    25
100
AcDbSpline
210
0.0
220
0.0
230
1.0
 70
     8
 71
     3
 72
    23
 73
    19
 74
     0
 42
0.000000001
 43
0.00000001
 40
0.0
 40
0.0
 40
0.0
 40
0.0
 40
0.0730973949303571
 40
0.1511320320235822
 40
0.2341086366862186
 40
0.302036183228477
 40
0.347711315367688
 40
0.3982841330206242
 40
0.453754643793482
 40
0.516472271831567
 40
0.5835858876692792
 40
0.6408923406969042
 40
0.6883915726473698
 40
0.7260837519389767
 40
0.7584999829624912
 40
0.8121858590669849
 40
0.9106934057804903
 40
1.0
 40
1.0
 40
1.0
 40
1.0
 10
616.4279757263405
 20
400.079040829847
 30
0.0
 10
616.4152467163067
 20
397.9078497612324
 30
0.0
 10
616.3889289363926
 20
393.4188181285209
 30
0.0
 10
616.3389546205011
 20
386.469546790416
 30
0.0
 10
616.2844289972006
 20
379.6768043238984
 30
0.0
 10
616.2327174191036
 20
373.8468806443825
 30
0.0
 10
616.1872648969756
 20
368.9792205552173
 30
0.0
 10
616.1438879861352
 20
364.4815880737137
 30
0.0
 10
616.0942659007947
 20
359.4793706590348
 30
0.0
 10
616.03807086828
 20
353.9876169879004
 30
0.0
 10
615.980822664864
 20
348.441377754291
 30
0.0
 10
615.9278953587421
 20
343.3459440062617
 30
0.0
 10
615.8840559153304
 20
339.1222683873658
 30
0.0
 10
615.8478949431128
 20
335.6360946830845
 30
0.0
 10
615.8106898629234
 20
331.9658681019907
 30
0.0
 10
615.7570936337564
 20
326.4911774296171
 30
0.0
 10
615.6901859955833
 20
319.3268992857039
 30
0.0
 10
615.6459142068686
 20
313.7509089301741
 30
0.0
 10
615.6248627426369
 20
311.0994967118003
 30
0.0
  0
LINE
  5
8B
330
1F
100
AcDbEntity
  8
0
  6
Continuous
 62
     7
370
    25
100
AcDbLine
 10
498.5238490822
 20
110.0790417239
 30
0.0
 11
498.5238490822
 21
112.072384958
 31
0.0
  0
SPLINE
  5
8C
330
1F
100
AcDbEntity
  8
0
  6
Continuous
 62
     7
370
    25
100
AcDbSpline
210
0.0
220
0.0
230
1.0
 70
     8
 71
     3
 72
     9
 73
     5
 74
     0
 42
0.000000001
 43
0.00000001
 40
0.0
 40
0.0
 40
0.0
 40
0.0
 40
0.5000001064323866
 40
1.0
 40
1.0
 40
1.0
 40
1.0
 10
568.5238568308098
 20
112.0723849579789
 30
0.0
 10
556.8571863891301
 20
112.0847156706167
 30
0.0
 10
533.5238504726162
 20
112.1093770906426
 30
0.0
 10
510.1905145567276
 20
112.0847156671169
 30
0.0
 10
498.5238490822059
 20
112.0723849579789
 30
0.0
  0
LINE
  5
8D
330
1F
100
AcDbEntity
  8
0
  6
Continuous
 62
     7
370
    25
100
AcDbLine
 10
448.5238520624
 20
160.0790387437
 30
0.0
 11
450.6176738264
 21
160.0790387437
 31
0.0
  0
SPLINE
  5
8E
330
1F
100
AcDbEntity
  8
0
  6
Continuous
 62
     7
370
    25
100
AcDbSpline
210
0.0
220
0.0
230
1.0
 70
     8
 71
     3
 72
    21
 73
    17
 74
     0
 42
0.000000001
 43
0.00000001
 40
0.0
 40
0.0
 40
0.0
 40
0.0
 40
0.0827986543783734
 40
0.1658337232724414
 40
0.2491018343027061
 40
0.3117240081068605
 40
0.3744742812182776
 40
0.4373514220284137
 40
0.5003540861237141
 40
0.5771199505685456
 40
0.6564898651140443
 40
0.7384593206368706
 40
0.8016594530410824
 40
0.8663180485513351
 40
0.9324324026699605
 40
1.0
 40
1.0
 40
1.0
 40
1.0
 10
498.5238490822059
 20
112.0723849579789
 30
0.0
 10
496.4430570748127
 20
112.1491281223324
 30
0.0
 10
492.2755317867243
 20
112.3028335753497
 30
0.0
 10
486.1210771618375
 20
113.5645458096458
 30
0.0
 10
480.658515810699
 20
115.3990011659203
 30
0.0
 10
475.9126257980001
 20
117.6402207498874
 30
0.0
 10
471.8499198747717
 20
120.0719020867968
 30
0.0
 10
468.0396813449635
 20
122.899266058963
 30
0.0
 10
464.2671435262043
 20
126.3261520979496
 30
0.0
 10
460.6161483471747
 20
130.461422128108
 30
0.0
 10
457.2299408164099
 20
135.4071821807163
 30
0.0
 10
454.6536681891556
 20
140.4398008725112
 30
0.0
 10
452.7981419973007
 20
145.3797239671692
 30
0.0
 10
451.559854614169
 20
150.0961328824669
 30
0.0
 10
450.7585747756929
 20
155.0243005522752
 30
0.0
 10
450.6663360216836
 20
158.3819590891036
 30
0.0
 10
450.619715285514
 20
160.0790387436845
 30
0.0
  0
SPLINE
  5
8F
330
1F
100
AcDbEntity
  8
0
  6
Continuous
 62
     7
370
    25
100
AcDbSpline
210
0.0
220
0.0
230
1.0
 70
     8
 71
     3
 72
    21
 73
    17
 74
     0
 42
0.000000001
 43
0.00000001
 40
0.0
 40
0.0
 40
0.0
 40
0.0
 40
0.0675013849930422
 40
0.1335523397840797
 40
0.1981501827409379
 40
0.2612924903519095
 40
0.3229768790974787
 40
0.3832012870820373
 40
0.4419635521222195
 40
0.4992618344552491
 40
0.5832855122662003
 40
0.6670864568728289
 40
0.7506615858291235
 40
0.8340075695478691
 40
0.9171213114802733
 40
1.0
 40
1.0
 40
1.0
 40
1.0
 10
450.619715285514
 20
400.079040829847
 30
0.0
 10
450.6662396137024
 20
401.7744325949113
 30
0.0
 10
450.7582885825805
 20
405.128786540365
 30
0.0
 10
451.5580024889765
 20
410.0522988222241
 30
0.0
 10
452.7938295948566
 20
414.7644145929351
 30
0.0
 10
454.4676508191293
 20
419.2249011606601
 30
0.0
 10
456.51997864587
 20
423.4009906156521
 30
0.0
 10
458.9057516036776
 20
427.2672385389236
 30
0.0
 10
461.5761397643155
 20
430.8053706551501
 30
0.0
 10
464.9601453807318
 20
434.5271999653232
 30
0.0
 10
469.2171452122308
 20
438.2733996722948
 30
0.0
 10
474.4799076176835
 20
441.7918988539511
 30
0.0
 10
480.1445324324735
 20
444.5852510800947
 30
0.0
 10
486.1094177043142
 20
446.5906993619533
 30
0.0
 10
492.2696374799715
 20
447.8547897024623
 30
0.0
 10
496.4410808708545
 20
448.0087940366958
 30
0.0
 10
498.5238490822059
 20
448.085687164972
 30
0.0
  0
LINE
  5
90
330
1F
100
AcDbEntity
  8
0
  6
Continuous
 62
     7
370
    25
100
AcDbLine
 10
448.5238520624
 20
400.0790408298
 30
0.0
 11
450.6197152855
 21
400.0790408298
 31
0.0
  0
SPLINE
  5
91
330
1F
100
AcDbEntity
  8
0
  6
Continuous
 62
     7
370
    25
100
AcDbSpline
210
0.0
220
0.0
230
1.0
 70
     8
 71
     3
 72
    24
 73
    20
 74
     0
 42
0.000000001
 43
0.00000001
 40
0.0
 40
0.0
 40
0.0
 40
0.0
 40
0.05681291608388
 40
0.117489384278337
 40
0.1820313892179396
 40
0.2498913060123254
 40
0.2891073251389419
 40
0.3310654480274776
 40
0.3828316846391925
 40
0.4444060738364646
 40
0.5127415867107732
 40
0.5709740801531595
 40
0.6381463887080335
 40
0.6973550072228308
 40
0.7486003510013033
 40
0.8158344810255044
 40
0.8803956278543005
 40
0.9417831954090722
 40
1.0
 40
1.0
 40
1.0
 40
1.0
 10
451.4228357197982
 20
311.0994967118003
 30
0.0
 10
451.4096914057284
 20
312.7863204644706
 30
0.0
 10
451.3825089008815
 20
316.2746801148484
 30
0.0
 10
451.3351905337447
 20
321.6766214092423
 30
0.0
 10
451.281804192644
 20
327.4043689532318
 30
0.0
 10
451.2319050706218
 20
332.4937570780605
 30
0.0
 10
451.1866126715049
 20
336.911920791026
 30
0.0
 10
451.1457130901016
 20
340.852457756344
 30
0.0
 10
451.09785896016
 20
345.4554204463832
 30
0.0
 10
451.0421055573197
 20
350.8399566307604
 30
0.0
 10
450.9845719986869
 20
356.4158033298671
 30
0.0
 10
450.9266342918116
 20
362.1580042849333
 30
0.0
 10
450.8731659134914
 20
367.6304715839574
 30
0.0
 10
450.8236858488465
 20
372.8967814022587
 30
0.0
 10
450.7765355165208
 20
378.1662033154928
 30
0.0
 10
450.7313796545709
 20
383.5962793029498
 30
0.0
 10
450.687925194394
 20
389.3294914320465
 30
0.0
 10
450.650348171349
 20
394.7971174730743
 30
0.0
 10
450.6297441738694
 20
398.3497940350126
 30
0.0
 10
450.619715285514
 20
400.079040829847
 30
0.0
  0
SPLINE
  5
92
330
1F
100
AcDbEntity
  8
0
  6
Continuous
 62
     7
370
    25
100
AcDbSpline
210
0.0
220
0.0
230
1.0
 70
     8
 71
     3
 72
    18
 73
    14
 74
     0
 42
0.000000001
 43
0.00000001
 40
0.0
 40
0.0
 40
0.0
 40
0.0
 40
0.0897547536233831
 40
0.1869555113548496
 40
0.2834432508037689
 40
0.3810106424940404
 40
0.4702422957174012
 40
0.5512778361697572
 40
0.6362990629921758
 40
0.7333318366255637
 40
0.8240315712497515
 40
0.9121087202041311
 40
0.9999999999999999
 40
0.9999999999999999
 40
0.9999999999999999
 40
0.9999999999999999
 10
451.4231486441833
 20
249.054747675369
 30
0.0
 10
451.441007458124
 20
250.9133384938285
 30
0.0
 10
451.4782066432112
 20
254.7847077844463
 30
0.0
 10
451.5650436739323
 20
260.6338493453663
 30
0.0
 10
451.6638322812218
 20
266.6362238019827
 30
0.0
 10
451.7364750361907
 20
272.4951900499831
 30
0.0
 10
451.772777524256
 20
278.0519728411422
 30
0.0
 10
451.7664821383866
 20
283.3546102894828
 30
0.0
 10
451.72095316433
 20
288.8084504828404
 30
0.0
 10
451.6471562616578
 20
294.4460746461391
 30
0.0
 10
451.5600023057389
 20
300.1353267187167
 30
0.0
 10
451.4728026896522
 20
305.633794104791
 30
0.0
 10
451.4398473352049
 20
309.2790419621251
 30
0.0
 10
451.4233870627624
 20
311.0997407183148
 30
0.0
  0
SPLINE
  5
93
330
1F
100
AcDbEntity
  8
0
  6
Continuous
 62
     7
370
    25
100
AcDbSpline
210
0.0
220
0.0
230
1.0
 70
     8
 71
     3
 72
    23
 73
    19
 74
     0
 42
0.000000001
 43
0.00000001
 40
0.0
 40
0.0
 40
0.0
 40
0.0
 40
0.0730918998888551
 40
0.1511192744205232
 40
0.2340871735468485
 40
0.3020181771226541
 40
0.3476930993752034
 40
0.3982619705888199
 40
0.45372483989968
 40
0.5164439729871092
 40
0.5835918185187031
 40
0.6409138241504883
 40
0.6884099097238554
 40
0.7260801239848469
 40
0.758462259494452
 40
0.8121474574693514
 40
0.9106659973772662
 40
1.0
 40
1.0
 40
1.0
 40
1.0
 10
450.619715285514
 20
160.0790387436845
 30
0.0
 10
450.6324516116921
 20
162.2499762211677
 30
0.0
 10
450.6587842747332
 20
166.7384420690722
 30
0.0
 10
450.7087344478151
 20
173.686791963912
 30
0.0
 10
450.7632458548261
 20
180.4788891468056
 30
0.0
 10
450.8149040803729
 20
186.3084186260912
 30
0.0
 10
450.8603426733098
 20
191.1758670632743
 30
0.0
 10
450.9037037607341
 20
195.6729702883238
 30
0.0
 10
450.9533157391921
 20
200.6746958950998
 30
0.0
 10
451.0094587479565
 20
206.1670643982872
 30
0.0
 10
451.0667444800126
 20
211.7146069460273
 30
0.0
 10
451.1196248048083
 20
216.8112202092421
 30
0.0
 10
451.1634995168801
 20
221.034445353094
 30
0.0
 10
451.1995768149959
 20
224.5187261128962
 30
0.0
 10
451.2367557982114
 20
228.187123627112
 30
0.0
 10
451.2903362539621
 20
233.6608879817108
 30
0.0
 10
451.3572626950272
 20
240.8259918421231
 30
0.0
 10
451.40152556879
 20
246.4028869653731
 30
0.0
 10
451.4225749494773
 20
249.0550009951093
 30
0.0
  0
SPLINE
  5
94
330
1F
100
AcDbEntity
  8
0
  6
Continuous
 62
     7
370
    25
100
AcDbSpline
210
0.0
220
0.0
230
1.0
 70
     8
 71
     3
 72
     9
 73
     5
 74
     0
 42
0.000000001
 43
0.00000001
 40
0.0
 40
0.0
 40
0.0
 40
0.0
 40
0.4999633200385762
 40
0.9999999999999999
 40
0.9999999999999999
 40
0.9999999999999999
 40
0.9999999999999999
 10
568.764555287574
 20
429.2223072096803
 30
0.0
 10
557.0185163104157
 20
429.2245720754175
 30
0.0
 10
533.5247148526371
 20
429.2291021392172
 30
0.0
 10
510.0309132023323
 20
429.2245722969622
 30
0.0
 10
498.2831506254417
 20
429.2223072096803
 30
0.0
  0
SPLINE
  5
95
330
1F
100
AcDbEntity
  8
0
  6
Continuous
 62
     7
370
    25
100
AcDbSpline
210
0.0
220
0.0
230
1.0
 70
     8
 71
     3
 72
    15
 73
    11
 74
     0
 42
0.000000001
 43
0.00000001
 40
0.0
 40
0.0
 40
0.0
 40
0.0
 40
0.1250000054176303
 40
0.2500001132586229
 40
0.3749999649141728
 40
0.500000155491512
 40
0.6249998174817873
 40
0.7499998845783622
 40
0.8749998302498306
 40
1.0
 40
1.0
 40
1.0
 40
1.0
 10
498.2831506254417
 20
429.2223072096803
 30
0.0
 10
498.286152331849
 20
430.3937116349064
 30
0.0
 10
498.292155747123
 20
432.7365214451918
 30
0.0
 10
498.3103408780697
 20
436.1015264177022
 30
0.0
 10
498.3346318074458
 20
439.2239061021179
 30
0.0
 10
498.3649270965189
 20
442.0028022132672
 30
0.0
 10
498.4001461203273
 20
444.3567713508432
 30
0.0
 10
498.4391709920432
 20
446.1974942369217
 30
0.0
 10
498.4808467949655
 20
447.524079977725
 30
0.0
 10
498.509514977894
 20
447.8984846573616
 30
0.0
 10
498.5238490822059
 20
448.085687164972
 30
0.0
  0
SPLINE
  5
96
330
1F
100
AcDbEntity
  8
0
  6
Continuous
 62
     7
370
    25
100
AcDbSpline
210
0.0
220
0.0
230
1.0
 70
     8
 71
     3
 72
    15
 73
    11
 74
     0
 42
0.000000001
 43
0.00000001
 40
0.0
 40
0.0
 40
0.0
 40
0.0
 40
0.1250000056507074
 40
0.2500001163775015
 40
0.3749999682661283
 40
0.5000001545592035
 40
0.6249998167825555
 40
0.7499998841122075
 40
0.8749998300167532
 40
1.0
 40
1.0
 40
1.0
 40
1.0
 10
568.764555287574
 20
429.2223072096803
 30
0.0
 10
568.7615551475038
 20
430.393711642057
 30
0.0
 10
568.7555548648414
 20
432.7365214915031
 30
0.0
 10
568.7373462386039
 20
436.1015263789743
 30
0.0
 10
568.7130551862882
 20
439.22390603629
 30
0.0
 10
568.6827838851476
 20
442.0028022778863
 30
0.0
 10
568.6475584348977
 20
444.3567713411301
 30
0.0
 10
568.6085352830501
 20
446.1974942395119
 30
0.0
 10
568.5668590275305
 20
447.5240799770776
 30
0.0
 10
568.5381909049485
 20
447.8984846571457
 30
0.0
 10
568.5238568308098
 20
448.085687164972
 30
0.0
  0
SPLINE
  5
97
330
1F
100
AcDbEntity
  8
0
  6
Continuous
 62
     7
370
    25
100
AcDbSpline
210
0.0
220
0.0
230
1.0
 70
     8
 71
     3
 72
    15
 73
    11
 74
     0
 42
0.000000001
 43
0.00000001
 40
0.0
 40
0.0
 40
0.0
 40
0.0
 40
0.1179247348692466
 40
0.2417112412308988
 40
0.3697402378981196
 40
0.5000000726828492
 40
0.6302600546923404
 40
0.7582886577741723
 40
0.8820756652553161
 40
1.0
 40
1.0
 40
1.0
 40
1.0
 10
450.619715285514
 20
160.0790387436845
 30
0.0
 10
450.8000912263257
 20
160.0262877601574
 30
0.0
 10
451.1698091874481
 20
159.9181636611835
 30
0.0
 10
452.4862971054926
 20
159.7575737108383
 30
0.0
 10
454.3955505430753
 20
159.6021516351873
 30
0.0
 10
456.9034472872037
 20
159.4604683819189
 30
0.0
 10
459.8789327498066
 20
159.3400805046147
 30
0.0
 10
463.1639699903053
 20
159.2472687705624
 30
0.0
 10
466.5738874522266
 20
159.1819390188178
 30
0.0
 10
468.8826148112898
 20
159.1620625267248
 30
0.0
 10
470.0089795710784
 20
159.1523653313615
 30
0.0
  0
SPLINE
  5
98
330
1F
100
AcDbEntity
  8
0
  6
Continuous
 62
     7
370
    25
100
AcDbSpline
210
0.0
220
0.0
230
1.0
 70
     8
 71
     3
 72
    15
 73
    11
 74
     0
 42
0.000000001
 43
0.00000001
 40
0.0
 40
0.0
 40
0.0
 40
0.0
 40
0.1234198967408759
 40
0.2492402056526828
 40
0.3737189931743109
 40
0.4988931373431411
 40
0.6240565902339925
 40
0.7492862236056027
 40
0.8746308350640597
 40
1.0
 40
1.0
 40
1.0
 40
1.0
 10
470.0089795710784
 20
159.1523653313615
 30
0.0
 10
470.1064410250098
 20
157.3275289510536
 30
0.0
 10
470.3032594753773
 20
153.642364672677
 30
0.0
 10
471.9817041513208
 20
148.3294806968406
 30
0.0
 10
474.5857203007907
 20
143.4036568364906
 30
0.0
 10
478.1316983774707
 20
139.1038350420197
 30
0.0
 10
482.4415140818642
 20
135.5520482987503
 30
0.0
 10
487.3717657575426
 20
132.9411945163278
 30
0.0
 10
492.7181470545726
 20
131.2497115826499
 30
0.0
 10
496.4280283269471
 20
131.0404206353176
 30
0.0
 10
498.2831506254417
 20
130.9357649132706
 30
0.0
  0
SPLINE
  5
99
330
1F
100
AcDbEntity
  8
0
  6
Continuous
 62
     7
370
    25
100
AcDbSpline
210
0.0
220
0.0
230
1.0
 70
     8
 71
     3
 72
    15
 73
    11
 74
     0
 42
0.000000001
 43
0.00000001
 40
0.0
 40
0.0
 40
0.0
 40
0.0
 40
0.1181601854206367
 40
0.2419940639301218
 40
0.3699221093819841
 40
0.500000331405234
 40
0.6300782226453403
 40
0.7580062377431475
 40
0.8818402691272347
 40
1.0
 40
1.0
 40
1.0
 40
1.0
 10
498.5238490822059
 20
112.0723849579789
 30
0.0
 10
498.510301857249
 20
112.2463851254919
 30
0.0
 10
498.4825569107542
 20
112.6027404198841
 30
0.0
 10
498.4413311465582
 20
113.8757116694103
 30
0.0
 10
498.4013988536491
 20
115.7220883003682
 30
0.0
 10
498.3648619510713
 20
118.1493420801502
 30
0.0
 10
498.3336108060593
 20
121.034607722837
 30
0.0
 10
498.3092214232991
 20
124.2303647917492
 30
0.0
 10
498.2916960054098
 20
127.5607888147504
 30
0.0
 10
498.2859542072936
 20
129.8284973867562
 30
0.0
 10
498.2831506254417
 20
130.9357649132706
 30
0.0
  0
SPLINE
  5
9A
330
1F
100
AcDbEntity
  8
0
  6
Continuous
 62
     7
370
    25
100
AcDbSpline
210
0.0
220
0.0
230
1.0
 70
     8
 71
     3
 72
    15
 73
    11
 74
     0
 42
0.000000001
 43
0.00000001
 40
0.0
 40
0.0
 40
0.0
 40
0.0
 40
0.1234197461079767
 40
0.2492401840036864
 40
0.3737188399770957
 40
0.4988932143093149
 40
0.6240566375874689
 40
0.7492862877639037
 40
0.874630818240511
 40
1.0
 40
1.0
 40
1.0
 40
1.0
 10
597.0387188913567
 20
401.00571424217
 30
0.0
 10
596.9412562011092
 20
402.8305478374415
 30
0.0
 10
596.7444350309416
 20
406.5157106691951
 30
0.0
 10
595.0660063627935
 20
411.8285958082471
 30
0.0
 10
592.4619852225578
 20
416.7544230171927
 30
0.0
 10
588.9159878780257
 20
421.0542263914868
 30
0.0
 10
584.6061964940815
 20
424.6060443793198
 30
0.0
 10
579.6759414409548
 20
427.2168950266054
 30
0.0
 10
574.329556400852
 20
428.9083565292221
 30
0.0
 10
570.6196772492511
 20
429.1176501233031
 30
0.0
 10
568.764555287574
 20
429.2223072096803
 30
0.0
  0
SPLINE
  5
9B
330
1F
100
AcDbEntity
  8
0
  6
Continuous
 62
     7
370
    25
100
AcDbSpline
210
0.0
220
0.0
230
1.0
 70
     8
 71
     3
 72
    15
 73
    11
 74
     0
 42
0.000000001
 43
0.00000001
 40
0.0
 40
0.0
 40
0.0
 40
0.0
 40
0.1179246089735332
 40
0.2417113760167232
 40
0.3697397674824854
 40
0.499999764067126
 40
0.6302599621785663
 40
0.7582888373066381
 40
0.882075251935829
 40
1.0
 40
1.0
 40
1.0
 40
1.0
 10
597.0387188913567
 20
401.00571424217
 30
0.0
 10
598.165086182966
 20
400.9960129574121
 30
0.0
 10
600.4738136854348
 20
400.9761281266852
 30
0.0
 10
603.8837288508603
 20
400.9108167737935
 30
0.0
 10
607.1687603965967
 20
400.8179878743065
 30
0.0
 10
610.1442430066759
 20
400.6976042842505
 30
0.0
 10
612.6521569220482
 20
400.5559213648152
 30
0.0
 10
614.5614012052419
 20
400.4004956360834
 30
0.0
 10
615.8778806002596
 20
400.2399182119059
 30
0.0
 10
616.2475993311753
 20
400.1317925828868
 30
0.0
 10
616.4279757263405
 20
400.079040829847
 30
0.0
  0
SPLINE
  5
9C
330
1F
100
AcDbEntity
  8
0
  6
Continuous
 62
     7
370
    25
100
AcDbSpline
210
0.0
220
0.0
230
1.0
 70
     8
 71
     3
 72
    15
 73
    11
 74
     0
 42
0.000000001
 43
0.00000001
 40
0.0
 40
0.0
 40
0.0
 40
0.0
 40
0.1256474064361953
 40
0.2512920536127921
 40
0.3764395003226084
 40
0.5015637397760327
 40
0.6267410389345632
 40
0.7512639271160773
 40
0.8768180345407753
 40
1.0
 40
1.0
 40
1.0
 40
1.0
 10
498.2831506254417
 20
429.2223072096803
 30
0.0
 10
496.4239046008803
 20
429.1171445313904
 30
0.0
 10
492.70545338143
 20
428.9068214842187
 30
0.0
 10
487.3528947431287
 20
427.2094206896296
 30
0.0
 10
482.4225972404355
 20
424.5931612685224
 30
0.0
 10
478.1168238649514
 20
421.0392671759449
 30
0.0
 10
474.5738696168347
 20
416.7368124799655
 30
0.0
 10
471.975135104457
 20
411.8118178624418
 30
0.0
 10
470.3019826244166
 20
406.5047198407568
 30
0.0
 10
470.1060243182398
 20
402.8270249823612
 30
0.0
 10
470.0089795710784
 20
401.00571424217
 30
0.0
  0
SPLINE
  5
9D
330
1F
100
AcDbEntity
  8
0
  6
Continuous
 62
     7
370
    25
100
AcDbSpline
210
0.0
220
0.0
230
1.0
 70
     8
 71
     3
 72
    15
 73
    11
 74
     0
 42
0.000000001
 43
0.00000001
 40
0.0
 40
0.0
 40
0.0
 40
0.0
 40
0.1179247357131618
 40
0.2417112312081358
 40
0.3697402287915818
 40
0.5000000645085014
 40
0.6302600474501837
 40
0.7582886580520847
 40
0.8820756617562483
 40
0.9999999999999999
 40
0.9999999999999999
 40
0.9999999999999999
 40
0.9999999999999999
 10
450.619715285514
 20
400.079040829847
 30
0.0
 10
450.8000912115829
 20
400.1317925886888
 30
0.0
 10
451.1698091245104
 20
400.239918271574
 30
0.0
 10
452.4862972022119
 20
400.4004956999664
 30
0.0
 10
454.3955505378645
 20
400.5559209945076
 30
0.0
 10
456.9034472684179
 20
400.6976045387242
 30
0.0
 10
459.8789328800884
 20
400.8179879501926
 30
0.0
 10
463.1639697764209
 20
400.9108167860643
 30
0.0
 10
466.5738875969062
 20
400.9761280109543
 30
0.0
 10
468.8826148353971
 20
400.9960129335141
 30
0.0
 10
470.0089795710784
 20
401.00571424217
 30
0.0
  0
SPLINE
  5
9E
330
1F
100
AcDbEntity
  8
0
  6
Continuous
 62
     7
370
    25
100
AcDbSpline
210
0.0
220
0.0
230
1.0
 70
     8
 71
     3
 72
    15
 73
    11
 74
     0
 42
0.000000001
 43
0.00000001
 40
0.0
 40
0.0
 40
0.0
 40
0.0
 40
0.1181601854206367
 40
0.2419940639301218
 40
0.3699221093819841
 40
0.500000331405234
 40
0.6300782226453403
 40
0.7580062377431475
 40
0.8818402691272347
 40
1.0
 40
1.0
 40
1.0
 40
1.0
 10
568.5238568308098
 20
112.0723849579789
 30
0.0
 10
568.5374040557667
 20
112.2463851254919
 30
0.0
 10
568.5651490022614
 20
112.6027404198841
 30
0.0
 10
568.6063747664576
 20
113.8757116694103
 30
0.0
 10
568.6463070593664
 20
115.7220883003682
 30
0.0
 10
568.6828439619445
 20
118.1493420801502
 30
0.0
 10
568.7140951069564
 20
121.034607722837
 30
0.0
 10
568.7384844897167
 20
124.2303647917492
 30
0.0
 10
568.7560099076057
 20
127.5607888147504
 30
0.0
 10
568.7617517057221
 20
129.8284973867562
 30
0.0
 10
568.764555287574
 20
130.9357649132706
 30
0.0
  0
SPLINE
  5
9F
330
1F
100
AcDbEntity
  8
0
  6
Continuous
 62
     7
370
    25
100
AcDbSpline
210
0.0
220
0.0
230
1.0
 70
     8
 71
     3
 72
    15
 73
    11
 74
     0
 42
0.000000001
 43
0.00000001
 40
0.0
 40
0.0
 40
0.0
 40
0.0
 40
0.1256473914545637
 40
0.251291702019376
 40
0.3764394302508047
 40
0.5015636547849774
 40
0.6267410689588634
 40
0.7512640212709268
 40
0.8768180651349332
 40
0.9999999999999999
 40
0.9999999999999999
 40
0.9999999999999999
 40
0.9999999999999999
 10
568.764555287574
 20
130.9357649132706
 30
0.0
 10
570.6238015763455
 20
131.0409268128513
 30
0.0
 10
574.3422485649371
 20
131.2512480334296
 30
0.0
 10
579.6948031659878
 20
132.9486586100783
 30
0.0
 10
584.6251059047169
 20
135.5649060677897
 30
0.0
 10
588.9308852044733
 20
139.1188054240151
 30
0.0
 10
592.4738320838323
 20
143.42126864859
 30
0.0
 10
595.0725819339417
 20
148.3462578813864
 30
0.0
 10
596.7457224718297
 20
153.6533610431023
 30
0.0
 10
596.9416763329139
 20
157.3310548666059
 30
0.0
 10
597.0387188913567
 20
159.1523653313615
 30
0.0
  0
SPLINE
  5
A0
330
1F
100
AcDbEntity
  8
0
  6
Continuous
 62
     7
370
    25
100
AcDbSpline
210
0.0
220
0.0
230
1.0
 70
     8
 71
     3
 72
    15
 73
    11
 74
     0
 42
0.000000001
 43
0.00000001
 40
0.0
 40
0.0
 40
0.0
 40
0.0
 40
0.1179246054744676
 40
0.2417113762946477
 40
0.3697397602403281
 40
0.4999997558927759
 40
0.630259953072022
 40
0.7582888272838676
 40
0.8820752527797459
 40
1.0
 40
1.0
 40
1.0
 40
1.0
 10
597.0387188913567
 20
159.1523653313615
 30
0.0
 10
598.1650862070732
 20
159.1620625028196
 30
0.0
 10
600.4738138301146
 20
159.1819389030829
 30
0.0
 10
603.8837286369755
 20
159.2472687828266
 30
0.0
 10
607.1687605268787
 20
159.3400805804949
 30
0.0
 10
610.14424298789
 20
159.4604686363975
 30
0.0
 10
612.6521569168374
 20
159.6021512648819
 30
0.0
 10
614.5614013019608
 20
159.757573774723
 30
0.0
 10
615.877880537322
 20
159.9181637208536
 30
0.0
 10
616.2475993164325
 20
160.0262877659603
 30
0.0
 10
616.4279757263405
 20
160.0790387436845
 30
0.0
  0
SPLINE
  5
A1
330
1F
100
AcDbEntity
  8
0
  6
Continuous
 62
     7
370
    25
100
AcDbSpline
210
0.0
220
0.0
230
1.0
 70
     8
 71
     3
 72
    10
 73
     6
 74
     0
 42
0.000000001
 43
0.00000001
 40
0.0
 40
0.0
 40
0.0
 40
0.0
 40
0.3335559635636901
 40
0.6664440364363099
 40
1.0
 40
1.0
 40
1.0
 40
1.0
 10
498.2831506254417
 20
130.9357649132706
 30
0.0
 10
506.1194756306487
 20
130.9361047278563
 30
0.0
 10
521.7764346953294
 20
130.936783676605
 30
0.0
 10
545.2712712176864
 20
130.936783676605
 30
0.0
 10
560.928230282367
 20
130.9361047278563
 30
0.0
 10
568.764555287574
 20
130.9357649132706
 30
0.0
  0
SPLINE
  5
A2
330
1F
100
AcDbEntity
  8
0
  6
Continuous
 62
     7
370
    25
100
AcDbSpline
210
0.0
220
0.0
230
1.0
 70
     8
 71
     3
 72
    15
 73
    11
 74
     0
 42
0.000000001
 43
0.00000001
 40
0.0
 40
0.0
 40
0.0
 40
0.0
 40
0.1183402755251605
 40
0.2422102414685685
 40
0.3700604827607842
 40
0.4999986038137814
 40
0.6299374787070311
 40
0.7577884380425288
 40
0.8816586794216098
 40
1.0
 40
1.0
 40
1.0
 40
1.0
 10
451.4231784465057
 20
249.058730010698
 30
0.0
 10
451.586184222536
 20
249.03793806682
 30
0.0
 10
451.9198125515042
 20
248.9953826331357
 30
0.0
 10
453.0180477396972
 20
248.9321498656861
 30
0.0
 10
454.5782342046504
 20
248.870808044297
 30
0.0
 10
456.6041588303542
 20
248.8145465138567
 30
0.0
 10
458.9957225346261
 20
248.7661434845208
 30
0.0
 10
461.6343582393944
 20
248.7279967250795
 30
0.0
 10
464.3795020503724
 20
248.7001664864122
 30
0.0
 10
466.2465719199157
 20
248.6905795537594
 30
0.0
 10
467.1587972166282
 20
248.6858955070473
 30
0.0
  0
SPLINE
  5
A3
330
1F
100
AcDbEntity
  8
0
  6
Continuous
 62
     7
370
    25
100
AcDbSpline
210
0.0
220
0.0
230
1.0
 70
     8
 71
     3
 72
    15
 73
    11
 74
     0
 42
0.000000001
 43
0.00000001
 40
0.0
 40
0.0
 40
0.0
 40
0.0
 40
0.1170422047542391
 40
0.2385789372012697
 40
0.366096096950863
 40
0.5005415221441297
 40
0.6148610713387078
 40
0.736119063652553
 40
0.864474408989374
 40
1.0
 40
1.0
 40
1.0
 40
1.0
 10
467.1586184026939
 20
248.6858098253705
 30
0.0
 10
467.2820361735222
 20
245.1912964468575
 30
0.0
 10
467.5336110704389
 20
238.0680771805093
 30
0.0
 10
467.9854161283309
 20
227.1419626748548
 30
0.0
 10
468.484747058168
 20
215.6990903664255
 30
0.0
 10
468.9697933829187
 20
204.4728182621732
 30
0.0
 10
469.3791276596403
 20
193.4317232298668
 30
0.0
 10
469.7082379288583
 20
182.5709610463836
 30
0.0
 10
469.9668572664992
 20
171.0753721173178
 30
0.0
 10
469.9946867395101
 20
163.1980491913095
 30
0.0
 10
470.0089795710784
 20
159.1523653313615
 30
0.0
  0
SPLINE
  5
A4
330
1F
100
AcDbEntity
  8
0
  6
Continuous
 62
     7
370
    25
100
AcDbSpline
210
0.0
220
0.0
230
1.0
 70
     8
 71
     3
 72
    15
 73
    11
 74
     0
 42
0.000000001
 43
0.00000001
 40
0.0
 40
0.0
 40
0.0
 40
0.0
 40
0.117037238452826
 40
0.2385661347874045
 40
0.3660721697072671
 40
0.5005029534103884
 40
0.6148327138428066
 40
0.7361005246276333
 40
0.8644653506343987
 40
1.0
 40
1.0
 40
1.0
 40
1.0
 10
599.8908160450203
 20
311.4686264142491
 30
0.0
 10
599.7674173696981
 20
314.9631363969929
 30
0.0
 10
599.515884221799
 20
322.086268748541
 30
0.0
 10
599.0639272550435
 20
333.0121158751821
 30
0.0
 10
598.5643219228709
 20
344.4544443870689
 30
0.0
 10
598.0789791223879
 20
355.6807036194278
 30
0.0
 10
597.6692581830406
 20
366.7224037288216
 30
0.0
 10
597.3398298985835
 20
377.5844862103926
 30
0.0
 10
597.0809098852435
 20
389.0813915490659
 30
0.0
 10
597.0530349980904
 20
396.9595930045508
 30
0.0
 10
597.0387188913567
 20
401.00571424217
 30
0.0
  0
SPLINE
  5
A5
330
1F
100
AcDbEntity
  8
0
  6
Continuous
 62
     7
370
    25
100
AcDbSpline
210
0.0
220
0.0
230
1.0
 70
     8
 71
     3
 72
    15
 73
    11
 74
     0
 42
0.000000001
 43
0.00000001
 40
0.0
 40
0.0
 40
0.0
 40
0.0
 40
0.1183421998807154
 40
0.2422118022893852
 40
0.3700609106382487
 40
0.4999964293546383
 40
0.6299320772471599
 40
0.7577824963292813
 40
0.8816544418785033
 40
0.9999999999999999
 40
0.9999999999999999
 40
0.9999999999999999
 40
0.9999999999999999
 10
599.890637231086
 20
311.4685407325723
 30
0.0
 10
600.8027780352929
 20
311.4596213918066
 30
0.0
 10
602.6696629533641
 20
311.4413661151239
 30
0.0
 10
605.4145595944092
 20
311.4044101488502
 30
0.0
 10
608.0529491790461
 20
311.3604825773194
 30
0.0
 10
610.4442915839128
 20
311.310484952833
 30
0.0
 10
612.4699934294377
 20
311.256880448209
 30
0.0
 10
614.0300614421636
 20
311.2023344221289
 30
0.0
 10
615.1281613793858
 20
311.1491549157118
 30
0.0
 10
615.4617732245542
 20
311.1157957409576
 30
0.0
 10
615.6247733356697
 20
311.0994967118003
 30
0.0
  0
SPLINE
  5
A6
330
1F
100
AcDbEntity
  8
0
  6
Continuous
 62
     7
370
    25
100
AcDbSpline
210
0.0
220
0.0
230
1.0
 70
     8
 71
     3
 72
    16
 73
    12
 74
     0
 42
0.000000001
 43
0.00000001
 40
0.0
 40
0.0
 40
0.0
 40
0.0
 40
0.101868607366357
 40
0.1997352863105364
 40
0.2936205007253038
 40
0.3835644117841665
 40
0.4696372628500233
 40
0.564897323337801
 40
0.7179464697620728
 40
0.8622590782490765
 40
0.9999999999999999
 40
0.9999999999999999
 40
0.9999999999999999
 40
0.9999999999999999
 10
597.0387188913567
 20
159.1523653313615
 30
0.0
 10
597.0452795056249
 20
162.1933032784441
 30
0.0
 10
597.0581429991305
 20
168.1557153228999
 30
0.0
 10
597.2109667023022
 20
176.9201865080679
 30
0.0
 10
597.4199037389056
 20
185.3276279315198
 30
0.0
 10
597.6727630907438
 20
193.3821293978614
 30
0.0
 10
597.964697544513
 20
201.4769037427797
 30
0.0
 10
598.37419353876
 20
211.4535711478605
 30
0.0
 10
598.8918558800038
 20
223.1676931530395
 30
0.0
 10
599.442487325395
 20
236.152259870605
 30
0.0
 10
599.7425512213485
 20
244.5733621372183
 30
0.0
 10
599.8890875103218
 20
248.6858098253705
 30
0.0
  0
SPLINE
  5
A7
330
1F
100
AcDbEntity
  8
0
  6
Continuous
 62
     7
370
    25
100
AcDbSpline
210
0.0
220
0.0
230
1.0
 70
     8
 71
     3
 72
    15
 73
    11
 74
     0
 42
0.000000001
 43
0.00000001
 40
0.0
 40
0.0
 40
0.0
 40
0.0
 40
0.1183429337883918
 40
0.2422148382876533
 40
0.3700667482997693
 40
0.5000049432850568
 40
0.6299421081779446
 40
0.7577922761515699
 40
0.8816604868434894
 40
1.0
 40
1.0
 40
1.0
 40
1.0
 10
599.8889086963875
 20
248.6825650975205
 30
0.0
 10
600.8011519422985
 20
248.6872298172378
 30
0.0
 10
602.6682583525758
 20
248.6967771919378
 30
0.0
 10
605.4134413991483
 20
248.7245365390347
 30
0.0
 10
608.0520888218952
 20
248.7626009541603
 30
0.0
 10
610.4436658012985
 20
248.810914810301
 30
0.0
 10
612.4695457685325
 20
248.8670841215483
 30
0.0
 10
614.0297116265083
 20
248.9283306901786
 30
0.0
 10
615.1279291400958
 20
248.9914794549232
 30
0.0
 10
615.4615580266956
 20
249.0339816573902
 30
0.0
 10
615.624564719413
 20
249.054747675369
 30
0.0
  0
SPLINE
  5
A8
330
1F
100
AcDbEntity
  8
0
  6
Continuous
 62
     7
370
    25
100
AcDbSpline
210
0.0
220
0.0
230
1.0
 70
     8
 71
     3
 72
    16
 73
    12
 74
     0
 42
0.000000001
 43
0.00000001
 40
0.0
 40
0.0
 40
0.0
 40
0.0
 40
0.1018754720992711
 40
0.1997489468541205
 40
0.2936413275836216
 40
0.3835925856077837
 40
0.469673044559416
 40
0.5649283960436523
 40
0.7179627394807649
 40
0.8622652106354604
 40
1.0
 40
1.0
 40
1.0
 40
1.0
 10
470.0089795710784
 20
401.00571424217
 30
0.0
 10
470.0024061191408
 20
397.9644459415011
 30
0.0
 10
469.9895174416733
 20
392.0013801746259
 30
0.0
 10
469.836536860726
 20
383.2359264969079
 30
0.0
 10
469.6273807486526
 20
374.8275079150106
 30
0.0
 10
469.3742228310344
 20
366.7720200681823
 30
0.0
 10
469.0820510918888
 20
358.6766152586416
 30
0.0
 10
468.6722521758611
 20
348.6999004444679
 30
0.0
 10
468.1542903238534
 20
336.9861949738258
 30
0.0
 10
467.6034294339722
 20
324.0020274539963
 30
0.0
 10
467.30341256864
 20
315.5810616102295
 30
0.0
 10
467.156897318576
 20
311.4686264142491
 30
0.0
  0
SPLINE
  5
A9
330
1F
100
AcDbEntity
  8
0
  6
Continuous
 62
     7
370
    25
100
AcDbSpline
210
0.0
220
0.0
230
1.0
 70
     8
 71
     3
 72
    15
 73
    11
 74
     0
 42
0.000000001
 43
0.00000001
 40
0.0
 40
0.0
 40
0.0
 40
0.0
 40
0.1183454570471386
 40
0.242217727605764
 40
0.370067600984007
 40
0.5000036446605296
 40
0.6299391271607082
 40
0.7577876276891795
 40
0.8816571955723577
 40
1.0
 40
1.0
 40
1.0
 40
1.0
 10
451.422932577346
 20
311.0994967118003
 30
0.0
 10
451.5859271558222
 20
311.1157957669065
 30
0.0
 10
451.919528270691
 20
311.1491550541022
 30
0.0
 10
453.0176704803343
 20
311.2023341465537
 30
0.0
 10
454.5776983539672
 20
311.2568807374867
 30
0.0
 10
456.6034242373882
 20
311.3104848223584
 30
0.0
 10
458.9947602627181
 20
311.3604824600156
 30
0.0
 10
461.6331422935269
 20
311.4044102608034
 30
0.0
 10
464.3780404112002
 20
311.4413662018753
 30
0.0
 10
466.244930358209
 20
311.4596214037728
 30
0.0
 10
467.1570761325103
 20
311.4685407325723
 30
0.0
  0
SPLINE
  5
AA
330
1F
100
AcDbEntity
  8
0
  6
Continuous
 62
     7
370
    25
100
AcDbSpline
210
0.0
220
0.0
230
1.0
 70
     8
 71
     3
 72
    15
 73
    11
 74
     0
 42
0.000000001
 43
0.00000001
 40
0.0
 40
0.0
 40
0.0
 40
0.0
 40
0.1249999841871148
 40
0.2499999932812833
 40
0.3750000009301224
 40
0.5000000016295532
 40
0.6249999956733316
 40
0.7500000199743362
 40
0.875000001007054
 40
1.0
 40
1.0
 40
1.0
 40
1.0
 10
467.1570761325103
 20
311.4685407325723
 30
0.0
 10
466.0793612893328
 20
308.9881485559186
 30
0.0
 10
463.923931388236
 20
304.0273637083773
 30
0.0
 10
461.7558611759035
 20
296.1918369184336
 30
0.0
 10
460.4041122613054
 20
288.1872557455587
 30
0.0
 10
459.9602227447137
 20
280.0770213836595
 30
0.0
 10
460.4045606660596
 20
271.9668112395459
 30
0.0
 10
461.7567499797822
 20
263.9623050172605
 30
0.0
 10
463.9252463451581
 20
256.1268961496432
 30
0.0
 10
466.0809468745157
 20
251.1662291733723
 30
0.0
 10
467.1587972166282
 20
248.6858955070473
 30
0.0
  0
SPLINE
  5
AB
330
1F
100
AcDbEntity
  8
0
  6
Continuous
 62
     7
370
    25
100
AcDbSpline
210
0.0
220
0.0
230
1.0
 70
     8
 71
     3
 72
    15
 73
    11
 74
     0
 42
0.000000001
 43
0.00000001
 40
0.0
 40
0.0
 40
0.0
 40
0.0
 40
0.1250000479072061
 40
0.2500000658588319
 40
0.3750000199309504
 40
0.5000000386003998
 40
0.6250000639064871
 40
0.7500000581947074
 40
0.8750000102255163
 40
1.0
 40
1.0
 40
1.0
 40
1.0
 10
599.8889086963875
 20
248.6858955070473
 30
0.0
 10
600.9667602173156
 20
251.1662293092669
 30
0.0
 10
603.1224630008707
 20
256.1268963193076
 30
0.0
 10
605.2909856802584
 20
263.9623003895193
 30
0.0
 10
606.6431089846379
 20
271.9668155142688
 30
0.0
 10
607.0875102676952
 20
280.0770208914984
 30
0.0
 10
606.64356637729
 20
288.1872546669123
 30
0.0
 10
605.2918381223003
 20
296.1918350814441
 30
0.0
 10
603.1237847652994
 20
304.027366172561
 30
0.0
 10
600.9683531842957
 20
308.9881489629175
 30
0.0
 10
599.890637231086
 20
311.4685407325723
 30
0.0
  0
ARC
  5
AC
330
1F
100
AcDbEntity
  8
0
  6
Continuous
 62
     7
370
    25
100
AcDbCircle
 10
533.5238518479
 20
280.0790375802
 30
0.0
 40
73.41559342890342
100
AcDbArc
 50
25.3127521999
 51
154.6872478089
  0
ARC
  5
AD
330
1F
100
AcDbEntity
  8
0
  6
Continuous
 62
     7
370
    25
100
AcDbCircle
 10
533.5238518479
 20
280.0790375802
 30
0.0
 40
73.41559342890346
100
AcDbArc
 50
205.315892654
 51
334.6841073144
  0
CIRCLE
  5
AE
330
1F
100
AcDbEntity
  8
0
  6
Continuous
 62
     7
370
    25
100
AcDbCircle
 10
533.5238518479
 20
280.0790375802
 30
0.0
 40
58.61177143234625
  0
CIRCLE
  5
AF
330
1F
100
AcDbEntity
  8
0
  6
Continuous
 62
     7
370
    25
100
AcDbCircle
 10
533.5238518479
 20
280.0790375802
 30
0.0
 40
57.5
  0
CIRCLE
  5
B0
330
1F
100
AcDbEntity
  8
0
  6
Continuous
 62
     7
370
    25
100
AcDbCircle
 10
533.5238518479
 20
280.0790375802
 30
0.0
 40
56.58715574274765
  0
CIRCLE
  5
B1
330
1F
100
AcDbEntity
  8
0
  6
Continuous
 62
     7
370
    25
100
AcDbCircle
 10
533.5238518479
 20
280.0790375802
 30
0.0
 40
45.0
  0
LINE
  5
B2
330
1F
100
AcDbEntity
  8
0
  6
Continuous
 62
     7
370
    25
100
AcDbLine
 10
416.5238542678
 20
130.0790375516
 30
0.0
 11
416.5238542678
 21
430.0790345714
 31
0.0
  0
ARC
  5
B3
330
1F
100
AcDbEntity
  8
0
  6
Continuous
 62
     7
370
    25
100
AcDbCircle
 10
366.5238518479
 20
130.0790375802
 30
0.0
 40
50.00000000000006
100
AcDbArc
 50
270.0
 51
0.0
  0
ARC
  5
B4
330
1F
100
AcDbEntity
  8
0
  6
Continuous
 62
     7
370
    25
100
AcDbCircle
 10
126.5238518479
 20
430.0790375802
 30
0.0
 40
50.00000000000001
100
AcDbArc
 50
90.0
 51
180.0
  0
LINE
  5
B5
330
1F
100
AcDbEntity
  8
0
  6
Continuous
 62
     7
370
    25
100
AcDbLine
 10
366.5238516601
 20
480.0790315911
 30
0.0
 11
126.5238551619
 21
480.0790315911
 31
0.0
  0
ARC
  5
B6
330
1F
100
AcDbEntity
  8
0
  6
Continuous
 62
     7
370
    25
100
AcDbCircle
 10
366.5238518479
 20
430.0790375802
 30
0.0
 40
50.00000000000006
100
AcDbArc
 50
0.0
 51
90.0
  0
LINE
  5
B7
330
1F
100
AcDbEntity
  8
0
  6
Continuous
 62
     7
370
    25
100
AcDbLine
 10
76.5238581421
 20
430.0790345714
 30
0.0
 11
76.5238581421
 21
130.0790375516
 31
0.0
  0
ARC
  5
B8
330
1F
100
AcDbEntity
  8
0
  6
Continuous
 62
     7
370
    25
100
AcDbCircle
 10
126.5238518479
 20
130.0790375802
 30
0.0
 40
49.99999999999999
100
AcDbArc
 50
180.0
 51
270.0
  0
LINE
  5
B9
330
1F
100
AcDbEntity
  8
0
  6
Continuous
 62
     7
370
    25
100
AcDbLine
 10
126.5238551619
 20
80.0790405318
 30
0.0
 11
366.5238516601
 21
80.0790405318
 31
0.0
  0
LINE
  5
BA
330
1F
100
AcDbEntity
  8
0
  6
Continuous
 62
     7
370
    25
100
AcDbLine
 10
126.5238551619
 20
480.0790315911
 30
0.0
 11
126.5238551619
 21
472.0515078351
 31
0.0
  0
SPLINE
  5
BB
330
1F
100
AcDbEntity
  8
0
  6
Continuous
 62
     7
370
    25
100
AcDbSpline
210
0.0
220
0.0
230
1.0
 70
     8
 71
     3
 72
    17
 73
    13
 74
     0
 42
0.000000001
 43
0.00000001
 40
0.0
 40
0.0
 40
0.0
 40
0.0
 40
0.1051330039697882
 40
0.2102657392220569
 40
0.3154257790295711
 40
0.4205857492771921
 40
0.5252744751689157
 40
0.6299629793000445
 40
0.7345639052903451
 40
0.8391650592076084
 40
0.9195824648263181
 40
1.0
 40
1.0
 40
1.0
 40
1.0
 10
84.53296406290356
 20
430.0790345713593
 30
0.0
 10
84.6409287203001
 20
432.3914406050134
 30
0.0
 10
84.85685775913792
 20
437.0162467618654
 30
0.0
 10
86.60960798471551
 20
443.7713954561786
 30
0.0
 10
89.39054944494701
 20
450.147246790852
 30
0.0
 10
93.18287547215692
 20
455.9785714191356
 30
0.0
 10
97.88699045423411
 20
461.0838725417566
 30
0.0
 10
103.3434943175893
 20
465.3560265484861
 30
0.0
 10
109.4355537082715
 20
468.6589566137936
 30
0.0
 10
115.4742377037065
 20
470.7439679164104
 30
0.0
 10
121.2197899399266
 20
471.8685720697439
 30
0.0
 10
124.7558324717835
 20
471.9905292139018
 30
0.0
 10
126.5238551618797
 20
472.0515078350999
 30
0.0
  0
LINE
  5
BC
330
1F
100
AcDbEntity
  8
0
  6
Continuous
 62
     7
370
    25
100
AcDbLine
 10
76.5238581421
 20
430.0790345714
 30
0.0
 11
84.5329640629
 21
430.0790345714
 31
0.0
  0
LINE
  5
BD
330
1F
100
AcDbEntity
  8
0
  6
Continuous
 62
     7
370
    25
100
AcDbLine
 10
76.5238581421
 20
130.0790375516
 30
0.0
 11
84.5329640629
 21
130.0790375516
 31
0.0
  0
SPLINE
  5
BE
330
1F
100
AcDbEntity
  8
0
  6
Continuous
 62
     7
370
    25
100
AcDbSpline
210
0.0
220
0.0
230
1.0
 70
     8
 71
     3
 72
    17
 73
    13
 74
     0
 42
0.000000001
 43
0.00000001
 40
0.0
 40
0.0
 40
0.0
 40
0.0
 40
0.1055801585373857
 40
0.2111598554090376
 40
0.3167498218907818
 40
0.422339589738036
 40
0.5273019107621393
 40
0.6322643980633224
 40
0.7368403551664204
 40
0.8414160985811423
 40
0.9207080215862751
 40
1.0
 40
1.0
 40
1.0
 40
1.0
 10
126.5238551618797
 20
88.10656428785101
 30
0.0
 10
124.2016777988771
 20
88.21448167135021
 30
0.0
 10
119.5573332269551
 20
88.43031596646297
 30
0.0
 10
112.7748732394226
 20
90.194674355526
 30
0.0
 10
106.3763253524751
 20
92.99544286989608
 30
0.0
 10
100.5313467967021
 20
96.81286017355467
 30
0.0
 10
95.4220557855856
 20
101.5445825379889
 30
0.0
 10
91.15868710263709
 20
107.0228994357836
 30
0.0
 10
87.8725933341476
 20
113.1297869692244
 30
0.0
 10
85.81462195415106
 20
119.1507141993088
 30
0.0
 10
84.712869779336
 20
124.8491263833808
 30
0.0
 10
84.59293264901618
 20
128.3357334227857
 30
0.0
 10
84.5329640629035
 20
130.0790375515915
 30
0.0
  0
LINE
  5
BF
330
1F
100
AcDbEntity
  8
0
  6
Continuous
 62
     7
370
    25
100
AcDbLine
 10
126.5238551619
 20
80.0790405318
 30
0.0
 11
126.5238551619
 21
88.1065642879
 31
0.0
  0
LINE
  5
C0
330
1F
100
AcDbEntity
  8
0
  6
Continuous
 62
     7
370
    25
100
AcDbLine
 10
366.5238516601
 20
80.0790405318
 30
0.0
 11
366.5238516601
 21
89.3931454465
 31
0.0
  0
SPLINE
  5
C1
330
1F
100
AcDbEntity
  8
0
  6
Continuous
 62
     7
370
    25
100
AcDbSpline
210
0.0
220
0.0
230
1.0
 70
     8
 71
     3
 72
    17
 73
    13
 74
     0
 42
0.000000001
 43
0.00000001
 40
0.0
 40
0.0
 40
0.0
 40
0.0
 40
0.1066369968795676
 40
0.2132739220426875
 40
0.3197513425309293
 40
0.4262285327355344
 40
0.5322324962305557
 40
0.6382362799616844
 40
0.7438013785977607
 40
0.8493665498168543
 40
0.9246832750869707
 40
1.0
 40
1.0
 40
1.0
 40
1.0
 10
407.157204133485
 20
130.0790375515916
 30
0.0
 10
407.0495208104156
 20
127.8079914338573
 30
0.0
 10
406.8341542366969
 20
123.2659007257327
 30
0.0
 10
405.0912103322082
 20
116.64042527825
 30
0.0
 10
402.3296547172369
 20
110.4005944917165
 30
0.0
 10
398.570660271305
 20
104.7100407497924
 30
0.0
 10
393.9129972102893
 20
99.74679499401611
 30
0.0
 10
388.5234558901674
 20
95.62100387510183
 30
0.0
 10
382.5232505347611
 20
92.46505237219621
 30
0.0
 10
376.7119894972653
 20
90.54799829683604
 30
0.0
 10
371.3337311995097
 20
89.5558737238404
 30
0.0
 10
368.127144837374
 20
89.44738820552043
 30
0.0
 10
366.5238516601068
 20
89.39314544648902
 30
0.0
  0
LINE
  5
C2
330
1F
100
AcDbEntity
  8
0
  6
Continuous
 62
     7
370
    25
100
AcDbLine
 10
416.5238542678
 20
130.0790375516
 30
0.0
 11
407.1572041335
 21
130.0790375516
 31
0.0
  0
LINE
  5
C3
330
1F
100
AcDbEntity
  8
0
  6
Continuous
 62
     7
370
    25
100
AcDbLine
 10
366.5238516601
 20
480.0790315911
 30
0.0
 11
366.5238516601
 21
470.7649266765
 31
0.0
  0
SPLINE
  5
C4
330
1F
100
AcDbEntity
  8
0
  6
Continuous
 62
     7
370
    25
100
AcDbSpline
210
0.0
220
0.0
230
1.0
 70
     8
 71
     3
 72
    13
 73
     9
 74
     0
 42
0.000000001
 43
0.00000001
 40
0.0
 40
0.0
 40
0.0
 40
0.0
 40
0.1662343098473776
 40
0.332487619493823
 40
0.4987170079328064
 40
0.6658023667904227
 40
0.8329146555957159
 40
1.0
 40
1.0
 40
1.0
 40
1.0
 10
126.5238551618797
 20
472.0515078350999
 30
0.0
 10
139.776635983367
 20
471.8612721119244
 30
0.0
 10
166.2837123568021
 20
471.4807789225259
 30
0.0
 10
206.1421415201006
 20
471.0503927360423
 30
0.0
 10
246.1201616725485
 20
470.7412403035972
 30
0.0
 10
286.2063767553689
 20
470.5876206267984
 30
0.0
 10
326.376639549687
 20
470.5779935996334
 30
0.0
 10
353.1421669392892
 20
470.7026190001249
 30
0.0
 10
366.5238516601068
 20
470.7649266764619
 30
0.0
  0
LINE
  5
C5
330
1F
100
AcDbEntity
  8
0
  6
Continuous
 62
     7
370
    25
100
AcDbLine
 10
416.5238542678
 20
430.0790345714
 30
0.0
 11
407.1572041335
 21
430.0790345714
 31
0.0
  0
SPLINE
  5
C6
330
1F
100
AcDbEntity
  8
0
  6
Continuous
 62
     7
370
    25
100
AcDbSpline
210
0.0
220
0.0
230
1.0
 70
     8
 71
     3
 72
    17
 73
    13
 74
     0
 42
0.000000001
 43
0.00000001
 40
0.0
 40
0.0
 40
0.0
 40
0.0
 40
0.10543619377073
 40
0.210872366389197
 40
0.3163058872322599
 40
0.4217395248875942
 40
0.5271723052323872
 40
0.6326050679447905
 40
0.7383833407490937
 40
0.8441614211117334
 40
0.9220806187675042
 40
1.0
 40
1.0
 40
1.0
 40
1.0
 10
366.5238516601068
 20
470.7649266764619
 30
0.0
 10
368.7693446976086
 20
470.6568644765633
 30
0.0
 10
373.2603303221289
 20
470.4407400984452
 30
0.0
 10
379.8166244461625
 20
468.7270761778523
 30
0.0
 10
386.0012612365736
 20
466.0144033690798
 30
0.0
 10
391.6621711794264
 20
462.3145432093079
 30
0.0
 10
396.6198464016635
 20
457.7196748318867
 30
0.0
 10
400.7711468776339
 20
452.3754839737264
 30
0.0
 10
403.9698261400887
 20
446.4014644726838
 30
0.0
 10
405.9482215739803
 20
440.5430345745494
 30
0.0
 10
406.9891794004817
 20
435.055160899735
 30
0.0
 10
407.1011958451657
 20
431.7377446501154
 30
0.0
 10
407.157204133485
 20
430.0790345713593
 30
0.0
  0
SPLINE
  5
C7
330
1F
100
AcDbEntity
  8
0
  6
Continuous
 62
     7
370
    25
100
AcDbSpline
210
0.0
220
0.0
230
1.0
 70
     8
 71
     3
 72
    13
 73
     9
 74
     0
 42
0.000000001
 43
0.00000001
 40
0.0
 40
0.0
 40
0.0
 40
0.0
 40
0.1744080823217142
 40
0.3488153626870904
 40
0.523708417299114
 40
0.6986035049837687
 40
0.8492714582679204
 40
0.9999999999999999
 40
0.9999999999999999
 40
0.9999999999999999
 40
0.9999999999999999
 10
366.5238516601068
 20
89.39314544648902
 30
0.0
 10
352.5555549090478
 20
89.45796610402384
 30
0.0
 10
324.6190256353989
 20
89.5876071210376
 30
0.0
 10
282.6510803406018
 20
89.56755281814266
 30
0.0
 10
240.6641882967051
 20
89.38480981432632
 30
0.0
 10
200.6226383644097
 20
89.05431034576428
 30
0.0
 10
162.5667458556688
 20
88.6264259604989
 30
0.0
 10
138.5397620737277
 20
88.2798747339705
 30
0.0
 10
126.5238551618797
 20
88.10656428785101
 30
0.0
  0
SPLINE
  5
C8
330
1F
100
AcDbEntity
  8
0
  6
Continuous
 62
     7
370
    25
100
AcDbSpline
210
0.0
220
0.0
230
1.0
 70
     8
 71
     3
 72
    15
 73
    11
 74
     0
 42
0.000000001
 43
0.00000001
 40
0.0
 40
0.0
 40
0.0
 40
0.0
 40
0.1338067230376912
 40
0.2676302480021379
 40
0.4014336203567359
 40
0.535940391785762
 40
0.6704685034959754
 40
0.8049770836091222
 40
0.9024749931422914
 40
1.0
 40
1.0
 40
1.0
 40
1.0
 10
84.53296406290356
 20
130.0790375515916
 30
0.0
 10
84.68995917026706
 20
143.4327100467594
 30
0.0
 10
85.00396909865454
 20
170.1417318394419
 30
0.0
 10
85.32052357825481
 20
210.2868123976741
 30
0.0
 10
85.50820733394676
 20
250.5377287653006
 30
0.0
 10
85.54081815981208
 20
290.8793354803503
 30
0.0
 10
85.42506563723273
 20
331.2844118962573
 30
0.0
 10
85.18745794411187
 20
367.954773489691
 30
0.0
 10
84.88277123610393
 20
400.8880550075734
 30
0.0
 10
84.64957725429606
 20
420.3478067761703
 30
0.0
 10
84.53296406290356
 20
430.0790345713593
 30
0.0
  0
SPLINE
  5
C9
330
1F
100
AcDbEntity
  8
0
  6
Continuous
 62
     7
370
    25
100
AcDbSpline
210
0.0
220
0.0
230
1.0
 70
    11
 71
     3
 72
    26
 73
    22
 74
     0
 42
0.000000001
 43
0.00000001
 40
0.0
 40
0.0
 40
0.0
 40
0.0
 40
0.0537023241347857
 40
0.1074052487774162
 40
0.1611001352184249
 40
0.2147844964831196
 40
0.2684606753803588
 40
0.3221335126415277
 40
0.3758076929136502
 40
0.4294884840528095
 40
0.4831795558473238
 40
0.5368816080415914
 40
0.5905906842377208
 40
0.6442977523884587
 40
0.6979924252170818
 40
0.7516701938177974
 40
0.8053355745116024
 40
0.8590009977613452
 40
0.9126790691624156
 40
0.9663737923420732
 40
1.0
 40
1.0
 40
1.0
 40
1.0
 10
416.3213251354438
 20
276.9790376022555
 30
0.0
 10
416.329036010822
 20
277.0133213835703
 30
0.0
 10
416.3444578478025
 20
277.0818893295664
 30
0.0
 10
416.3634407808343
 20
277.6164342931033
 30
0.0
 10
416.3772017797691
 20
278.4036118127331
 30
0.0
 10
416.3847593091546
 20
279.3863317725084
 30
0.0
 10
416.3857885047876
 20
280.4452330026227
 30
0.0
 10
416.3802408418583
 20
281.4632524703728
 30
0.0
 10
416.3683653129227
 20
282.3251188710219
 30
0.0
 10
416.3508237265615
 20
282.9338965174162
 30
0.0
 10
416.3289691393217
 20
283.2209080789133
 30
0.0
 10
416.3048677192609
 20
283.1537046016971
 30
0.0
 10
416.2813333281474
 20
282.7397236739585
 30
0.0
 10
416.2615389605776
 20
282.0256082449223
 30
0.0
 10
416.2483875045785
 20
281.0920354180714
 30
0.0
 10
416.2439844110453
 20
280.0443443848728
 30
0.0
 10
416.2489915363986
 20
279.0011364914681
 30
0.0
 10
416.2626473145024
 20
278.0780743073112
 30
0.0
 10
416.2827340400581
 20
277.3855814079885
 30
0.0
 10
416.3035269471245
 20
277.0281523126561
 30
0.0
 10
416.316376811872
 20
276.9926926706725
 30
0.0
 10
416.3213251354438
 20
276.9790376022555
 30
0.0
  0
LINE
  5
CA
330
1F
100
AcDbEntity
  8
0
  6
Continuous
 62
     7
370
    25
100
AcDbLine
 10
416.4674459221
 20
267.5790368065
 30
0.0
 11
416.0848288061
 21
267.5790368065
 31
0.0
  0
SPLINE
  5
CB
330
1F
100
AcDbEntity
  8
0
  6
Continuous
 62
     7
370
    25
100
AcDbSpline
210
0.0
220
0.0
230
1.0
 70
     8
 71
     3
 72
    17
 73
    13
 74
     0
 42
0.000000001
 43
0.00000001
 40
0.0
 40
0.0
 40
0.0
 40
0.0
 40
0.0740632002548229
 40
0.18149671964085
 40
0.2889117717482554
 40
0.3962740610989394
 40
0.5035723278863454
 40
0.6108274636684919
 40
0.7180835150069079
 40
0.8253823115471297
 40
0.9327453216342102
 40
1.0
 40
1.0
 40
1.0
 40
1.0
 10
416.0848288061363
 20
267.5790368065335
 30
0.0
 10
416.0796738982481
 20
267.5683940006463
 30
0.0
 10
416.0670414590808
 20
267.5423131082511
 30
0.0
 10
416.0476905901264
 20
267.2932434810081
 30
0.0
 10
416.0300317283555
 20
266.8351503111911
 30
0.0
 10
416.0185056213256
 20
266.2319221572034
 30
0.0
 10
416.014670301686
 20
265.5561989674703
 30
0.0
 10
416.0190392687823
 20
264.8832725111031
 30
0.0
 10
416.0310144600112
 20
264.2879770146815
 30
0.0
 10
416.0489902736864
 20
263.8413184831688
 30
0.0
 10
416.0680083117527
 20
263.6107337758805
 30
0.0
 10
416.0801517239437
 20
263.5878512910865
 30
0.0
 10
416.0848288061363
 20
263.5790380135276
 30
0.0
  0
LINE
  5
CC
330
1F
100
AcDbEntity
  8
0
  6
Continuous
 62
     7
370
    25
100
AcDbLine
 10
416.0848288061
 20
263.5790380135
 30
0.0
 11
416.4674459221
 21
263.5790380135
 31
0.0
  0
SPLINE
  5
CD
330
1F
100
AcDbEntity
  8
0
  6
Continuous
 62
     7
370
    25
100
AcDbSpline
210
0.0
220
0.0
230
1.0
 70
     8
 71
     3
 72
    17
 73
    13
 74
     0
 42
0.000000001
 43
0.00000001
 40
0.0
 40
0.0
 40
0.0
 40
0.0
 40
0.1073798276309566
 40
0.2147605454446846
 40
0.3221366092676431
 40
0.4295070103422118
 40
0.5368736321736568
 40
0.6442383162610225
 40
0.7516038168644141
 40
0.8589724873326877
 40
0.9663463882652154
 40
1.0
 40
1.0
 40
1.0
 40
1.0
 10
416.4674459221107
 20
263.5790380135276
 30
0.0
 10
416.4700587331737
 20
263.6011526055793
 30
0.0
 10
416.4752843769601
 20
263.6453819730136
 30
0.0
 10
416.4816002946488
 20
263.9901701636239
 30
0.0
 10
416.4861378454412
 20
264.497919727107
 30
0.0
 10
416.4885833089281
 20
265.1318731347422
 30
0.0
 10
416.4889270111092
 20
265.8150985810024
 30
0.0
 10
416.487118577478
 20
266.4718599106298
 30
0.0
 10
416.4832349702112
 20
267.0284426300684
 30
0.0
 10
416.477421067985
 20
267.4195622560559
 30
0.0
 10
416.4717360539986
 20
267.5671939137002
 30
0.0
 10
416.4682724477776
 20
267.5767551855594
 30
0.0
 10
416.4674459221107
 20
267.5790368065335
 30
0.0
  0
LINE
  5
CE
330
1F
100
AcDbEntity
  8
0
  6
Continuous
 62
     7
370
    25
100
AcDbLine
 10
416.0848288061
 20
284.5790377304
 30
0.0
 11
416.4674459221
 21
284.5790377304
 31
0.0
  0
SPLINE
  5
CF
330
1F
100
AcDbEntity
  8
0
  6
Continuous
 62
     7
370
    25
100
AcDbSpline
210
0.0
220
0.0
230
1.0
 70
     8
 71
     3
 72
    17
 73
    13
 74
     0
 42
0.000000001
 43
0.00000001
 40
0.0
 40
0.0
 40
0.0
 40
0.0
 40
0.1073797965604927
 40
0.2147605804800392
 40
0.3221367494526514
 40
0.4295071444556482
 40
0.5368735371683324
 40
0.6442382866379307
 40
0.7516039021743236
 40
0.8589725238405744
 40
0.966346378417049
 40
1.0
 40
1.0
 40
1.0
 40
1.0
 10
416.4674459221107
 20
284.5790377304055
 30
0.0
 10
416.4700587336199
 20
284.6011518724829
 30
0.0
 10
416.4752843806632
 20
284.6453803599774
 30
0.0
 10
416.4816002955462
 20
284.9901700880707
 30
0.0
 10
416.486137843092
 20
285.4979202338965
 30
0.0
 10
416.4885833078461
 20
286.1318733151554
 30
0.0
 10
416.4889270104965
 20
286.8150984552078
 30
0.0
 10
416.4871185758071
 20
287.4718596567182
 30
0.0
 10
416.4832349747634
 20
288.0284430436495
 30
0.0
 10
416.4774210680587
 20
288.4195631473581
 30
0.0
 10
416.4717360517409
 20
288.5671917667021
 30
0.0
 10
416.4682724477107
 20
288.576755294228
 30
0.0
 10
416.4674459221107
 20
288.579037454734
 30
0.0
  0
LINE
  5
D0
330
1F
100
AcDbEntity
  8
0
  6
Continuous
 62
     7
370
    25
100
AcDbLine
 10
416.4674459221
 20
288.5790374547
 30
0.0
 11
416.0848288061
 21
288.5790374547
 31
0.0
  0
SPLINE
  5
D1
330
1F
100
AcDbEntity
  8
0
  6
Continuous
 62
     7
370
    25
100
AcDbSpline
210
0.0
220
0.0
230
1.0
 70
     8
 71
     3
 72
    17
 73
    13
 74
     0
 42
0.000000001
 43
0.00000001
 40
0.0
 40
0.0
 40
0.0
 40
0.0
 40
0.074063203510903
 40
0.1814966861000719
 40
0.2889117805157216
 40
0.3962741275823367
 40
0.5035724601032119
 40
0.6108275881280467
 40
0.7180834376693976
 40
0.8253823241764906
 40
0.9327453264984573
 40
1.0
 40
1.0
 40
1.0
 40
1.0
 10
416.0848288061363
 20
288.579037454734
 30
0.0
 10
416.079673898842
 20
288.5683944332089
 30
0.0
 10
416.0670414640202
 20
288.5423130183454
 30
0.0
 10
416.0476905804389
 20
288.2932443334545
 30
0.0
 10
416.030031728663
 20
287.8351503705738
 30
0.0
 10
416.0185056202639
 20
287.2319218577845
 30
0.0
 10
416.0146703046029
 20
286.5561984210189
 30
0.0
 10
416.019039255021
 20
285.8832719704679
 30
0.0
 10
416.031014487515
 20
285.2879775215117
 30
0.0
 10
416.0489902597715
 20
284.8413180739424
 30
0.0
 10
416.0680083128119
 20
284.6107335225623
 30
0.0
 10
416.0801517242382
 20
284.5878510162516
 30
0.0
 10
416.0848288061363
 20
284.5790377304055
 30
0.0
  0
LINE
  5
D2
330
1F
100
AcDbEntity
  8
0
  6
Continuous
 62
     7
370
    25
100
AcDbLine
 10
416.0848288061
 20
300.579037559
 30
0.0
 11
416.4674459221
 21
300.579037559
 31
0.0
  0
SPLINE
  5
D3
330
1F
100
AcDbEntity
  8
0
  6
Continuous
 62
     7
370
    25
100
AcDbSpline
210
0.0
220
0.0
230
1.0
 70
     8
 71
     3
 72
    17
 73
    13
 74
     0
 42
0.000000001
 43
0.00000001
 40
0.0
 40
0.0
 40
0.0
 40
0.0
 40
0.10737980711402
 40
0.2147605529989156
 40
0.3221367200259667
 40
0.4295071130835069
 40
0.5368735781999397
 40
0.6442382542707038
 40
0.7516038678617267
 40
0.8589725303131012
 40
0.9663463829440564
 40
1.0
 40
1.0
 40
1.0
 40
1.0
 10
416.4674459221107
 20
300.5790375590421
 30
0.0
 10
416.4700587333353
 20
300.6011519316812
 30
0.0
 10
416.475284378627
 20
300.6453808702948
 30
0.0
 10
416.4816002969264
 20
300.9901698055498
 30
0.0
 10
416.4861378429106
 20
301.4979201077916
 30
0.0
 10
416.4885833082644
 20
302.131873277116
 30
0.0
 10
416.4889270111024
 20
302.8150984601381
 30
0.0
 10
416.4871185749642
 20
303.471859621253
 30
0.0
 10
416.4832349734131
 20
304.0284428710219
 30
0.0
 10
416.47742106971
 20
304.4195633567853
 30
0.0
 10
416.4717360520588
 20
304.5671924983854
 30
0.0
 10
416.4682724477128
 20
304.5767552970066
 30
0.0
 10
416.4674459221107
 20
304.5790372833707
 30
0.0
  0
LINE
  5
D4
330
1F
100
AcDbEntity
  8
0
  6
Continuous
 62
     7
370
    25
100
AcDbLine
 10
416.4674459221
 20
304.5790372834
 30
0.0
 11
416.0848288061
 21
304.5790372834
 31
0.0
  0
SPLINE
  5
D5
330
1F
100
AcDbEntity
  8
0
  6
Continuous
 62
     7
370
    25
100
AcDbSpline
210
0.0
220
0.0
230
1.0
 70
     8
 71
     3
 72
    17
 73
    13
 74
     0
 42
0.000000001
 43
0.00000001
 40
0.0
 40
0.0
 40
0.0
 40
0.0
 40
0.07406319289816
 40
0.181496701612866
 40
0.2889117430507847
 40
0.3962741526992163
 40
0.5035724088287359
 40
0.6108275339572801
 40
0.7180834452822021
 40
0.8253823288918227
 40
0.9327453283145858
 40
1.0
 40
1.0
 40
1.0
 40
1.0
 10
416.0848288061363
 20
304.5790372833707
 30
0.0
 10
416.0796738981968
 20
304.5683944782836
 30
0.0
 10
416.0670414589036
 20
304.5423135878489
 30
0.0
 10
416.0476905912208
 20
304.2932439407825
 30
0.0
 10
416.030031717126
 20
303.8351506650128
 30
0.0
 10
416.0185056282994
 20
303.231921878491
 30
0.0
 10
416.0146703021799
 20
302.5561985771633
 30
0.0
 10
416.0190392596435
 20
301.8832721695242
 30
0.0
 10
416.0310144815335
 20
301.2879774087247
 30
0.0
 10
416.0489902604138
 20
300.8413179110265
 30
0.0
 10
416.068008312719
 20
300.610733349977
 30
0.0
 10
416.0801517242124
 20
300.5878508445485
 30
0.0
 10
416.0848288061363
 20
300.5790375590421
 30
0.0
  0
SPLINE
  5
D6
330
1F
100
AcDbEntity
  8
0
  6
Continuous
 62
     7
370
    25
100
AcDbSpline
210
0.0
220
0.0
230
1.0
 70
     8
 71
     3
 72
    11
 73
     7
 74
     0
 42
0.000000001
 43
0.00000001
 40
0.0
 40
0.0
 40
0.0
 40
0.0
 40
0.249804404487032
 40
0.4996154253379977
 40
0.7498071091180969
 40
1.0
 40
1.0
 40
1.0
 40
1.0
 10
405.9669627072555
 20
259.2402948483922
 30
0.0
 10
406.0094090528971
 20
248.4670934529247
 30
0.0
 10
406.0943028684218
 20
226.9204053210595
 30
0.0
 10
406.3665520909062
 20
194.61737482978
 30
0.0
 10
406.711874803166
 20
162.3279651607543
 30
0.0
 10
407.0087607846478
 20
140.8286973758854
 30
0.0
 10
407.157204133485
 20
130.0790375515916
 30
0.0
  0
SPLINE
  5
D7
330
1F
100
AcDbEntity
  8
0
  6
Continuous
 62
     7
370
    25
100
AcDbSpline
210
0.0
220
0.0
230
1.0
 70
     8
 71
     3
 72
     9
 73
     5
 74
     0
 42
0.000000001
 43
0.00000001
 40
0.0
 40
0.0
 40
0.0
 40
0.0
 40
0.4999249345955492
 40
1.0
 40
1.0
 40
1.0
 40
1.0
 10
405.9669627072555
 20
300.9177819311716
 30
0.0
 10
405.9521542977321
 20
293.9725770502203
 30
0.0
 10
405.9225330316207
 20
280.0800815967376
 30
0.0
 10
405.9521513331708
 20
266.1875856617248
 30
0.0
 10
405.9669627072555
 20
259.2402948483922
 30
0.0
  0
SPLINE
  5
D8
330
1F
100
AcDbEntity
  8
0
  6
Continuous
 62
     7
370
    25
100
AcDbSpline
210
0.0
220
0.0
230
1.0
 70
     8
 71
     3
 72
    11
 73
     7
 74
     0
 42
0.000000001
 43
0.00000001
 40
0.0
 40
0.0
 40
0.0
 40
0.0
 40
0.2498302107682815
 40
0.4996592335335089
 40
0.749832933896774
 40
1.0
 40
1.0
 40
1.0
 40
1.0
 10
407.157204133485
 20
430.0790345713593
 30
0.0
 10
407.0089661118402
 20
419.344965113297
 30
0.0
 10
406.7124907734583
 20
397.8768772402679
 30
0.0
 10
406.3671516392853
 20
365.6031734410627
 30
0.0
 10
406.0945397467036
 20
333.2845878238273
 30
0.0
 10
406.0094880111575
 20
311.7066218578304
 30
0.0
 10
405.9669627072555
 20
300.9177819311716
 30
0.0
  0
LINE
  5
D9
330
1F
100
AcDbEntity
  8
0
  6
Continuous
 62
     7
370
    25
100
AcDbLine
 10
416.0848288061
 20
292.5790375865
 30
0.0
 11
416.4674459221
 21
292.5790375865
 31
0.0
  0
SPLINE
  5
DA
330
1F
100
AcDbEntity
  8
0
  6
Continuous
 62
     7
370
    25
100
AcDbSpline
210
0.0
220
0.0
230
1.0
 70
     8
 71
     3
 72
    17
 73
    13
 74
     0
 42
0.000000001
 43
0.00000001
 40
0.0
 40
0.0
 40
0.0
 40
0.0
 40
0.1073798089995499
 40
0.2147605506964576
 40
0.3221367178294002
 40
0.429507120086809
 40
0.5368735111772008
 40
0.6442382768879024
 40
0.7516039059275565
 40
0.8589725259714813
 40
0.9663463789255509
 40
0.9999999999999999
 40
0.9999999999999999
 40
0.9999999999999999
 40
0.9999999999999999
 10
416.4674459221107
 20
292.5790375865162
 30
0.0
 10
416.4700587332997
 20
292.6011519878987
 30
0.0
 10
416.4752843783724
 20
292.6453809827485
 30
0.0
 10
416.4816002970954
 20
292.9901698198184
 30
0.0
 10
416.4861378430046
 20
293.4979201507186
 30
0.0
 10
416.4885833078379
 20
294.131873200851
 30
0.0
 10
416.4889270104359
 20
294.8150984102567
 30
0.0
 10
416.4871185757791
 20
295.4718596724267
 30
0.0
 10
416.4832349751876
 20
296.0284431843601
 30
0.0
 10
416.477421068017
 20
296.4195632912112
 30
0.0
 10
416.4717360517436
 20
296.5671919140644
 30
0.0
 10
416.4682724477112
 20
296.576755441418
 30
0.0
 10
416.4674459221107
 20
296.579037601883
 30
0.0
  0
LINE
  5
DB
330
1F
100
AcDbEntity
  8
0
  6
Continuous
 62
     7
370
    25
100
AcDbLine
 10
416.4674459221
 20
296.5790376019
 30
0.0
 11
416.0848288061
 21
296.5790376019
 31
0.0
  0
SPLINE
  5
DC
330
1F
100
AcDbEntity
  8
0
  6
Continuous
 62
     7
370
    25
100
AcDbSpline
210
0.0
220
0.0
230
1.0
 70
     8
 71
     3
 72
    17
 73
    13
 74
     0
 42
0.000000001
 43
0.00000001
 40
0.0
 40
0.0
 40
0.0
 40
0.0
 40
0.0740632018111898
 40
0.1814966964481309
 40
0.2889117883986583
 40
0.3962741002608644
 40
0.5035724670662468
 40
0.6108275697504224
 40
0.7180834410852598
 40
0.8253823281838785
 40
0.9327453280419183
 40
1.0
 40
1.0
 40
1.0
 40
1.0
 10
416.0848288061363
 20
296.579037601883
 30
0.0
 10
416.0796738986753
 20
296.5683945922676
 30
0.0
 10
416.0670414624346
 20
296.542313204504
 30
0.0
 10
416.0476905820739
 20
296.2932441954149
 30
0.0
 10
416.0300317312001
 20
295.8351503365719
 30
0.0
 10
416.018505617174
 20
295.2319218856788
 30
0.0
 10
416.01467030471
 20
294.5561984467624
 30
0.0
 10
416.019039257144
 20
293.8832719555463
 30
0.0
 10
416.0310144856954
 20
293.2879774282359
 30
0.0
 10
416.0489902596039
 20
292.8413179304868
 30
0.0
 10
416.0680083128063
 20
292.6107333789715
 30
0.0
 10
416.0801517242367
 20
292.5878508724453
 30
0.0
 10
416.0848288061363
 20
292.5790375865162
 30
0.0
  0
LINE
  5
DD
330
1F
100
AcDbEntity
  8
0
  6
Continuous
 62
     7
370
    25
100
AcDbLine
 10
416.0848288061
 20
255.5790385649
 30
0.0
 11
416.4674459221
 21
255.5790385649
 31
0.0
  0
SPLINE
  5
DE
330
1F
100
AcDbEntity
  8
0
  6
Continuous
 62
     7
370
    25
100
AcDbSpline
210
0.0
220
0.0
230
1.0
 70
     8
 71
     3
 72
    17
 73
    13
 74
     0
 42
0.000000001
 43
0.00000001
 40
0.0
 40
0.0
 40
0.0
 40
0.0
 40
0.107379755333727
 40
0.2147604508465503
 40
0.3221364923695707
 40
0.4295068711453774
 40
0.536873470678845
 40
0.6442381324686359
 40
0.751603852782909
 40
0.8589725009527799
 40
0.9663463795858185
 40
1.0
 40
1.0
 40
1.0
 40
1.0
 10
416.4674459221107
 20
255.5790385648705
 30
0.0
 10
416.4700587334331
 20
255.6011523850003
 30
0.0
 10
416.4752843789547
 20
255.6453802188806
 30
0.0
 10
416.4816002943597
 20
255.9901689843038
 30
0.0
 10
416.4861378455838
 20
256.4979183842004
 30
0.0
 10
416.4885833086472
 20
257.1318718178862
 30
0.0
 10
416.4889270120904
 20
257.8150973235157
 30
0.0
 10
416.4871185724752
 20
258.4718588830827
 30
0.0
 10
416.4832349771909
 20
259.0284429025285
 30
0.0
 10
416.4774210676529
 20
259.4195634278993
 30
0.0
 10
416.4717360525744
 20
259.5671926907449
 30
0.0
 10
416.4682724477398
 20
259.5767568982102
 30
0.0
 10
416.4674459221107
 20
259.5790392205216
 30
0.0
  0
LINE
  5
DF
330
1F
100
AcDbEntity
  8
0
  6
Continuous
 62
     7
370
    25
100
AcDbLine
 10
416.4674459221
 20
259.5790392205
 30
0.0
 11
416.0848288061
 21
259.5790392205
 31
0.0
  0
SPLINE
  5
E0
330
1F
100
AcDbEntity
  8
0
  6
Continuous
 62
     7
370
    25
100
AcDbSpline
210
0.0
220
0.0
230
1.0
 70
     8
 71
     3
 72
    17
 73
    13
 74
     0
 42
0.000000001
 43
0.00000001
 40
0.0
 40
0.0
 40
0.0
 40
0.0
 40
0.0740632628697057
 40
0.1814966570264429
 40
0.288911700012442
 40
0.3962742421702375
 40
0.5035722058705694
 40
0.6108273325448892
 40
0.7180833747754007
 40
0.8253823576588846
 40
0.932745358628978
 40
1.0
 40
1.0
 40
1.0
 40
1.0
 10
416.0848288061363
 20
259.5790392205216
 30
0.0
 10
416.0796739005963
 20
259.5683948165488
 30
0.0
 10
416.0670414822212
 20
259.542310038992
 30
0.0
 10
416.0476905753472
 20
259.2932449159176
 30
0.0
 10
416.0300317081427
 20
258.8351503228818
 30
0.0
 10
416.0185056474055
 20
258.2319218403345
 30
0.0
 10
416.0146702974877
 20
257.5561989761663
 30
0.0
 10
416.0190392678502
 20
256.8832729567333
 30
0.0
 10
416.0310144792032
 20
256.2879775553271
 30
0.0
 10
416.0489902505608
 20
255.8413172387295
 30
0.0
 10
416.0680083082652
 20
255.6107317050401
 30
0.0
 10
416.0801517239397
 20
255.5878511114894
 30
0.0
 10
416.0848288061363
 20
255.5790385648705
 30
0.0
  0
LINE
  5
E1
330
1F
100
AcDbEntity
  8
0
  6
Continuous
 62
     7
370
    25
100
AcDbLine
 10
416.0848288061
 20
271.5790374622
 30
0.0
 11
416.4674459221
 21
271.5790374622
 31
0.0
  0
SPLINE
  5
E2
330
1F
100
AcDbEntity
  8
0
  6
Continuous
 62
     7
370
    25
100
AcDbSpline
210
0.0
220
0.0
230
1.0
 70
     8
 71
     3
 72
    17
 73
    13
 74
     0
 42
0.000000001
 43
0.00000001
 40
0.0
 40
0.0
 40
0.0
 40
0.0
 40
0.1073798263636677
 40
0.2147605429100963
 40
0.3221368279090032
 40
0.4295072277163943
 40
0.5368735508841564
 40
0.644238233704412
 40
0.7516039750493569
 40
0.8589724733284781
 40
0.9663463729937867
 40
1.0
 40
1.0
 40
1.0
 40
1.0
 10
416.4674459221107
 20
271.5790374621846
 30
0.0
 10
416.4700587329255
 20
271.6011520766017
 30
0.0
 10
416.4752843762155
 20
271.6453814887668
 30
0.0
 10
416.4816003019882
 20
271.9901695819831
 30
0.0
 10
416.486137839927
 20
272.4979209396415
 30
0.0
 10
416.4885833076449
 20
273.1318737398335
 30
0.0
 10
416.4889270113714
 20
273.8150987525046
 30
0.0
 10
416.4871185713026
 20
274.4718595043772
 30
0.0
 10
416.4832349829916
 20
275.0284438591738
 30
0.0
 10
416.4774210605475
 20
275.419561987108
 30
0.0
 10
416.471736052781
 20
275.5671916165088
 30
0.0
 10
416.4682724477796
 20
275.5767558010053
 30
0.0
 10
416.4674459221107
 20
275.5790381178357
 30
0.0
  0
LINE
  5
E3
330
1F
100
AcDbEntity
  8
0
  6
Continuous
 62
     7
370
    25
100
AcDbLine
 10
416.4674459221
 20
275.5790381178
 30
0.0
 11
416.0848288061
 21
275.5790381178
 31
0.0
  0
SPLINE
  5
E4
330
1F
100
AcDbEntity
  8
0
  6
Continuous
 62
     7
370
    25
100
AcDbSpline
210
0.0
220
0.0
230
1.0
 70
     8
 71
     3
 72
    17
 73
    13
 74
     0
 42
0.000000001
 43
0.00000001
 40
0.0
 40
0.0
 40
0.0
 40
0.0
 40
0.074063230604011
 40
0.1814966279330775
 40
0.2889118743995249
 40
0.3962741578035124
 40
0.5035724186477682
 40
0.6108275484891534
 40
0.7180833351671954
 40
0.8253823212190394
 40
0.9327453253593836
 40
1.0
 40
1.0
 40
1.0
 40
1.0
 10
416.0848288061363
 20
275.5790381178357
 30
0.0
 10
416.0796739007185
 20
275.5683944477512
 30
0.0
 10
416.0670414791646
 20
275.5423114614514
 30
0.0
 10
416.0476905493602
 20
275.2932456443889
 30
0.0
 10
416.0300317514061
 20
274.8351495096675
 30
0.0
 10
416.0185056160313
 20
274.2319217530916
 30
0.0
 10
416.0146703069907
 20
273.5561984519773
 30
0.0
 10
416.0190392493482
 20
272.8832722103571
 30
0.0
 10
416.031014503366
 20
272.2879781537459
 30
0.0
 10
416.0489902470571
 20
271.8413176983146
 30
0.0
 10
416.0680083136974
 20
271.6107332814407
 30
0.0
 10
416.0801517244845
 20
271.5878507555659
 30
0.0
 10
416.0848288061363
 20
271.5790374621846
 30
0.0
  0
SPLINE
  5
E5
330
1F
100
AcDbEntity
  8
0
  6
Continuous
 62
     7
370
    25
100
AcDbSpline
210
0.0
220
0.0
230
1.0
 70
     8
 71
     3
 72
    13
 73
     9
 74
     0
 42
0.000000001
 43
0.00000001
 40
0.0
 40
0.0
 40
0.0
 40
0.0
 40
0.1746132973176012
 40
0.3492259501145932
 40
0.5242760533120233
 40
0.6993277381126589
 40
0.8496361203536555
 40
1.0
 40
1.0
 40
1.0
 40
1.0
 10
367.7556505622608
 20
439.3770015284516
 30
0.0
 10
353.499059766714
 20
439.3312643202363
 30
0.0
 10
324.9859307985693
 20
439.2397900726277
 30
0.0
 10
282.1583414897966
 20
439.2561139017985
 30
0.0
 10
239.3132596702502
 20
439.3801027736338
 30
0.0
 10
198.4930631848657
 20
439.6293708530474
 30
0.0
 10
159.7349706314103
 20
439.9771840285415
 30
0.0
 10
135.289478298294
 20
440.2765640532699
 30
0.0
 10
123.064476084922
 20
440.4262816950776
 30
0.0
  0
LWPOLYLINE
  5
E6
330
1F
100
AcDbEntity
  8
0
  6
Continuous
 62
     7
370
    25
100
AcDbPolyline
 90
       14
 70
   128
 43
0.0
 10
123.0644760849
 20
440.4262816951
 10
123.1655506613
 20
444.0062409684
 10
123.3024476292
 20
447.515777354
 10
123.4737215759
 20
450.9174293324
 10
123.6775098564
 20
454.1749274775
 10
123.9116667034
 20
457.2535222814
 10
124.1736887219
 20
460.1203715846
 10
124.4607744934
 20
462.7449131057
 10
124.7698692801
 20
465.0991177604
 10
125.0976799252
 20
467.1579068944
 10
125.4406897547
 20
468.8993161962
 10
125.7952628853
 20
470.3047490165
 10
126.1575995209
 20
471.3592296884
 10
126.5238551619
 20
472.0515078351
  0
LWPOLYLINE
  5
E7
330
1F
100
AcDbEntity
  8
0
  6
Continuous
 62
     7
370
    25
100
AcDbPolyline
 90
       14
 70
   128
 43
0.0
 10
367.7556505623
 20
439.3770015285
 10
367.7179618003
 20
442.9103648707
 10
367.6678529205
 20
446.3736331508
 10
367.6058436008
 20
449.7307753608
 10
367.5325783165
 20
452.9468929812
 10
367.4488207521
 20
455.988503103
 10
367.3554407629
 20
458.8240003631
 10
367.2534106495
 20
461.42385066
 10
367.1437921198
 20
463.7610530898
 10
367.0277251127
 20
465.811259155
 10
366.9064147594
 20
467.5531601951
 10
366.7811257961
 20
468.9686214969
 10
366.6531620743
 20
470.0429356143
 10
366.5238516601
 20
470.7649266765
  0
SPLINE
  5
E8
330
1F
100
AcDbEntity
  8
0
  6
Continuous
 62
     7
370
    25
100
AcDbSpline
210
0.0
220
0.0
230
1.0
 70
     8
 71
     3
 72
    15
 73
    11
 74
     0
 42
0.000000001
 43
0.00000001
 40
0.0
 40
0.0
 40
0.0
 40
0.0
 40
0.0974171987833147
 40
0.1948587464018897
 40
0.3287194749624296
 40
0.4625976481597867
 40
0.5964569699350055
 40
0.7309642156865362
 40
0.8654899699829686
 40
1.0
 40
1.0
 40
1.0
 40
1.0
 10
115.5843166830283
 20
432.9600697800614
 30
0.0
 10
115.6832000421755
 20
423.0509138895134
 30
0.0
 10
115.880991475763
 20
403.2301253752802
 30
0.0
 10
116.1276751980427
 20
369.7450232697715
 30
0.0
 10
116.3138235462751
 20
332.5101054827081
 30
0.0
 10
116.4006150939443
 20
291.5325577990267
 30
0.0
 10
116.3762406318773
 20
250.4823354071231
 30
0.0
 10
116.2350475129134
 20
209.3841036232402
 30
0.0
 10
115.9836207713431
 20
168.2524809732553
 30
0.0
 10
115.7174128594668
 20
140.8822953197991
 30
0.0
 10
115.5843166830284
 20
127.1980023428895
 30
0.0
  0
LWPOLYLINE
  5
E9
330
1F
100
AcDbEntity
  8
0
  6
Continuous
 62
     7
370
    25
100
AcDbPolyline
 90
       14
 70
   128
 43
0.0
 10
115.584316683
 20
127.1980023429
 10
112.0565412762
 20
127.2860980079
 10
108.6029140475
 20
127.4032509372
 10
105.2593914988
 20
127.5482541368
 10
102.0607380392
 20
127.7195876882
 10
99.0402428629
 20
127.9154783532
 10
96.2293623211
 20
128.1338846728
 10
93.6573026898
 20
128.3725267693
 10
91.3508711579
 20
128.62893105
 10
89.3340287926
 20
128.9004153058
 10
87.6277862313
 20
129.1841632173
 10
86.249905658
 20
129.4772392556
 10
85.2146921875
 20
129.7765588805
 10
84.5329640629
 20
130.0790375516
  0
LWPOLYLINE
  5
EA
330
1F
100
AcDbEntity
  8
0
  6
Continuous
 62
     7
370
    25
100
AcDbPolyline
 90
       14
 70
   128
 43
0.0
 10
115.584316683
 20
432.9600697801
 10
112.0565412762
 20
432.8719741151
 10
108.6029140475
 20
432.7548211858
 10
105.2593914988
 20
432.6098179862
 10
102.0607380392
 20
432.4384844348
 10
99.0402428629
 20
432.2425937697
 10
96.2293623211
 20
432.0241874501
 10
93.6573026898
 20
431.7855453536
 10
91.3508711579
 20
431.5291410729
 10
89.3340287926
 20
431.2576568171
 10
87.6277862313
 20
430.9739089057
 10
86.249905658
 20
430.6808328673
 10
85.2146921875
 20
430.3815132424
 10
84.5329640629
 20
430.0790345714
  0
LWPOLYLINE
  5
EB
330
1F
100
AcDbEntity
  8
0
  6
Continuous
 62
     7
370
    25
100
AcDbPolyline
 90
       14
 70
   128
 43
0.0
 10
123.0644760849
 20
119.7317904279
 10
123.1655506613
 20
116.1518311545
 10
123.3024476292
 20
112.6423096702
 10
123.4737215759
 20
109.2406427905
 10
123.6775098564
 20
105.9831446454
 10
123.9116667034
 20
102.9045498416
 10
124.1736887219
 20
100.0377005383
 10
124.4607744934
 20
97.4131739184
 10
124.7698692801
 20
95.0589543626
 10
125.0976799252
 20
93.0001652286
 10
125.4406897547
 20
91.258770828
 10
125.7952628853
 20
89.8533231065
 10
126.1575995209
 20
88.7988424346
 10
126.5238551619
 20
88.1065642879
  0
SPLINE
  5
EC
330
1F
100
AcDbEntity
  8
0
  6
Continuous
 62
     7
370
    25
100
AcDbSpline
210
0.0
220
0.0
230
1.0
 70
     8
 71
     3
 72
    13
 73
     9
 74
     0
 42
0.000000001
 43
0.00000001
 40
0.0
 40
0.0
 40
0.0
 40
0.0
 40
0.15041733252186
 40
0.3008888758998876
 40
0.475452835449456
 40
0.6500151967520834
 40
0.8250072779154594
 40
1.0
 40
1.0
 40
1.0
 40
1.0
 10
123.064476084922
 20
119.7317904278733
 30
0.0
 10
135.2938266328981
 20
119.881558303951
 30
0.0
 10
159.7569352233356
 20
120.1811480328965
 30
0.0
 10
198.4930015964921
 20
120.5286474604884
 30
0.0
 10
239.2469074769216
 20
120.7775741343702
 30
0.0
 10
282.0432057993811
 20
120.9017781375628
 30
0.0
 10
324.8929656757193
 20
120.9185127188202
 30
0.0
 10
353.46807149038
 20
120.8268846918718
 30
0.0
 10
367.7556505622608
 20
120.7810705944993
 30
0.0
  0
LWPOLYLINE
  5
ED
330
1F
100
AcDbEntity
  8
0
  6
Continuous
 62
     7
370
    25
100
AcDbPolyline
 90
       14
 70
   128
 43
0.0
 10
366.5238516601
 20
89.3931454465
 10
366.6531620743
 20
90.1151365087
 10
366.7811257961
 20
91.1894506261
 10
366.9064147594
 20
92.604926829
 10
367.0277251127
 20
94.346812968
 10
367.1437921198
 20
96.3970339343
 10
367.2534106495
 20
98.7342214629
 10
367.3554407629
 20
101.3340866611
 10
367.4488207521
 20
104.16956902
 10
367.5325783165
 20
107.2111940429
 10
367.6058436008
 20
110.4272967622
 10
367.6678529205
 20
113.7844538733
 10
367.7179618003
 20
117.2477072522
 10
367.7556505623
 20
120.7810705945
  0
SPLINE
  5
EE
330
1F
100
AcDbEntity
  8
0
  6
Continuous
 62
     7
370
    25
100
AcDbSpline
210
0.0
220
0.0
230
1.0
 70
     8
 71
     3
 72
    12
 73
     8
 74
     0
 42
0.000000001
 43
0.00000001
 40
0.0
 40
0.0
 40
0.0
 40
0.0
 40
0.1587462305552532
 40
0.3679239637292388
 40
0.5779021162313703
 40
0.7890635532015501
 40
1.0
 40
1.0
 40
1.0
 40
1.0
 10
115.5843166830284
 20
127.1980023428895
 30
0.0
 10
115.6240021629119
 20
126.5767378087334
 30
0.0
 10
115.7159806559452
 20
125.1368415092646
 30
0.0
 10
116.6686523623324
 20
123.0175119289916
 30
0.0
 10
118.3587941408985
 20
121.1794094965431
 30
0.0
 10
120.5832588305897
 20
119.9424761402001
 30
0.0
 10
122.2376976211142
 20
119.8019940383309
 30
0.0
 10
123.064476084922
 20
119.7317904278733
 30
0.0
  0
SPLINE
  5
EF
330
1F
100
AcDbEntity
  8
0
  6
Continuous
 62
     7
370
    25
100
AcDbSpline
210
0.0
220
0.0
230
1.0
 70
     8
 71
     3
 72
    12
 73
     8
 74
     0
 42
0.000000001
 43
0.00000001
 40
0.0
 40
0.0
 40
0.0
 40
0.0
 40
0.1608726774884625
 40
0.3700371017781433
 40
0.5794632766977127
 40
0.7898170705369799
 40
1.0
 40
1.0
 40
1.0
 40
1.0
 10
123.064476084922
 20
440.4262816950776
 30
0.0
 10
122.435701328102
 20
440.3870193550567
 30
0.0
 10
120.9894023523072
 20
440.2967086650306
 30
0.0
 10
118.8675326707949
 20
439.340270267566
 30
0.0
 10
117.0345930666962
 20
437.6533993535151
 30
0.0
 10
115.7995860226152
 20
435.4355088924989
 30
0.0
 10
115.6560536904603
 20
433.7849926155531
 30
0.0
 10
115.5843166830284
 20
432.9600697800614
 30
0.0
  0
LWPOLYLINE
  5
F0
330
1F
100
AcDbEntity
  8
0
  6
Continuous
 62
     7
370
    25
100
AcDbPolyline
 90
       14
 70
   128
 43
0.0
 10
405.9669627073
 20
300.9177819312
 10
405.1876058998
 20
300.9775276713
 10
404.0400227728
 20
301.0366214857
 10
402.5367303016
 20
301.0944193646
 10
400.6941272142
 20
301.1502903372
 10
398.5323077264
 20
301.2036253184
 10
396.0748529258
 20
301.2538422316
 10
393.3485700013
 20
301.3003934592
 10
390.3831979456
 20
301.342771896
 10
387.2110797288
 20
301.380514209
 10
383.8668121221
 20
301.4132092193
 10
380.3868768933
 20
301.440500696
 10
376.8092310252
 20
301.4620906159
 10
373.1728987964
 20
301.4777424231
  0
SPLINE
  5
F1
330
1F
100
AcDbEntity
  8
0
  6
Continuous
 62
     7
370
    25
100
AcDbSpline
210
0.0
220
0.0
230
1.0
 70
     8
 71
     3
 72
    11
 73
     7
 74
     0
 42
0.000000001
 43
0.00000001
 40
0.0
 40
0.0
 40
0.0
 40
0.0
 40
0.2498198061112451
 40
0.4996447448981043
 40
0.749821758190353
 40
1.0
 40
1.0
 40
1.0
 40
1.0
 10
373.1728987964136
 20
301.4777424231269
 30
0.0
 10
373.1733758064155
 20
312.461105596389
 30
0.0
 10
373.1743298362197
 20
334.4280576017237
 30
0.0
 10
373.2991003467239
 20
367.3637355049758
 30
0.0
 10
373.5519651092675
 20
400.2867060537232
 30
0.0
 10
373.8031330689478
 20
422.2101141304296
 30
0.0
 10
373.9287173571331
 20
433.1718450829484
 30
0.0
  0
LWPOLYLINE
  5
F2
330
1F
100
AcDbEntity
  8
0
  6
Continuous
 62
     7
370
    25
100
AcDbPolyline
 90
       14
 70
   128
 43
0.0
 10
407.1572041335
 20
430.0790345714
 10
406.3994465592
 20
430.4126715705
 10
405.2611803832
 20
430.742553477
 10
403.7552094283
 20
431.0649699018
 10
401.8984651389
 20
431.3762998626
 10
399.7118352177
 20
431.6730415866
 10
397.2199065807
 20
431.9518423125
 10
394.4507157626
 20
432.2095876977
 10
391.4353950145
 20
432.4433869168
 10
388.2078668298
 20
432.6505726621
 10
384.8044304373
 20
432.8288501546
 10
381.2633557441
 20
432.9761928365
 10
377.6244772794
 20
433.09096158
 10
373.9287173571
 20
433.1718450829
  0
LWPOLYLINE
  5
F3
330
1F
100
AcDbEntity
  8
0
  6
Continuous
 62
     7
370
    25
100
AcDbPolyline
 90
       14
 70
   128
 43
0.0
 10
407.1572041335
 20
130.0790375516
 10
406.3994465592
 20
129.7454005525
 10
405.2611803832
 20
129.415518646
 10
403.7552094283
 20
129.0931022212
 10
401.8984651389
 20
128.7817722604
 10
399.7118352177
 20
128.4850454375
 10
397.2199065807
 20
128.2062298104
 10
394.4507157626
 20
127.9484844253
 10
391.4353950145
 20
127.7147001073
 10
388.2078668298
 20
127.5074994609
 10
384.8044304373
 20
127.3292219684
 10
381.2633557441
 20
127.1818792865
 10
377.6244772794
 20
127.0671254441
 10
373.9287173571
 20
126.98622704
  0
SPLINE
  5
F4
330
1F
100
AcDbEntity
  8
0
  6
Continuous
 62
     7
370
    25
100
AcDbSpline
210
0.0
220
0.0
230
1.0
 70
     8
 71
     3
 72
    11
 73
     7
 74
     0
 42
0.000000001
 43
0.00000001
 40
0.0
 40
0.0
 40
0.0
 40
0.0
 40
0.2498415826034353
 40
0.4996818488987259
 40
0.7498435039113024
 40
1.0
 40
1.0
 40
1.0
 40
1.0
 10
373.9287173571331
 20
126.9862270400025
 30
0.0
 10
373.8032912789503
 20
137.9332010990473
 30
0.0
 10
373.5524397834012
 20
159.8270915422258
 30
0.0
 10
373.299455847632
 20
192.7352016445232
 30
0.0
 10
373.1743749734265
 20
225.685610937308
 30
0.0
 10
373.1733908520354
 20
247.682166958347
 30
0.0
 10
373.1728987964136
 20
258.6803315624692
 30
0.0
  0
LWPOLYLINE
  5
F5
330
1F
100
AcDbEntity
  8
0
  6
Continuous
 62
     7
370
    25
100
AcDbPolyline
 90
       14
 70
   128
 43
0.0
 10
405.9669627073
 20
259.2402948484
 10
405.1876058998
 20
259.1805486426
 10
404.0400227728
 20
259.1214543626
 10
402.5367303016
 20
259.0636564836
 10
400.6941272142
 20
259.0077845797
 10
398.5323077264
 20
258.9544495985
 10
396.0748529258
 20
258.9042326853
 10
393.3485700013
 20
258.8576814577
 10
390.3831979456
 20
258.8153025553
 10
387.2110797288
 20
258.7775616393
 10
383.8668121221
 20
258.7448647663
 10
380.3868768933
 20
258.7175732896
 10
376.8092310252
 20
258.6959852323
 10
373.1728987964
 20
258.6803315625
  0
SPLINE
  5
F6
330
1F
100
AcDbEntity
  8
0
  6
Continuous
 62
     7
370
    25
100
AcDbSpline
210
0.0
220
0.0
230
1.0
 70
     8
 71
     3
 72
    12
 73
     8
 74
     0
 42
0.000000001
 43
0.00000001
 40
0.0
 40
0.0
 40
0.0
 40
0.0
 40
0.151098293490569
 40
0.3625912468865177
 40
0.5748093034941615
 40
0.7875651857790877
 40
1.0
 40
1.0
 40
1.0
 40
1.0
 10
367.7556505622608
 20
120.7810705944993
 30
0.0
 10
368.2455799363474
 20
120.8137198742804
 30
0.0
 10
369.4212656342635
 20
120.8920684961763
 30
0.0
 10
371.1707492892301
 20
121.6645802830803
 30
0.0
 10
372.71193843242
 20
123.0679915850784
 30
0.0
 10
373.7500096406724
 20
124.9180188424082
 30
0.0
 10
373.8691781136312
 20
126.2971714472842
 30
0.0
 10
373.9287173571331
 20
126.9862270400025
 30
0.0
  0
SPLINE
  5
F7
330
1F
100
AcDbEntity
  8
0
  6
Continuous
 62
     7
370
    25
100
AcDbSpline
210
0.0
220
0.0
230
1.0
 70
     8
 71
     3
 72
    12
 73
     8
 74
     0
 42
0.000000001
 43
0.00000001
 40
0.0
 40
0.0
 40
0.0
 40
0.0
 40
0.1554050137628323
 40
0.3666181245193004
 40
0.577609761170924
 40
0.7888215672409848
 40
1.0
 40
1.0
 40
1.0
 40
1.0
 10
373.9287173571331
 20
433.1718450829484
 30
0.0
 10
373.8981644364961
 20
433.6744265617456
 30
0.0
 10
373.8260866174394
 20
434.8600735026866
 30
0.0
 10
373.0501842923169
 20
436.6137411120254
 30
0.0
 10
371.6543065778283
 20
438.1468461815084
 30
0.0
 10
369.816001460132
 20
439.1844312478754
 30
0.0
 10
368.4423980184686
 20
439.3128148161476
 30
0.0
 10
367.7556505622608
 20
439.3770015284516
 30
0.0
  0
ARC
  5
F8
330
1F
100
AcDbEntity
  8
0
  6
Continuous
 62
     7
370
    25
100
AcDbCircle
 10
306.5238518479
 20
280.0790375802
 30
0.0
 40
69.99999999999999
100
AcDbArc
 50
17.8000290607
 51
342.1999709393
  0
LINE
  5
F9
330
1F
100
AcDbEntity
  8
0
  6
Continuous
 62
     7
370
    25
100
AcDbLine
 10
373.1728987964
 20
258.6803315625
 30
0.0
 11
373.23104499
 21
277.154841502
 31
0.0
  0
LINE
  5
FA
330
1F
100
AcDbEntity
  8
0
  6
Continuous
 62
     7
370
    25
100
AcDbLine
 10
373.23104499
 20
283.0032343462
 30
0.0
 11
373.23104499
 21
277.154841502
 31
0.0
  0
LINE
  5
FB
330
1F
100
AcDbEntity
  8
0
  6
Continuous
 62
     7
370
    25
100
AcDbLine
 10
373.23104499
 20
283.0032343462
 30
0.0
 11
373.1728987964
 21
301.4777424231
 31
0.0
  0
ARC
  5
FC
330
1F
100
AcDbEntity
  8
0
  6
Continuous
 62
     7
370
    25
100
AcDbCircle
 10
306.5238518479
 20
280.0790375802
 30
0.0
 40
66.77125453482508
100
AcDbArc
 50
2.5100283872
 51
357.4899716128
  0
LINE
  5
FD
330
1F
100
AcDbEntity
  8
0
  6
Continuous
 62
     7
370
    25
100
AcDbLine
 10
372.6121885898
 20
277.181969066
 30
0.0
 11
372.6121885898
 21
282.9761058509
 31
0.0
  0
LWPOLYLINE
  5
FE
330
1F
100
AcDbEntity
  8
0
  6
Continuous
 62
     7
370
    25
100
AcDbPolyline
 90
        9
 70
   128
 43
0.0
 10
373.23104499
 20
283.0032343462
 10
373.1527505638
 20
282.9998024225
 10
373.0746163251
 20
282.9963770181
 10
372.9966981532
 20
282.9929618582
 10
372.9190482023
 20
282.9895578742
 10
372.8417186262
 20
282.98616786
 10
372.7647653045
 20
282.9827946097
 10
372.6882366659
 20
282.9794399858
 10
372.6121885898
 20
282.9761058509
  0
LWPOLYLINE
  5
FF
330
1F
100
AcDbEntity
  8
0
  6
Continuous
 62
     7
370
    25
100
AcDbPolyline
 90
        9
 70
   128
 43
0.0
 10
372.6121885898
 20
277.181969066
 10
372.6882366659
 20
277.1786349312
 10
372.7647653045
 20
277.1752803072
 10
372.8417186262
 20
277.1719070569
 10
372.9190482023
 20
277.1685170427
 10
372.9966981532
 20
277.16511399
 10
373.0746163251
 20
277.1616978988
 10
373.1527505638
 20
277.1582724944
 10
373.23104499
 20
277.154841502
  0
CIRCLE
  5
100
330
1F
100
AcDbEntity
  8
0
  6
Continuous
 62
     7
370
    25
100
AcDbCircle
 10
306.5238518479
 20
280.0790375802
 30
0.0
 40
58.61177143234619
  0
ARC
  5
101
330
1F
100
AcDbEntity
  8
0
  6
Continuous
 62
     7
370
    25
100
AcDbCircle
 10
306.5238518479
 20
280.0790375802
 30
0.0
 40
66.15180526824552
100
AcDbArc
 50
2.5100283872
 51
357.4899716128
  0
CIRCLE
  5
102
330
1F
100
AcDbEntity
  8
0
  6
Continuous
 62
     7
370
    25
100
AcDbCircle
 10
306.5238518479
 20
280.0790375802
 30
0.0
 40
57.5
  0
CIRCLE
  5
103
330
1F
100
AcDbEntity
  8
0
  6
Continuous
 62
     7
370
    25
100
AcDbCircle
 10
306.5238518479
 20
280.0790375802
 30
0.0
 40
56.58715574274771
  0
CIRCLE
  5
104
330
1F
100
AcDbEntity
  8
0
  6
Continuous
 62
     7
370
    25
100
AcDbCircle
 10
306.5238518479
 20
280.0790375802
 30
0.0
 40
45.0
  0
ARC
  5
105
330
1F
100
AcDbEntity
  8
0
  6
Continuous
 62
     7
370
    25
100
AcDbCircle
 10
78.5988518479
 20
82.1490375802
 30
0.0
 40
19.58499408867298
100
AcDbArc
 50
180.0
 51
270.0
  0
LINE
  5
106
330
1F
100
AcDbEntity
  8
0
  6
Continuous
 62
     7
370
    25
100
AcDbLine
 10
78.5988448384
 20
62.5640368506
 30
0.0
 11
78.5988448384
 21
61.6872972295
 31
0.0
  0
ARC
  5
107
330
1F
100
AcDbEntity
  8
0
  6
Continuous
 62
     7
370
    25
100
AcDbCircle
 10
78.5988518479
 20
82.1490375802
 30
0.0
 40
20.46173638225113
100
AcDbArc
 50
180.0
 51
270.0
  0
LINE
  5
108
330
1F
100
AcDbEntity
  8
0
  6
Continuous
 62
     7
370
    25
100
AcDbLine
 10
58.1371067288
 20
82.1490353391
 30
0.0
 11
59.0138612511
 21
82.1490353391
 31
0.0
  0
ARC
  5
109
330
1F
100
AcDbEntity
  8
0
  6
Continuous
 62
     7
370
    25
100
AcDbCircle
 10
616.3988518479
 20
504.9490375802
 30
0.0
 40
19.584994088673
100
AcDbArc
 50
0.0
 51
90.0
  0
LINE
  5
10A
330
1F
100
AcDbEntity
  8
0
  6
Continuous
 62
     7
370
    25
100
AcDbLine
 10
616.3988588574
 20
525.4107779309
 30
0.0
 11
616.3988588574
 21
524.5340383098
 31
0.0
  0
ARC
  5
10B
330
1F
100
AcDbEntity
  8
0
  6
Continuous
 62
     7
370
    25
100
AcDbCircle
 10
616.3988518479
 20
504.9490375802
 30
0.0
 40
20.46173638225116
100
AcDbArc
 50
0.0
 51
90.0
  0
LINE
  5
10C
330
1F
100
AcDbEntity
  8
0
  6
Continuous
 62
     7
370
    25
100
AcDbLine
 10
635.9838424446
 20
504.9490398213
 30
0.0
 11
636.860596967
 21
504.9490398213
 31
0.0
  0
LINE
  5
10D
330
1F
100
AcDbEntity
  8
0
  6
Continuous
 62
     7
370
    25
100
AcDbLine
 10
58.1371067288
 20
82.1490353391
 30
0.0
 11
58.1371067288
 21
504.9490398213
 31
0.0
  0
LINE
  5
10E
330
1F
100
AcDbEntity
  8
0
  6
Continuous
 62
     7
370
    25
100
AcDbLine
 10
58.1371067288
 20
504.9490398213
 30
0.0
 11
59.0138612511
 21
504.9490398213
 31
0.0
  0
LINE
  5
10F
330
1F
100
AcDbEntity
  8
0
  6
Continuous
 62
     7
370
    25
100
AcDbLine
 10
59.0138612511
 20
504.9490398213
 30
0.0
 11
59.0138612511
 21
82.1490353391
 31
0.0
  0
ARC
  5
110
330
1F
100
AcDbEntity
  8
0
  6
Continuous
 62
     7
370
    25
100
AcDbCircle
 10
78.5988518479
 20
504.9490375802
 30
0.0
 40
20.46173638225113
100
AcDbArc
 50
90.0
 51
180.0
  0
LINE
  5
111
330
1F
100
AcDbEntity
  8
0
  6
Continuous
 62
     7
370
    25
100
AcDbLine
 10
78.5988448384
 20
525.4107779309
 30
0.0
 11
78.5988448384
 21
524.5340383098
 31
0.0
  0
ARC
  5
112
330
1F
100
AcDbEntity
  8
0
  6
Continuous
 62
     7
370
    25
100
AcDbCircle
 10
78.5988518479
 20
504.9490375802
 30
0.0
 40
19.584994088673
100
AcDbArc
 50
90.0
 51
180.0
  0
LINE
  5
113
330
1F
100
AcDbEntity
  8
0
  6
Continuous
 62
     7
370
    25
100
AcDbLine
 10
78.5988448384
 20
525.4107779309
 30
0.0
 11
616.3988588574
 21
525.4107779309
 31
0.0
  0
LINE
  5
114
330
1F
100
AcDbEntity
  8
0
  6
Continuous
 62
     7
370
    25
100
AcDbLine
 10
616.3988588574
 20
524.5340383098
 30
0.0
 11
78.5988448384
 21
524.5340383098
 31
0.0
  0
LINE
  5
115
330
1F
100
AcDbEntity
  8
0
  6
Continuous
 62
     7
370
    25
100
AcDbLine
 10
78.5988448384
 20
62.5640368506
 30
0.0
 11
616.3988588574
 21
62.5640368506
 31
0.0
  0
LINE
  5
116
330
1F
100
AcDbEntity
  8
0
  6
Continuous
 62
     7
370
    25
100
AcDbLine
 10
616.3988588574
 20
62.5640368506
 30
0.0
 11
616.3988588574
 21
61.6872972295
 31
0.0
  0
LINE
  5
117
330
1F
100
AcDbEntity
  8
0
  6
Continuous
 62
     7
370
    25
100
AcDbLine
 10
616.3988588574
 20
61.6872972295
 30
0.0
 11
78.5988448384
 21
61.6872972295
 31
0.0
  0
LINE
  5
118
330
1F
100
AcDbEntity
  8
0
  6
Continuous
 62
     7
370
    25
100
AcDbLine
 10
635.9838424446
 20
82.1490353391
 30
0.0
 11
635.9838424446
 21
504.9490398213
 31
0.0
  0
LINE
  5
119
330
1F
100
AcDbEntity
  8
0
  6
Continuous
 62
     7
370
    25
100
AcDbLine
 10
636.860596967
 20
504.9490398213
 30
0.0
 11
636.860596967
 21
82.1490353391
 31
0.0
  0
LINE
  5
11A
330
1F
100
AcDbEntity
  8
0
  6
Continuous
 62
     7
370
    25
100
AcDbLine
 10
635.9838424446
 20
82.1490353391
 30
0.0
 11
636.860596967
 21
82.1490353391
 31
0.0
  0
ARC
  5
11B
330
1F
100
AcDbEntity
  8
0
  6
Continuous
 62
     7
370
    25
100
AcDbCircle
 10
616.3988518479
 20
82.1490375802
 30
0.0
 40
19.58499408867298
100
AcDbArc
 50
270.0
 51
0.0
  0
ARC
  5
11C
330
1F
100
AcDbEntity
  8
0
  6
Continuous
 62
     7
370
    25
100
AcDbCircle
 10
616.3988518479
 20
82.1490375802
 30
0.0
 40
20.46173638225113
100
AcDbArc
 50
270.0
 51
0.0
  0
LINE
  5
11D
330
1F
100
AcDbEntity
  8
0
  6
Continuous
 62
     7
370
    25
100
AcDbLine
 10
653.9988396885
 20
53.5490429446
 30
0.0
 11
653.9988396885
 21
533.5490322158
 31
0.0
  0
LINE
  5
11E
330
1F
100
AcDbEntity
  8
0
  6
Continuous
 62
     7
370
    25
100
AcDbLine
 10
653.9988396885
 20
533.5490322158
 30
0.0
 11
654.9988566162
 21
533.5490322158
 31
0.0
  0
LINE
  5
11F
330
1F
100
AcDbEntity
  8
0
  6
Continuous
 62
     7
370
    25
100
AcDbLine
 10
654.9988566162
 20
533.5490322158
 30
0.0
 11
654.9988566162
 21
53.5490429446
 31
0.0
  0
LINE
  5
120
330
1F
100
AcDbEntity
  8
0
  6
Continuous
 62
     7
370
    25
100
AcDbLine
 10
654.9988566162
 20
53.5490429446
 30
0.0
 11
653.9988396885
 21
53.5490429446
 31
0.0
  0
ARC
  5
121
330
1F
100
AcDbEntity
  8
0
  6
Continuous
 62
     7
370
    25
100
AcDbCircle
 10
644.9988518479
 20
533.5490375802
 30
0.0
 40
8.999999999999886
100
AcDbArc
 50
0.0
 51
90.0
  0
LINE
  5
122
330
1F
100
AcDbEntity
  8
0
  6
Continuous
 62
     7
370
    25
100
AcDbLine
 10
644.998866153
 20
542.5490355536
 30
0.0
 11
644.998866153
 21
543.5490375802
 31
0.0
  0
ARC
  5
123
330
1F
100
AcDbEntity
  8
0
  6
Continuous
 62
     7
370
    25
100
AcDbCircle
 10
644.9988518479
 20
533.5490375802
 30
0.0
 40
10.0
100
AcDbArc
 50
0.0
 51
90.0
  0
ARC
  5
124
330
1F
100
AcDbEntity
  8
0
  6
Continuous
 62
     7
370
    25
100
AcDbCircle
 10
644.9988518479
 20
53.5490375802
 30
0.0
 40
10.00000000000011
100
AcDbArc
 50
270.0
 51
0.0
  0
LINE
  5
125
330
1F
100
AcDbEntity
  8
0
  6
Continuous
 62
     7
370
    25
100
AcDbLine
 10
644.998866153
 20
43.5490375802
 30
0.0
 11
644.998866153
 21
44.5490396068
 31
0.0
  0
ARC
  5
126
330
1F
100
AcDbEntity
  8
0
  6
Continuous
 62
     7
370
    25
100
AcDbCircle
 10
644.9988518479
 20
53.5490375802
 30
0.0
 40
9.0
100
AcDbArc
 50
270.0
 51
0.0
  0
LINE
  5
127
330
1F
100
AcDbEntity
  8
0
  6
Continuous
 62
     7
370
    25
100
AcDbLine
 10
644.998866153
 20
542.5490355536
 30
0.0
 11
49.9988375427
 21
542.5490355536
 31
0.0
  0
LINE
  5
128
330
1F
100
AcDbEntity
  8
0
  6
Continuous
 62
     7
370
    25
100
AcDbLine
 10
49.9988375427
 20
542.5490355536
 30
0.0
 11
49.9988375427
 21
543.5490375802
 31
0.0
  0
LINE
  5
129
330
1F
100
AcDbEntity
  8
0
  6
Continuous
 62
     7
370
    25
100
AcDbLine
 10
49.9988375427
 20
543.5490375802
 30
0.0
 11
644.998866153
 21
543.5490375802
 31
0.0
  0
LINE
  5
12A
330
1F
100
AcDbEntity
  8
0
  6
Continuous
 62
     7
370
    25
100
AcDbLine
 10
644.998866153
 20
43.5490375802
 30
0.0
 11
49.9988375427
 21
43.5490375802
 31
0.0
  0
LINE
  5
12B
330
1F
100
AcDbEntity
  8
0
  6
Continuous
 62
     7
370
    25
100
AcDbLine
 10
49.9988375427
 20
43.5490375802
 30
0.0
 11
49.9988375427
 21
44.5490396068
 31
0.0
  0
LINE
  5
12C
330
1F
100
AcDbEntity
  8
0
  6
Continuous
 62
     7
370
    25
100
AcDbLine
 10
49.9988375427
 20
44.5490396068
 30
0.0
 11
644.998866153
 21
44.5490396068
 31
0.0
  0
ARC
  5
12D
330
1F
100
AcDbEntity
  8
0
  6
Continuous
 62
     7
370
    25
100
AcDbCircle
 10
49.9988518479
 20
533.5490375802
 30
0.0
 40
8.9999999999999
100
AcDbArc
 50
90.0
 51
180.0
  0
LINE
  5
12E
330
1F
100
AcDbEntity
  8
0
  6
Continuous
 62
     7
370
    25
100
AcDbLine
 10
40.9988640072
 20
533.5490322158
 30
0.0
 11
39.9988470795
 21
533.5490322158
 31
0.0
  0
ARC
  5
12F
330
1F
100
AcDbEntity
  8
0
  6
Continuous
 62
     7
370
    25
100
AcDbCircle
 10
49.9988518479
 20
533.5490375802
 30
0.0
 40
10.00000000000001
100
AcDbArc
 50
90.0
 51
180.0
  0
ARC
  5
130
330
1F
100
AcDbEntity
  8
0
  6
Continuous
 62
     7
370
    25
100
AcDbCircle
 10
49.9988518479
 20
53.5490375802
 30
0.0
 40
10.00000000000006
100
AcDbArc
 50
180.0
 51
270.0
  0
LINE
  5
131
330
1F
100
AcDbEntity
  8
0
  6
Continuous
 62
     7
370
    25
100
AcDbLine
 10
39.9988470795
 20
53.5490429446
 30
0.0
 11
40.9988640072
 21
53.5490429446
 31
0.0
  0
ARC
  5
132
330
1F
100
AcDbEntity
  8
0
  6
Continuous
 62
     7
370
    25
100
AcDbCircle
 10
49.9988518479
 20
53.5490375802
 30
0.0
 40
8.9999999999999
100
AcDbArc
 50
180.0
 51
270.0
  0
LINE
  5
133
330
1F
100
AcDbEntity
  8
0
  6
Continuous
 62
     7
370
    25
100
AcDbLine
 10
40.9988640072
 20
533.5490322158
 30
0.0
 11
40.9988640072
 21
53.5490429446
 31
0.0
  0
LINE
  5
134
330
1F
100
AcDbEntity
  8
0
  6
Continuous
 62
     7
370
    25
100
AcDbLine
 10
39.9988470795
 20
53.5490429446
 30
0.0
 11
39.9988470795
 21
533.5490322158
 31
0.0
  0
LINE
  5
135
330
1F
100
AcDbEntity
  8
0
  6
Continuous
 62
     7
370
    25
100
AcDbLine
 10
78.5988448384
 20
521.876058583
 30
0.0
 11
616.3988588574
 21
521.876058583
 31
0.0
  0
LINE
  5
136
330
1F
100
AcDbEntity
  8
0
  6
Continuous
 62
     7
370
    25
100
AcDbLine
 10
78.5988448384
 20
521.876058583
 30
0.0
 11
78.5988448384
 21
524.5340383098
 31
0.0
  0
LINE
  5
137
330
1F
100
AcDbEntity
  8
0
  6
Continuous
 62
     7
370
    25
100
AcDbLine
 10
616.3988588574
 20
521.876058583
 30
0.0
 11
616.3988588574
 21
524.5340383098
 31
0.0
  0
ARC
  5
138
330
1F
100
AcDbEntity
  8
0
  6
Continuous
 62
     7
370
    25
100
AcDbCircle
 10
616.3988518479
 20
82.1490375802
 30
0.0
 40
16.92701680913672
100
AcDbArc
 50
270.0
 51
0.0
  0
LINE
  5
139
330
1F
100
AcDbEntity
  8
0
  6
Continuous
 62
     7
370
    25
100
AcDbLine
 10
633.3258627178
 20
82.1490353391
 30
0.0
 11
635.9838424446
 21
82.1490353391
 31
0.0
  0
LINE
  5
13A
330
1F
100
AcDbEntity
  8
0
  6
Continuous
 62
     7
370
    25
100
AcDbLine
 10
616.3988588574
 20
65.2220165774
 30
0.0
 11
616.3988588574
 21
62.5640368506
 31
0.0
  0
LINE
  5
13B
330
1F
100
AcDbEntity
  8
0
  6
Continuous
 62
     7
370
    25
100
AcDbLine
 10
61.6718409779
 20
82.1490353391
 30
0.0
 11
61.6718409779
 21
504.9490398213
 31
0.0
  0
LINE
  5
13C
330
1F
100
AcDbEntity
  8
0
  6
Continuous
 62
     7
370
    25
100
AcDbLine
 10
61.6718409779
 20
82.1490353391
 30
0.0
 11
59.0138612511
 21
82.1490353391
 31
0.0
  0
LINE
  5
13D
330
1F
100
AcDbEntity
  8
0
  6
Continuous
 62
     7
370
    25
100
AcDbLine
 10
61.6718409779
 20
504.9490398213
 30
0.0
 11
59.0138612511
 21
504.9490398213
 31
0.0
  0
ARC
  5
13E
330
1F
100
AcDbEntity
  8
0
  6
Continuous
 62
     7
370
    25
100
AcDbCircle
 10
616.3988518479
 20
504.9490375802
 30
0.0
 40
16.9270168091366
100
AcDbArc
 50
0.0
 51
90.0
  0
LINE
  5
13F
330
1F
100
AcDbEntity
  8
0
  6
Continuous
 62
     7
370
    25
100
AcDbLine
 10
633.3258627178
 20
504.9490398213
 30
0.0
 11
635.9838424446
 21
504.9490398213
 31
0.0
  0
LINE
  5
140
330
1F
100
AcDbEntity
  8
0
  6
Continuous
 62
     7
370
    25
100
AcDbLine
 10
633.3258627178
 20
504.9490398213
 30
0.0
 11
633.3258627178
 21
82.1490353391
 31
0.0
  0
ARC
  5
141
330
1F
100
AcDbEntity
  8
0
  6
Continuous
 62
     7
370
    25
100
AcDbCircle
 10
78.5988518479
 20
504.9490375802
 30
0.0
 40
16.92701680913666
100
AcDbArc
 50
90.0
 51
180.0
  0
LINE
  5
142
330
1F
100
AcDbEntity
  8
0
  6
Continuous
 62
     7
370
    25
100
AcDbLine
 10
616.3988588574
 20
65.2220165774
 30
0.0
 11
78.5988448384
 21
65.2220165774
 31
0.0
  0
LINE
  5
143
330
1F
100
AcDbEntity
  8
0
  6
Continuous
 62
     7
370
    25
100
AcDbLine
 10
78.5988448384
 20
65.2220165774
 30
0.0
 11
78.5988448384
 21
62.5640368506
 31
0.0
  0
ARC
  5
144
330
1F
100
AcDbEntity
  8
0
  6
Continuous
 62
     7
370
    25
100
AcDbCircle
 10
78.5988518479
 20
82.1490375802
 30
0.0
 40
16.92701680913663
100
AcDbArc
 50
180.0
 51
270.0
  0
LINE
  5
145
330
1F
100
AcDbEntity
  8
0
  6
Continuous
 62
     7
370
    25
100
AcDbLine
 10
577.0788518908
 20
511.3376891658
 30
0.0
 11
570.2988533499
 21
511.3376891658
 31
0.0
  0
LINE
  5
146
330
1F
100
AcDbEntity
  8
0
  6
Continuous
 62
     7
370
    25
100
AcDbLine
 10
570.2988533499
 20
511.4376759574
 30
0.0
 11
570.2988533499
 21
511.3376891658
 31
0.0
  0
LINE
  5
147
330
1F
100
AcDbEntity
  8
0
  6
Continuous
 62
     7
370
    25
100
AcDbLine
 10
570.2988533499
 20
511.4376759574
 30
0.0
 11
577.1788535835
 21
511.4376759574
 31
0.0
  0
LINE
  5
148
330
1F
100
AcDbEntity
  8
0
  6
Continuous
 62
     7
370
    25
100
AcDbLine
 10
577.0788518908
 20
511.3376891658
 30
0.0
 11
577.1788535835
 21
511.4376759574
 31
0.0
  0
LINE
  5
149
330
1F
100
AcDbEntity
  8
0
  6
Continuous
 62
     7
370
    25
100
AcDbLine
 10
588.4083686592
 20
505.7968860909
 30
0.0
 11
591.531979871
 21
505.7968860909
 31
0.0
  0
LINE
  5
14A
330
1F
100
AcDbEntity
  8
0
  6
Continuous
 62
     7
370
    25
100
AcDbLine
 10
591.6319815638
 20
505.6968843982
 30
0.0
 11
591.531979871
 21
505.7968860909
 31
0.0
  0
LINE
  5
14B
330
1F
100
AcDbEntity
  8
0
  6
Continuous
 62
     7
370
    25
100
AcDbLine
 10
591.6319815638
 20
505.6968843982
 30
0.0
 11
588.3083669665
 21
505.6968843982
 31
0.0
  0
LINE
  5
14C
330
1F
100
AcDbEntity
  8
0
  6
Continuous
 62
     7
370
    25
100
AcDbLine
 10
588.4083686592
 20
505.7968860909
 30
0.0
 11
588.3083669665
 21
505.6968843982
 31
0.0
  0
LINE
  5
14D
330
1F
100
AcDbEntity
  8
0
  6
Continuous
 62
     7
370
    25
100
AcDbLine
 10
602.8188644173
 20
508.5663265035
 30
0.0
 11
608.109044862
 21
508.5663265035
 31
0.0
  0
LINE
  5
14E
330
1F
100
AcDbEntity
  8
0
  6
Continuous
 62
     7
370
    25
100
AcDbLine
 10
608.109044862
 20
508.5663265035
 30
0.0
 11
608.2090316536
 21
508.4663248107
 31
0.0
  0
LINE
  5
14F
330
1F
100
AcDbEntity
  8
0
  6
Continuous
 62
     7
370
    25
100
AcDbLine
 10
608.2090316536
 20
508.4663248107
 30
0.0
 11
602.9188512089
 21
508.4663248107
 31
0.0
  0
LINE
  5
150
330
1F
100
AcDbEntity
  8
0
  6
Continuous
 62
     7
370
    25
100
AcDbLine
 10
602.8188644173
 20
508.5663265035
 30
0.0
 11
602.9188512089
 21
508.4663248107
 31
0.0
  0
LINE
  5
151
330
1F
100
AcDbEntity
  8
0
  6
Continuous
 62
     7
370
    25
100
AcDbLine
 10
591.6319815638
 20
506.3968813464
 30
0.0
 11
591.6319815638
 21
505.6968843982
 31
0.0
  0
LINE
  5
152
330
1F
100
AcDbEntity
  8
0
  6
Continuous
 62
     7
370
    25
100
AcDbLine
 10
591.531979871
 20
505.7968860909
 30
0.0
 11
591.531979871
 21
506.2968796536
 31
0.0
  0
LINE
  5
153
330
1F
100
AcDbEntity
  8
0
  6
Continuous
 62
     7
370
    25
100
AcDbLine
 10
591.6319815638
 20
506.3968813464
 30
0.0
 11
591.531979871
 21
506.2968796536
 31
0.0
  0
LINE
  5
154
330
1F
100
AcDbEntity
  8
0
  6
Continuous
 62
     7
370
    25
100
AcDbLine
 10
570.2988533499
 20
503.5376763389
 30
0.0
 11
577.0814297917
 21
503.5376763389
 31
0.0
  0
LINE
  5
155
330
1F
100
AcDbEntity
  8
0
  6
Continuous
 62
     7
370
    25
100
AcDbLine
 10
577.0814297917
 20
503.5376763389
 30
0.0
 11
577.1814165833
 21
503.4376895473
 31
0.0
  0
LINE
  5
156
330
1F
100
AcDbEntity
  8
0
  6
Continuous
 62
     7
370
    25
100
AcDbLine
 10
577.1814165833
 20
503.4376895473
 30
0.0
 11
570.2988533499
 21
503.4376895473
 31
0.0
  0
LINE
  5
157
330
1F
100
AcDbEntity
  8
0
  6
Continuous
 62
     7
370
    25
100
AcDbLine
 10
570.2988533499
 20
503.5376763389
 30
0.0
 11
570.2988533499
 21
503.4376895473
 31
0.0
  0
LINE
  5
158
330
1F
100
AcDbEntity
  8
0
  6
Continuous
 62
     7
370
    25
100
AcDbLine
 10
608.109044862
 20
508.5663265035
 30
0.0
 11
608.109044862
 21
509.0663200662
 31
0.0
  0
LINE
  5
159
330
1F
100
AcDbEntity
  8
0
  6
Continuous
 62
     7
370
    25
100
AcDbLine
 10
608.109044862
 20
509.0663200662
 30
0.0
 11
608.2090316536
 21
509.1663217589
 31
0.0
  0
LINE
  5
15A
330
1F
100
AcDbEntity
  8
0
  6
Continuous
 62
     7
370
    25
100
AcDbLine
 10
608.2090316536
 20
509.1663217589
 30
0.0
 11
608.2090316536
 21
508.4663248107
 31
0.0
  0
ARC
  5
15B
330
1F
100
AcDbEntity
  8
0
  6
Continuous
 62
     7
370
    25
100
AcDbCircle
 10
570.2988518479
 20
510.4376832425
 30
0.0
 40
1.0
100
AcDbArc
 50
90.0
 51
180.0
  0
ARC
  5
15C
330
1F
100
AcDbEntity
  8
0
  6
Continuous
 62
     7
370
    25
100
AcDbCircle
 10
570.2988518479
 20
510.4376832425
 30
0.0
 40
0.9000000000000341
100
AcDbArc
 50
90.0
 51
180.0
  0
LINE
  5
15D
330
1F
100
AcDbEntity
  8
0
  6
Continuous
 62
     7
370
    25
100
AcDbLine
 10
569.2988513233
 20
510.437688832
 30
0.0
 11
569.3988530161
 21
510.437688832
 31
0.0
  0
LINE
  5
15E
330
1F
100
AcDbEntity
  8
0
  6
Continuous
 62
     7
370
    25
100
AcDbLine
 10
583.6697695973
 20
503.5255169913
 30
0.0
 11
583.6697695973
 21
509.1663217589
 31
0.0
  0
LINE
  5
15F
330
1F
100
AcDbEntity
  8
0
  6
Continuous
 62
     7
370
    25
100
AcDbLine
 10
583.6697695973
 20
509.1663217589
 30
0.0
 11
583.76977129
 21
509.0663200662
 31
0.0
  0
LINE
  5
160
330
1F
100
AcDbEntity
  8
0
  6
Continuous
 62
     7
370
    25
100
AcDbLine
 10
583.76977129
 20
509.0663200662
 30
0.0
 11
583.76977129
 21
503.4255152986
 31
0.0
  0
LINE
  5
161
330
1F
100
AcDbEntity
  8
0
  6
Continuous
 62
     7
370
    25
100
AcDbLine
 10
583.6697695973
 20
503.5255169913
 30
0.0
 11
583.76977129
 21
503.4255152986
 31
0.0
  0
LINE
  5
162
330
1F
100
AcDbEntity
  8
0
  6
Continuous
 62
     7
370
    25
100
AcDbLine
 10
577.6788471462
 20
509.0663200662
 30
0.0
 11
577.6788471462
 21
511.4376759574
 31
0.0
  0
LINE
  5
163
330
1F
100
AcDbEntity
  8
0
  6
Continuous
 62
     7
370
    25
100
AcDbLine
 10
577.6788471462
 20
511.4376759574
 30
0.0
 11
577.778848839
 21
511.3376891658
 31
0.0
  0
LINE
  5
164
330
1F
100
AcDbEntity
  8
0
  6
Continuous
 62
     7
370
    25
100
AcDbLine
 10
577.778848839
 20
511.3376891658
 30
0.0
 11
577.778848839
 21
509.1663217589
 31
0.0
  0
LINE
  5
165
330
1F
100
AcDbEntity
  8
0
  6
Continuous
 62
     7
370
    25
100
AcDbLine
 10
577.6788471462
 20
509.0663200662
 30
0.0
 11
577.778848839
 21
509.1663217589
 31
0.0
  0
LINE
  5
166
330
1F
100
AcDbEntity
  8
0
  6
Continuous
 62
     7
370
    25
100
AcDbLine
 10
583.6697695973
 20
509.1663217589
 30
0.0
 11
585.4588477137
 21
509.1663217589
 31
0.0
  0
LINE
  5
167
330
1F
100
AcDbEntity
  8
0
  6
Continuous
 62
     7
370
    25
100
AcDbLine
 10
585.4588477137
 20
509.1663217589
 30
0.0
 11
585.5588494065
 21
509.0663200662
 31
0.0
  0
LINE
  5
168
330
1F
100
AcDbEntity
  8
0
  6
Continuous
 62
     7
370
    25
100
AcDbLine
 10
585.5588494065
 20
509.0663200662
 30
0.0
 11
583.76977129
 21
509.0663200662
 31
0.0
  0
LINE
  5
169
330
1F
100
AcDbEntity
  8
0
  6
Continuous
 62
     7
370
    25
100
AcDbLine
 10
593.8388584378
 20
503.5255169913
 30
0.0
 11
593.8388584378
 21
511.3376891658
 31
0.0
  0
LINE
  5
16A
330
1F
100
AcDbEntity
  8
0
  6
Continuous
 62
     7
370
    25
100
AcDbLine
 10
593.8388584378
 20
511.3376891658
 30
0.0
 11
593.9388452294
 21
511.4376759574
 31
0.0
  0
LINE
  5
16B
330
1F
100
AcDbEntity
  8
0
  6
Continuous
 62
     7
370
    25
100
AcDbLine
 10
593.9388452294
 20
511.4376759574
 30
0.0
 11
593.9388452294
 21
503.4255152986
 31
0.0
  0
LINE
  5
16C
330
1F
100
AcDbEntity
  8
0
  6
Continuous
 62
     7
370
    25
100
AcDbLine
 10
593.8388584378
 20
503.5255169913
 30
0.0
 11
593.9388452294
 21
503.4255152986
 31
0.0
  0
LINE
  5
16D
330
1F
100
AcDbEntity
  8
0
  6
Continuous
 62
     7
370
    25
100
AcDbLine
 10
588.4083686592
 20
506.2968796536
 30
0.0
 11
588.4083686592
 21
505.7968860909
 31
0.0
  0
LINE
  5
16E
330
1F
100
AcDbEntity
  8
0
  6
Continuous
 62
     7
370
    25
100
AcDbLine
 10
588.3083669665
 20
505.6968843982
 30
0.0
 11
588.3083669665
 21
506.3968813464
 31
0.0
  0
LINE
  5
16F
330
1F
100
AcDbEntity
  8
0
  6
Continuous
 62
     7
370
    25
100
AcDbLine
 10
588.4083686592
 20
506.2968796536
 30
0.0
 11
588.3083669665
 21
506.3968813464
 31
0.0
  0
ARC
  5
170
330
1F
100
AcDbEntity
  8
0
  6
Continuous
 62
     7
370
    25
100
AcDbCircle
 10
570.2988518479
 20
504.4376832425
 30
0.0
 40
0.8999999999999773
100
AcDbArc
 50
180.0
 51
270.0
  0
ARC
  5
171
330
1F
100
AcDbEntity
  8
0
  6
Continuous
 62
     7
370
    25
100
AcDbCircle
 10
570.2988518479
 20
504.4376832425
 30
0.0
 40
1.000000000000114
100
AcDbArc
 50
180.0
 51
270.0
  0
LINE
  5
172
330
1F
100
AcDbEntity
  8
0
  6
Continuous
 62
     7
370
    25
100
AcDbLine
 10
569.2988513233
 20
504.4376766726
 30
0.0
 11
569.3988530161
 21
504.4376766726
 31
0.0
  0
LINE
  5
173
330
1F
100
AcDbEntity
  8
0
  6
Continuous
 62
     7
370
    25
100
AcDbLine
 10
591.6319815638
 20
508.4663248107
 30
0.0
 11
586.1588446619
 21
508.4663248107
 31
0.0
  0
LINE
  5
174
330
1F
100
AcDbEntity
  8
0
  6
Continuous
 62
     7
370
    25
100
AcDbLine
 10
586.1588446619
 20
508.4663248107
 30
0.0
 11
586.0588578703
 21
508.5663265035
 31
0.0
  0
LINE
  5
175
330
1F
100
AcDbEntity
  8
0
  6
Continuous
 62
     7
370
    25
100
AcDbLine
 10
586.0588578703
 20
508.5663265035
 30
0.0
 11
591.531979871
 21
508.5663265035
 31
0.0
  0
LINE
  5
176
330
1F
100
AcDbEntity
  8
0
  6
Continuous
 62
     7
370
    25
100
AcDbLine
 10
591.531979871
 20
508.5663265035
 30
0.0
 11
591.6319815638
 21
508.4663248107
 31
0.0
  0
LINE
  5
177
330
1F
100
AcDbEntity
  8
0
  6
Continuous
 62
     7
370
    25
100
AcDbLine
 10
602.8188644173
 20
503.4255152986
 30
0.0
 11
602.8188644173
 21
508.5663265035
 31
0.0
  0
LINE
  5
178
330
1F
100
AcDbEntity
  8
0
  6
Continuous
 62
     7
370
    25
100
AcDbLine
 10
602.9188512089
 20
508.4663248107
 30
0.0
 11
602.9188512089
 21
503.5255169913
 31
0.0
  0
LINE
  5
179
330
1F
100
AcDbEntity
  8
0
  6
Continuous
 62
     7
370
    25
100
AcDbLine
 10
602.8188644173
 20
503.4255152986
 30
0.0
 11
602.9188512089
 21
503.5255169913
 31
0.0
  0
LINE
  5
17A
330
1F
100
AcDbEntity
  8
0
  6
Continuous
 62
     7
370
    25
100
AcDbLine
 10
569.2988513233
 20
504.4376766726
 30
0.0
 11
569.2988513233
 21
505.7968860909
 31
0.0
  0
LINE
  5
17B
330
1F
100
AcDbEntity
  8
0
  6
Continuous
 62
     7
370
    25
100
AcDbLine
 10
569.2988513233
 20
505.7968860909
 30
0.0
 11
569.3988530161
 21
505.6968843982
 31
0.0
  0
LINE
  5
17C
330
1F
100
AcDbEntity
  8
0
  6
Continuous
 62
     7
370
    25
100
AcDbLine
 10
569.3988530161
 20
505.6968843982
 30
0.0
 11
569.3988530161
 21
504.4376766726
 31
0.0
  0
LINE
  5
17D
330
1F
100
AcDbEntity
  8
0
  6
Continuous
 62
     7
370
    25
100
AcDbLine
 10
609.6988497498
 20
511.3376891658
 30
0.0
 11
602.9188512089
 21
511.3376891658
 31
0.0
  0
LINE
  5
17E
330
1F
100
AcDbEntity
  8
0
  6
Continuous
 62
     7
370
    25
100
AcDbLine
 10
602.9188512089
 20
511.3376891658
 30
0.0
 11
602.8188644173
 21
511.4376759574
 31
0.0
  0
LINE
  5
17F
330
1F
100
AcDbEntity
  8
0
  6
Continuous
 62
     7
370
    25
100
AcDbLine
 10
602.8188644173
 20
511.4376759574
 30
0.0
 11
609.6988497498
 21
511.4376759574
 31
0.0
  0
LINE
  5
180
330
1F
100
AcDbEntity
  8
0
  6
Continuous
 62
     7
370
    25
100
AcDbLine
 10
609.6988497498
 20
511.3376891658
 30
0.0
 11
609.6988497498
 21
511.4376759574
 31
0.0
  0
LINE
  5
181
330
1F
100
AcDbEntity
  8
0
  6
Continuous
 62
     7
370
    25
100
AcDbLine
 10
602.9188512089
 20
511.3376891658
 30
0.0
 11
602.9188512089
 21
509.1663217589
 31
0.0
  0
LINE
  5
182
330
1F
100
AcDbEntity
  8
0
  6
Continuous
 62
     7
370
    25
100
AcDbLine
 10
602.9188512089
 20
509.1663217589
 30
0.0
 11
602.8188644173
 21
509.0663200662
 31
0.0
  0
LINE
  5
183
330
1F
100
AcDbEntity
  8
0
  6
Continuous
 62
     7
370
    25
100
AcDbLine
 10
602.8188644173
 20
509.0663200662
 30
0.0
 11
602.8188644173
 21
511.4376759574
 31
0.0
  0
LINE
  5
184
330
1F
100
AcDbEntity
  8
0
  6
Continuous
 62
     7
370
    25
100
AcDbLine
 10
577.0814297917
 20
508.4663248107
 30
0.0
 11
571.7773763659
 21
508.4663248107
 31
0.0
  0
LINE
  5
185
330
1F
100
AcDbEntity
  8
0
  6
Continuous
 62
     7
370
    25
100
AcDbLine
 10
571.7773763659
 20
508.4663248107
 30
0.0
 11
571.8773780586
 21
508.5663265035
 31
0.0
  0
LINE
  5
186
330
1F
100
AcDbEntity
  8
0
  6
Continuous
 62
     7
370
    25
100
AcDbLine
 10
571.8773780586
 20
508.5663265035
 30
0.0
 11
577.1814165833
 21
508.5663265035
 31
0.0
  0
LINE
  5
187
330
1F
100
AcDbEntity
  8
0
  6
Continuous
 62
     7
370
    25
100
AcDbLine
 10
577.0814297917
 20
508.4663248107
 30
0.0
 11
577.1814165833
 21
508.5663265035
 31
0.0
  0
LINE
  5
188
330
1F
100
AcDbEntity
  8
0
  6
Continuous
 62
     7
370
    25
100
AcDbLine
 10
574.8295216086
 20
505.7968860909
 30
0.0
 11
574.8295216086
 21
506.2968796536
 31
0.0
  0
LINE
  5
189
330
1F
100
AcDbEntity
  8
0
  6
Continuous
 62
     7
370
    25
100
AcDbLine
 10
574.8295216086
 20
506.2968796536
 30
0.0
 11
574.9295084002
 21
506.3968813464
 31
0.0
  0
LINE
  5
18A
330
1F
100
AcDbEntity
  8
0
  6
Continuous
 62
     7
370
    25
100
AcDbLine
 10
574.9295084002
 20
506.3968813464
 30
0.0
 11
574.9295084002
 21
505.6968843982
 31
0.0
  0
LINE
  5
18B
330
1F
100
AcDbEntity
  8
0
  6
Continuous
 62
     7
370
    25
100
AcDbLine
 10
574.8295216086
 20
505.7968860909
 30
0.0
 11
574.9295084002
 21
505.6968843982
 31
0.0
  0
LINE
  5
18C
330
1F
100
AcDbEntity
  8
0
  6
Continuous
 62
     7
370
    25
100
AcDbLine
 10
602.9188512089
 20
509.1663217589
 30
0.0
 11
608.2090316536
 21
509.1663217589
 31
0.0
  0
LINE
  5
18D
330
1F
100
AcDbEntity
  8
0
  6
Continuous
 62
     7
370
    25
100
AcDbLine
 10
608.109044862
 20
509.0663200662
 30
0.0
 11
602.8188644173
 21
509.0663200662
 31
0.0
  0
LINE
  5
18E
330
1F
100
AcDbEntity
  8
0
  6
Continuous
 62
     7
370
    25
100
AcDbLine
 10
610.5988500836
 20
504.4255173251
 30
0.0
 11
610.5988500836
 21
510.437688832
 31
0.0
  0
LINE
  5
18F
330
1F
100
AcDbEntity
  8
0
  6
Continuous
 62
     7
370
    25
100
AcDbLine
 10
610.5988500836
 20
510.437688832
 30
0.0
 11
610.6988666775
 21
510.437688832
 31
0.0
  0
LINE
  5
190
330
1F
100
AcDbEntity
  8
0
  6
Continuous
 62
     7
370
    25
100
AcDbLine
 10
610.6988666775
 20
510.437688832
 30
0.0
 11
610.6988666775
 21
504.4255173251
 31
0.0
  0
LINE
  5
191
330
1F
100
AcDbEntity
  8
0
  6
Continuous
 62
     7
370
    25
100
AcDbLine
 10
610.5988500836
 20
504.4255173251
 30
0.0
 11
610.6988666775
 21
504.4255173251
 31
0.0
  0
LINE
  5
192
330
1F
100
AcDbEntity
  8
0
  6
Continuous
 62
     7
370
    25
100
AcDbLine
 10
609.6988497498
 20
503.4255152986
 30
0.0
 11
602.8188644173
 21
503.4255152986
 31
0.0
  0
LINE
  5
193
330
1F
100
AcDbEntity
  8
0
  6
Continuous
 62
     7
370
    25
100
AcDbLine
 10
602.9188512089
 20
503.5255169913
 30
0.0
 11
609.6988497498
 21
503.5255169913
 31
0.0
  0
LINE
  5
194
330
1F
100
AcDbEntity
  8
0
  6
Continuous
 62
     7
370
    25
100
AcDbLine
 10
609.6988497498
 20
503.4255152986
 30
0.0
 11
609.6988497498
 21
503.5255169913
 31
0.0
  0
LINE
  5
195
330
1F
100
AcDbEntity
  8
0
  6
Continuous
 62
     7
370
    25
100
AcDbLine
 10
602.3188410523
 20
503.4255152986
 30
0.0
 11
594.4388536932
 21
503.4255152986
 31
0.0
  0
LINE
  5
196
330
1F
100
AcDbEntity
  8
0
  6
Continuous
 62
     7
370
    25
100
AcDbLine
 10
594.4388536932
 20
503.4255152986
 30
0.0
 11
594.538855386
 21
503.5255169913
 31
0.0
  0
LINE
  5
197
330
1F
100
AcDbEntity
  8
0
  6
Continuous
 62
     7
370
    25
100
AcDbLine
 10
594.538855386
 20
503.5255169913
 30
0.0
 11
602.2188542607
 21
503.5255169913
 31
0.0
  0
LINE
  5
198
330
1F
100
AcDbEntity
  8
0
  6
Continuous
 62
     7
370
    25
100
AcDbLine
 10
602.3188410523
 20
503.4255152986
 30
0.0
 11
602.2188542607
 21
503.5255169913
 31
0.0
  0
LINE
  5
199
330
1F
100
AcDbEntity
  8
0
  6
Continuous
 62
     7
370
    25
100
AcDbLine
 10
598.1694339039
 20
505.6968843982
 30
0.0
 11
598.1694339039
 21
511.3376891658
 31
0.0
  0
LINE
  5
19A
330
1F
100
AcDbEntity
  8
0
  6
Continuous
 62
     7
370
    25
100
AcDbLine
 10
598.1694339039
 20
511.3376891658
 30
0.0
 11
598.2694206955
 21
511.4376759574
 31
0.0
  0
LINE
  5
19B
330
1F
100
AcDbEntity
  8
0
  6
Continuous
 62
     7
370
    25
100
AcDbLine
 10
598.2694206955
 20
511.4376759574
 30
0.0
 11
598.2694206955
 21
505.7968860909
 31
0.0
  0
LINE
  5
19C
330
1F
100
AcDbEntity
  8
0
  6
Continuous
 62
     7
370
    25
100
AcDbLine
 10
598.1694339039
 20
505.6968843982
 30
0.0
 11
598.2694206955
 21
505.7968860909
 31
0.0
  0
LINE
  5
19D
330
1F
100
AcDbEntity
  8
0
  6
Continuous
 62
     7
370
    25
100
AcDbLine
 10
594.4388536932
 20
503.4255152986
 30
0.0
 11
594.4388536932
 21
511.4376759574
 31
0.0
  0
LINE
  5
19E
330
1F
100
AcDbEntity
  8
0
  6
Continuous
 62
     7
370
    25
100
AcDbLine
 10
594.4388536932
 20
511.4376759574
 30
0.0
 11
594.538855386
 21
511.3376891658
 31
0.0
  0
LINE
  5
19F
330
1F
100
AcDbEntity
  8
0
  6
Continuous
 62
     7
370
    25
100
AcDbLine
 10
594.538855386
 20
511.3376891658
 30
0.0
 11
594.538855386
 21
503.5255169913
 31
0.0
  0
LINE
  5
1A0
330
1F
100
AcDbEntity
  8
0
  6
Continuous
 62
     7
370
    25
100
AcDbLine
 10
598.1694339039
 20
511.3376891658
 30
0.0
 11
594.538855386
 21
511.3376891658
 31
0.0
  0
LINE
  5
1A1
330
1F
100
AcDbEntity
  8
0
  6
Continuous
 62
     7
370
    25
100
AcDbLine
 10
594.4388536932
 20
511.4376759574
 30
0.0
 11
598.2694206955
 21
511.4376759574
 31
0.0
  0
LINE
  5
1A2
330
1F
100
AcDbEntity
  8
0
  6
Continuous
 62
     7
370
    25
100
AcDbLine
 10
591.531979871
 20
506.2968796536
 30
0.0
 11
588.4083686592
 21
506.2968796536
 31
0.0
  0
LINE
  5
1A3
330
1F
100
AcDbEntity
  8
0
  6
Continuous
 62
     7
370
    25
100
AcDbLine
 10
588.3083669665
 20
506.3968813464
 30
0.0
 11
591.6319815638
 21
506.3968813464
 31
0.0
  0
LINE
  5
1A4
330
1F
100
AcDbEntity
  8
0
  6
Continuous
 62
     7
370
    25
100
AcDbLine
 10
585.4588477137
 20
509.1663217589
 30
0.0
 11
585.4588477137
 21
511.3376891658
 31
0.0
  0
LINE
  5
1A5
330
1F
100
AcDbEntity
  8
0
  6
Continuous
 62
     7
370
    25
100
AcDbLine
 10
585.5588494065
 20
511.4376759574
 30
0.0
 11
585.4588477137
 21
511.3376891658
 31
0.0
  0
LINE
  5
1A6
330
1F
100
AcDbEntity
  8
0
  6
Continuous
 62
     7
370
    25
100
AcDbLine
 10
585.5588494065
 20
511.4376759574
 30
0.0
 11
585.5588494065
 21
509.0663200662
 31
0.0
  0
LINE
  5
1A7
330
1F
100
AcDbEntity
  8
0
  6
Continuous
 62
     7
370
    25
100
AcDbLine
 10
608.109044862
 20
505.7968860909
 30
0.0
 11
608.109044862
 21
506.2968796536
 31
0.0
  0
LINE
  5
1A8
330
1F
100
AcDbEntity
  8
0
  6
Continuous
 62
     7
370
    25
100
AcDbLine
 10
608.2090316536
 20
506.3968813464
 30
0.0
 11
608.109044862
 21
506.2968796536
 31
0.0
  0
LINE
  5
1A9
330
1F
100
AcDbEntity
  8
0
  6
Continuous
 62
     7
370
    25
100
AcDbLine
 10
608.2090316536
 20
506.3968813464
 30
0.0
 11
608.2090316536
 21
505.6968843982
 31
0.0
  0
LINE
  5
1AA
330
1F
100
AcDbEntity
  8
0
  6
Continuous
 62
     7
370
    25
100
AcDbLine
 10
608.109044862
 20
505.7968860909
 30
0.0
 11
608.2090316536
 21
505.6968843982
 31
0.0
  0
ARC
  5
1AB
330
1F
100
AcDbEntity
  8
0
  6
Continuous
 62
     7
370
    25
100
AcDbCircle
 10
609.6988518479
 20
504.4255154325
 30
0.0
 40
0.9000000000000341
100
AcDbArc
 50
270.0
 51
0.0
  0
ARC
  5
1AC
330
1F
100
AcDbEntity
  8
0
  6
Continuous
 62
     7
370
    25
100
AcDbCircle
 10
609.6988518479
 20
504.4255154325
 30
0.0
 40
1.0
100
AcDbArc
 50
270.0
 51
0.0
  0
LINE
  5
1AD
330
1F
100
AcDbEntity
  8
0
  6
Continuous
 62
     7
370
    25
100
AcDbLine
 10
580.0391910794
 20
509.1663217589
 30
0.0
 11
580.0391910794
 21
503.5255169913
 31
0.0
  0
LINE
  5
1AE
330
1F
100
AcDbEntity
  8
0
  6
Continuous
 62
     7
370
    25
100
AcDbLine
 10
580.0391910794
 20
503.5255169913
 30
0.0
 11
579.9391893866
 21
503.4255152986
 31
0.0
  0
LINE
  5
1AF
330
1F
100
AcDbEntity
  8
0
  6
Continuous
 62
     7
370
    25
100
AcDbLine
 10
579.9391893866
 20
503.4255152986
 30
0.0
 11
579.9391893866
 21
509.0663200662
 31
0.0
  0
LINE
  5
1B0
330
1F
100
AcDbEntity
  8
0
  6
Continuous
 62
     7
370
    25
100
AcDbLine
 10
579.9391893866
 20
509.0663200662
 30
0.0
 11
580.0391910794
 21
509.1663217589
 31
0.0
  0
ARC
  5
1B1
330
1F
100
AcDbEntity
  8
0
  6
Continuous
 62
     7
370
    25
100
AcDbCircle
 10
609.6988518479
 20
510.4376832425
 30
0.0
 40
0.8999999999998636
100
AcDbArc
 50
0.0
 51
90.0
  0
ARC
  5
1B2
330
1F
100
AcDbEntity
  8
0
  6
Continuous
 62
     7
370
    25
100
AcDbCircle
 10
609.6988518479
 20
510.4376832425
 30
0.0
 40
0.9999999999998863
100
AcDbArc
 50
0.0
 51
90.0
  0
LINE
  5
1B3
330
1F
100
AcDbEntity
  8
0
  6
Continuous
 62
     7
370
    25
100
AcDbLine
 10
586.1588446619
 20
508.4663248107
 30
0.0
 11
586.1588446619
 21
503.5255169913
 31
0.0
  0
LINE
  5
1B4
330
1F
100
AcDbEntity
  8
0
  6
Continuous
 62
     7
370
    25
100
AcDbLine
 10
586.1588446619
 20
503.5255169913
 30
0.0
 11
586.0588578703
 21
503.4255152986
 31
0.0
  0
LINE
  5
1B5
330
1F
100
AcDbEntity
  8
0
  6
Continuous
 62
     7
370
    25
100
AcDbLine
 10
586.0588578703
 20
503.4255152986
 30
0.0
 11
586.0588578703
 21
508.5663265035
 31
0.0
  0
LINE
  5
1B6
330
1F
100
AcDbEntity
  8
0
  6
Continuous
 62
     7
370
    25
100
AcDbLine
 10
591.531979871
 20
508.5663265035
 30
0.0
 11
591.531979871
 21
509.0663200662
 31
0.0
  0
LINE
  5
1B7
330
1F
100
AcDbEntity
  8
0
  6
Continuous
 62
     7
370
    25
100
AcDbLine
 10
591.531979871
 20
509.0663200662
 30
0.0
 11
591.6319815638
 21
509.1663217589
 31
0.0
  0
LINE
  5
1B8
330
1F
100
AcDbEntity
  8
0
  6
Continuous
 62
     7
370
    25
100
AcDbLine
 10
591.6319815638
 20
509.1663217589
 30
0.0
 11
591.6319815638
 21
508.4663248107
 31
0.0
  0
LINE
  5
1B9
330
1F
100
AcDbEntity
  8
0
  6
Continuous
 62
     7
370
    25
100
AcDbLine
 10
586.1588446619
 20
503.5255169913
 30
0.0
 11
593.8388584378
 21
503.5255169913
 31
0.0
  0
LINE
  5
1BA
330
1F
100
AcDbEntity
  8
0
  6
Continuous
 62
     7
370
    25
100
AcDbLine
 10
593.9388452294
 20
503.4255152986
 30
0.0
 11
586.0588578703
 21
503.4255152986
 31
0.0
  0
LINE
  5
1BB
330
1F
100
AcDbEntity
  8
0
  6
Continuous
 62
     7
370
    25
100
AcDbLine
 10
591.531979871
 20
509.0663200662
 30
0.0
 11
586.0588578703
 21
509.0663200662
 31
0.0
  0
LINE
  5
1BC
330
1F
100
AcDbEntity
  8
0
  6
Continuous
 62
     7
370
    25
100
AcDbLine
 10
586.0588578703
 20
509.0663200662
 30
0.0
 11
586.1588446619
 21
509.1663217589
 31
0.0
  0
LINE
  5
1BD
330
1F
100
AcDbEntity
  8
0
  6
Continuous
 62
     7
370
    25
100
AcDbLine
 10
586.1588446619
 20
509.1663217589
 30
0.0
 11
591.6319815638
 21
509.1663217589
 31
0.0
  0
LINE
  5
1BE
330
1F
100
AcDbEntity
  8
0
  6
Continuous
 62
     7
370
    25
100
AcDbLine
 10
586.0588578703
 20
509.0663200662
 30
0.0
 11
586.0588578703
 21
511.4376759574
 31
0.0
  0
LINE
  5
1BF
330
1F
100
AcDbEntity
  8
0
  6
Continuous
 62
     7
370
    25
100
AcDbLine
 10
586.0588578703
 20
511.4376759574
 30
0.0
 11
586.1588446619
 21
511.3376891658
 31
0.0
  0
LINE
  5
1C0
330
1F
100
AcDbEntity
  8
0
  6
Continuous
 62
     7
370
    25
100
AcDbLine
 10
586.1588446619
 20
511.3376891658
 30
0.0
 11
586.1588446619
 21
509.1663217589
 31
0.0
  0
LINE
  5
1C1
330
1F
100
AcDbEntity
  8
0
  6
Continuous
 62
     7
370
    25
100
AcDbLine
 10
593.8388584378
 20
511.3376891658
 30
0.0
 11
586.1588446619
 21
511.3376891658
 31
0.0
  0
LINE
  5
1C2
330
1F
100
AcDbEntity
  8
0
  6
Continuous
 62
     7
370
    25
100
AcDbLine
 10
586.0588578703
 20
511.4376759574
 30
0.0
 11
593.9388452294
 21
511.4376759574
 31
0.0
  0
LINE
  5
1C3
330
1F
100
AcDbEntity
  8
0
  6
Continuous
 62
     7
370
    25
100
AcDbLine
 10
574.8295216086
 20
506.2968796536
 30
0.0
 11
569.2988513233
 21
506.2968796536
 31
0.0
  0
LINE
  5
1C4
330
1F
100
AcDbEntity
  8
0
  6
Continuous
 62
     7
370
    25
100
AcDbLine
 10
569.2988513233
 20
506.2968796536
 30
0.0
 11
569.3988530161
 21
506.3968813464
 31
0.0
  0
LINE
  5
1C5
330
1F
100
AcDbEntity
  8
0
  6
Continuous
 62
     7
370
    25
100
AcDbLine
 10
569.3988530161
 20
506.3968813464
 30
0.0
 11
574.9295084002
 21
506.3968813464
 31
0.0
  0
LINE
  5
1C6
330
1F
100
AcDbEntity
  8
0
  6
Continuous
 62
     7
370
    25
100
AcDbLine
 10
580.0391910794
 20
503.5255169913
 30
0.0
 11
583.6697695973
 21
503.5255169913
 31
0.0
  0
LINE
  5
1C7
330
1F
100
AcDbEntity
  8
0
  6
Continuous
 62
     7
370
    25
100
AcDbLine
 10
583.76977129
 20
503.4255152986
 30
0.0
 11
579.9391893866
 21
503.4255152986
 31
0.0
  0
LINE
  5
1C8
330
1F
100
AcDbEntity
  8
0
  6
Continuous
 62
     7
370
    25
100
AcDbLine
 10
579.9391893866
 20
509.0663200662
 30
0.0
 11
577.6788471462
 21
509.0663200662
 31
0.0
  0
LINE
  5
1C9
330
1F
100
AcDbEntity
  8
0
  6
Continuous
 62
     7
370
    25
100
AcDbLine
 10
577.778848839
 20
509.1663217589
 30
0.0
 11
580.0391910794
 21
509.1663217589
 31
0.0
  0
LINE
  5
1CA
330
1F
100
AcDbEntity
  8
0
  6
Continuous
 62
     7
370
    25
100
AcDbLine
 10
604.8750160458
 20
506.2968796536
 30
0.0
 11
604.8750160458
 21
505.7968860909
 31
0.0
  0
LINE
  5
1CB
330
1F
100
AcDbEntity
  8
0
  6
Continuous
 62
     7
370
    25
100
AcDbLine
 10
604.8750160458
 20
505.7968860909
 30
0.0
 11
604.7750292542
 21
505.6968843982
 31
0.0
  0
LINE
  5
1CC
330
1F
100
AcDbEntity
  8
0
  6
Continuous
 62
     7
370
    25
100
AcDbLine
 10
604.7750292542
 20
505.6968843982
 30
0.0
 11
604.7750292542
 21
506.3968813464
 31
0.0
  0
LINE
  5
1CD
330
1F
100
AcDbEntity
  8
0
  6
Continuous
 62
     7
370
    25
100
AcDbLine
 10
604.7750292542
 20
506.3968813464
 30
0.0
 11
604.8750160458
 21
506.2968796536
 31
0.0
  0
LINE
  5
1CE
330
1F
100
AcDbEntity
  8
0
  6
Continuous
 62
     7
370
    25
100
AcDbLine
 10
604.8750160458
 20
505.7968860909
 30
0.0
 11
608.109044862
 21
505.7968860909
 31
0.0
  0
LINE
  5
1CF
330
1F
100
AcDbEntity
  8
0
  6
Continuous
 62
     7
370
    25
100
AcDbLine
 10
608.2090316536
 20
505.6968843982
 30
0.0
 11
604.7750292542
 21
505.6968843982
 31
0.0
  0
LINE
  5
1D0
330
1F
100
AcDbEntity
  8
0
  6
Continuous
 62
     7
370
    25
100
AcDbLine
 10
577.6788471462
 20
511.4376759574
 30
0.0
 11
585.5588494065
 21
511.4376759574
 31
0.0
  0
LINE
  5
1D1
330
1F
100
AcDbEntity
  8
0
  6
Continuous
 62
     7
370
    25
100
AcDbLine
 10
585.4588477137
 20
511.3376891658
 30
0.0
 11
577.778848839
 21
511.3376891658
 31
0.0
  0
LINE
  5
1D2
330
1F
100
AcDbEntity
  8
0
  6
Continuous
 62
     7
370
    25
100
AcDbLine
 10
604.7750292542
 20
506.3968813464
 30
0.0
 11
608.2090316536
 21
506.3968813464
 31
0.0
  0
LINE
  5
1D3
330
1F
100
AcDbEntity
  8
0
  6
Continuous
 62
     7
370
    25
100
AcDbLine
 10
608.109044862
 20
506.2968796536
 30
0.0
 11
604.8750160458
 21
506.2968796536
 31
0.0
  0
LINE
  5
1D4
330
1F
100
AcDbEntity
  8
0
  6
Continuous
 62
     7
370
    25
100
AcDbLine
 10
571.7773763659
 20
508.4663248107
 30
0.0
 11
571.7773763659
 21
509.1663217589
 31
0.0
  0
LINE
  5
1D5
330
1F
100
AcDbEntity
  8
0
  6
Continuous
 62
     7
370
    25
100
AcDbLine
 10
571.7773763659
 20
509.1663217589
 30
0.0
 11
571.8773780586
 21
509.0663200662
 31
0.0
  0
LINE
  5
1D6
330
1F
100
AcDbEntity
  8
0
  6
Continuous
 62
     7
370
    25
100
AcDbLine
 10
571.8773780586
 20
509.0663200662
 30
0.0
 11
571.8773780586
 21
508.5663265035
 31
0.0
  0
LINE
  5
1D7
330
1F
100
AcDbEntity
  8
0
  6
Continuous
 62
     7
370
    25
100
AcDbLine
 10
569.2988513233
 20
506.2968796536
 30
0.0
 11
569.2988513233
 21
510.437688832
 31
0.0
  0
LINE
  5
1D8
330
1F
100
AcDbEntity
  8
0
  6
Continuous
 62
     7
370
    25
100
AcDbLine
 10
569.3988530161
 20
510.437688832
 30
0.0
 11
569.3988530161
 21
506.3968813464
 31
0.0
  0
LINE
  5
1D9
330
1F
100
AcDbEntity
  8
0
  6
Continuous
 62
     7
370
    25
100
AcDbLine
 10
571.7773763659
 20
509.1663217589
 30
0.0
 11
577.0788518908
 21
509.1663217589
 31
0.0
  0
LINE
  5
1DA
330
1F
100
AcDbEntity
  8
0
  6
Continuous
 62
     7
370
    25
100
AcDbLine
 10
577.0788518908
 20
509.1663217589
 30
0.0
 11
577.1788535835
 21
509.0663200662
 31
0.0
  0
LINE
  5
1DB
330
1F
100
AcDbEntity
  8
0
  6
Continuous
 62
     7
370
    25
100
AcDbLine
 10
577.1788535835
 20
509.0663200662
 30
0.0
 11
571.8773780586
 21
509.0663200662
 31
0.0
  0
LINE
  5
1DC
330
1F
100
AcDbEntity
  8
0
  6
Continuous
 62
     7
370
    25
100
AcDbLine
 10
602.2188542607
 20
503.5255169913
 30
0.0
 11
602.2188542607
 21
505.6968843982
 31
0.0
  0
LINE
  5
1DD
330
1F
100
AcDbEntity
  8
0
  6
Continuous
 62
     7
370
    25
100
AcDbLine
 10
602.2188542607
 20
505.6968843982
 30
0.0
 11
602.3188410523
 21
505.7968860909
 31
0.0
  0
LINE
  5
1DE
330
1F
100
AcDbEntity
  8
0
  6
Continuous
 62
     7
370
    25
100
AcDbLine
 10
602.3188410523
 20
505.7968860909
 30
0.0
 11
602.3188410523
 21
503.4255152986
 31
0.0
  0
LINE
  5
1DF
330
1F
100
AcDbEntity
  8
0
  6
Continuous
 62
     7
370
    25
100
AcDbLine
 10
577.0814297917
 20
503.5376763389
 30
0.0
 11
577.0814297917
 21
508.4663248107
 31
0.0
  0
LINE
  5
1E0
330
1F
100
AcDbEntity
  8
0
  6
Continuous
 62
     7
370
    25
100
AcDbLine
 10
577.1814165833
 20
508.5663265035
 30
0.0
 11
577.1814165833
 21
503.4376895473
 31
0.0
  0
LINE
  5
1E1
330
1F
100
AcDbEntity
  8
0
  6
Continuous
 62
     7
370
    25
100
AcDbLine
 10
569.2988513233
 20
505.7968860909
 30
0.0
 11
574.8295216086
 21
505.7968860909
 31
0.0
  0
LINE
  5
1E2
330
1F
100
AcDbEntity
  8
0
  6
Continuous
 62
     7
370
    25
100
AcDbLine
 10
574.9295084002
 20
505.6968843982
 30
0.0
 11
569.3988530161
 21
505.6968843982
 31
0.0
  0
LINE
  5
1E3
330
1F
100
AcDbEntity
  8
0
  6
Continuous
 62
     7
370
    25
100
AcDbLine
 10
577.0788518908
 20
509.1663217589
 30
0.0
 11
577.0788518908
 21
511.3376891658
 31
0.0
  0
LINE
  5
1E4
330
1F
100
AcDbEntity
  8
0
  6
Continuous
 62
     7
370
    25
100
AcDbLine
 10
577.1788535835
 20
511.4376759574
 30
0.0
 11
577.1788535835
 21
509.0663200662
 31
0.0
  0
LINE
  5
1E5
330
1F
100
AcDbEntity
  8
0
  6
Continuous
 62
     7
370
    25
100
AcDbLine
 10
602.2188542607
 20
505.6968843982
 30
0.0
 11
598.1694339039
 21
505.6968843982
 31
0.0
  0
LINE
  5
1E6
330
1F
100
AcDbEntity
  8
0
  6
Continuous
 62
     7
370
    25
100
AcDbLine
 10
598.2694206955
 20
505.7968860909
 30
0.0
 11
602.3188410523
 21
505.7968860909
 31
0.0
  0
LINE
  5
1E7
330
1F
100
AcDbEntity
  8
0
  6
Continuous
 62
     7
370
    25
100
AcDbLine
 10
78.5988448384
 20
65.6603938386
 30
0.0
 11
616.3988588574
 21
65.6603938386
 31
0.0
  0
LINE
  5
1E8
330
1F
100
AcDbEntity
  8
0
  6
Continuous
 62
     7
370
    25
100
AcDbLine
 10
616.3988588574
 20
65.6603938386
 30
0.0
 11
616.3988588574
 21
65.2220165774
 31
0.0
  0
LINE
  5
1E9
330
1F
100
AcDbEntity
  8
0
  6
Continuous
 62
     7
370
    25
100
AcDbLine
 10
78.5988448384
 20
65.6603938386
 30
0.0
 11
78.5988448384
 21
65.2220165774
 31
0.0
  0
ARC
  5
1EA
330
1F
100
AcDbEntity
  8
0
  6
Continuous
 62
     7
370
    25
100
AcDbCircle
 10
616.3988518479
 20
82.1490375802
 30
0.0
 40
16.48864566234759
100
AcDbArc
 50
270.0
 51
0.0
  0
LINE
  5
1EB
330
1F
100
AcDbEntity
  8
0
  6
Continuous
 62
     7
370
    25
100
AcDbLine
 10
632.8875003578
 20
82.1490353391
 30
0.0
 11
633.3258627178
 21
82.1490353391
 31
0.0
  0
LINE
  5
1EC
330
1F
100
AcDbEntity
  8
0
  6
Continuous
 62
     7
370
    25
100
AcDbLine
 10
78.5988448384
 20
521.876058583
 30
0.0
 11
78.5988448384
 21
521.4376813218
 31
0.0
  0
ARC
  5
1ED
330
1F
100
AcDbEntity
  8
0
  6
Continuous
 62
     7
370
    25
100
AcDbCircle
 10
78.5988518479
 20
504.9490375802
 30
0.0
 40
16.48864566234755
100
AcDbArc
 50
90.0
 51
180.0
  0
LINE
  5
1EE
330
1F
100
AcDbEntity
  8
0
  6
Continuous
 62
     7
370
    25
100
AcDbLine
 10
61.6718409779
 20
504.9490398213
 30
0.0
 11
62.1102033379
 21
504.9490398213
 31
0.0
  0
LINE
  5
1EF
330
1F
100
AcDbEntity
  8
0
  6
Continuous
 62
     7
370
    25
100
AcDbLine
 10
62.1102033379
 20
504.9490398213
 30
0.0
 11
62.1102033379
 21
82.1490353391
 31
0.0
  0
LINE
  5
1F0
330
1F
100
AcDbEntity
  8
0
  6
Continuous
 62
     7
370
    25
100
AcDbLine
 10
61.6718409779
 20
82.1490353391
 30
0.0
 11
62.1102033379
 21
82.1490353391
 31
0.0
  0
LINE
  5
1F1
330
1F
100
AcDbEntity
  8
0
  6
Continuous
 62
     7
370
    25
100
AcDbLine
 10
632.8875003578
 20
82.1490353391
 30
0.0
 11
632.8875003578
 21
504.9490398213
 31
0.0
  0
LINE
  5
1F2
330
1F
100
AcDbEntity
  8
0
  6
Continuous
 62
     7
370
    25
100
AcDbLine
 10
632.8875003578
 20
504.9490398213
 30
0.0
 11
633.3258627178
 21
504.9490398213
 31
0.0
  0
ARC
  5
1F3
330
1F
100
AcDbEntity
  8
0
  6
Continuous
 62
     7
370
    25
100
AcDbCircle
 10
78.5988518479
 20
82.1490375802
 30
0.0
 40
16.48864566234755
100
AcDbArc
 50
180.0
 51
270.0
  0
ARC
  5
1F4
330
1F
100
AcDbEntity
  8
0
  6
Continuous
 62
     7
370
    25
100
AcDbCircle
 10
616.3988518479
 20
504.9490375802
 30
0.0
 40
16.48864566234755
100
AcDbArc
 50
0.0
 51
90.0
  0
LINE
  5
1F5
330
1F
100
AcDbEntity
  8
0
  6
Continuous
 62
     7
370
    25
100
AcDbLine
 10
616.3988588574
 20
521.876058583
 30
0.0
 11
616.3988588574
 21
521.4376813218
 31
0.0
  0
LINE
  5
1F6
330
1F
100
AcDbEntity
  8
0
  6
Continuous
 62
     7
370
    25
100
AcDbLine
 10
616.3988588574
 20
521.4376813218
 30
0.0
 11
78.5988448384
 21
521.4376813218
 31
0.0
  0
LINE
  5
1F7
330
1F
100
AcDbEntity
  8
0
  6
Continuous
 62
     7
370
    25
100
AcDbLine
 10
443.023848367
 20
160.0790387437
 30
0.0
 11
443.023848367
 21
400.0790408298
 31
0.0
  0
LINE
  5
1F8
330
1F
100
AcDbEntity
  8
0
  6
Continuous
 62
     7
370
    25
100
AcDbLine
 10
443.023848367
 20
400.0790408298
 30
0.0
 11
448.0238510492
 21
400.0790408298
 31
0.0
  0
LINE
  5
1F9
330
1F
100
AcDbEntity
  8
0
  6
Continuous
 62
     7
370
    25
100
AcDbLine
 10
448.0238510492
 20
400.0790408298
 30
0.0
 11
448.0238510492
 21
160.0790387437
 31
0.0
  0
LINE
  5
1FA
330
1F
100
AcDbEntity
  8
0
  6
Continuous
 62
     7
370
    25
100
AcDbLine
 10
448.0238510492
 20
160.0790387437
 30
0.0
 11
443.023848367
 21
160.0790387437
 31
0.0
  0
LINE
  5
1FB
330
1F
100
AcDbEntity
  8
0
  6
Continuous
 62
     7
370
    25
100
AcDbLine
 10
70.9738610508
 20
130.0290441558
 30
0.0
 11
70.9738610508
 21
430.1290428683
 31
0.0
  0
LINE
  5
1FC
330
1F
100
AcDbEntity
  8
0
  6
Continuous
 62
     7
370
    25
100
AcDbLine
 10
75.9738562824
 20
430.1290428683
 30
0.0
 11
70.9738610508
 21
430.1290428683
 31
0.0
  0
LINE
  5
1FD
330
1F
100
AcDbEntity
  8
0
  6
Continuous
 62
     7
370
    25
100
AcDbLine
 10
75.9738562824
 20
430.1290428683
 30
0.0
 11
75.9738562824
 21
130.0290441558
 31
0.0
  0
LINE
  5
1FE
330
1F
100
AcDbEntity
  8
0
  6
Continuous
 62
     7
370
    25
100
AcDbLine
 10
70.9738610508
 20
130.0290441558
 30
0.0
 11
75.9738562824
 21
130.0290441558
 31
0.0
  0
LINE
  5
1FF
330
1F
100
AcDbEntity
  8
0
  6
Continuous
 62
     7
370
    25
100
AcDbLine
 10
422.0738513591
 20
430.1290428683
 30
0.0
 11
422.0738513591
 21
130.0290441558
 31
0.0
  0
LINE
  5
200
330
1F
100
AcDbEntity
  8
0
  6
Continuous
 62
     7
370
    25
100
AcDbLine
 10
422.0738513591
 20
130.0290441558
 30
0.0
 11
417.0738486769
 21
130.0290441558
 31
0.0
  0
LINE
  5
201
330
1F
100
AcDbEntity
  8
0
  6
Continuous
 62
     7
370
    25
100
AcDbLine
 10
417.0738486769
 20
130.0290441558
 30
0.0
 11
417.0738486769
 21
430.1290428683
 31
0.0
  0
LINE
  5
202
330
1F
100
AcDbEntity
  8
0
  6
Continuous
 62
     7
370
    25
100
AcDbLine
 10
417.0738486769
 20
430.1290428683
 30
0.0
 11
422.0738513591
 21
430.1290428683
 31
0.0
  0
LINE
  5
203
330
1F
100
AcDbEntity
  8
0
  6
Continuous
 62
     7
370
    25
100
AcDbLine
 10
366.5738525065
 20
74.5290434405
 30
0.0
 11
126.4738468649
 21
74.5290434405
 31
0.0
  0
ARC
  5
204
330
1F
100
AcDbEntity
  8
0
  6
Continuous
 62
     7
370
    25
100
AcDbCircle
 10
366.5738518479
 20
130.0290375802
 30
0.0
 40
55.50000000000011
100
AcDbArc
 50
270.0
 51
0.0
  0
ARC
  5
205
330
1F
100
AcDbEntity
  8
0
  6
Continuous
 62
     7
370
    25
100
AcDbCircle
 10
366.5738518479
 20
430.1290375802
 30
0.0
 40
55.50000000000017
100
AcDbArc
 50
0.0
 51
90.0
  0
LINE
  5
206
330
1F
100
AcDbEntity
  8
0
  6
Continuous
 62
     7
370
    25
100
AcDbLine
 10
126.4738468649
 20
485.6290435836
 30
0.0
 11
366.5738525065
 21
485.6290435836
 31
0.0
  0
ARC
  5
207
330
1F
100
AcDbEntity
  8
0
  6
Continuous
 62
     7
370
    25
100
AcDbCircle
 10
126.4738518479
 20
430.1290375802
 30
0.0
 40
55.50000000000011
100
AcDbArc
 50
90.0
 51
180.0
  0
ARC
  5
208
330
1F
100
AcDbEntity
  8
0
  6
Continuous
 62
     7
370
    25
100
AcDbCircle
 10
126.4738518479
 20
130.0290375802
 30
0.0
 40
55.50000000000011
100
AcDbArc
 50
180.0
 51
270.0
  0
LINE
  5
209
330
1F
100
AcDbEntity
  8
0
  6
Continuous
 62
     7
370
    25
100
AcDbLine
 10
498.5238490822
 20
455.5790340945
 30
0.0
 11
568.5238568308
 21
455.5790340945
 31
0.0
  0
ARC
  5
20A
330
1F
100
AcDbEntity
  8
0
  6
Continuous
 62
     7
370
    25
100
AcDbCircle
 10
498.5238518479
 20
400.0790375802
 30
0.0
 40
55.50000000000017
100
AcDbArc
 50
90.0
 51
180.0
  0
ARC
  5
20B
330
1F
100
AcDbEntity
  8
0
  6
Continuous
 62
     7
370
    25
100
AcDbCircle
 10
498.5238518479
 20
160.0790375802
 30
0.0
 40
55.50000000000017
100
AcDbArc
 50
180.0
 51
270.0
  0
LINE
  5
20C
330
1F
100
AcDbEntity
  8
0
  6
Continuous
 62
     7
370
    25
100
AcDbLine
 10
568.5238568308
 20
104.5790380284
 30
0.0
 11
498.5238490822
 21
104.5790380284
 31
0.0
  0
ARC
  5
20D
330
1F
100
AcDbEntity
  8
0
  6
Continuous
 62
     7
370
    25
100
AcDbCircle
 10
568.5238518479
 20
160.0790375802
 30
0.0
 40
55.50000000000011
100
AcDbArc
 50
270.0
 51
0.0
  0
LINE
  5
20E
330
1F
100
AcDbEntity
  8
0
  6
Continuous
 62
     7
370
    25
100
AcDbLine
 10
624.0238426449
 20
400.0790408298
 30
0.0
 11
624.0238426449
 21
160.0790387437
 31
0.0
  0
ARC
  5
20F
330
1F
100
AcDbEntity
  8
0
  6
Continuous
 62
     7
370
    25
100
AcDbCircle
 10
568.5238518479
 20
400.0790375802
 30
0.0
 40
55.50000000000011
100
AcDbArc
 50
0.0
 51
90.0
  0
CIRCLE
  5
210
330
1F
100
AcDbEntity
  8
0
  6
Continuous
 62
     7
370
    25
100
AcDbCircle
 10
445.5238518479
 20
487.0790375802
 30
0.0
 40
17.49999999999994
  0
ARC
  5
211
330
1F
100
AcDbEntity
  8
0
  6
Continuous
 62
     7
370
    25
100
AcDbCircle
 10
126.4738518479
 20
130.0290375802
 30
0.0
 40
50.50000000000011
100
AcDbArc
 50
180.0
 51
270.0
  0
LINE
  5
212
330
1F
100
AcDbEntity
  8
0
  6
Continuous
 62
     7
370
    25
100
AcDbLine
 10
126.4738468649
 20
74.5290434405
 30
0.0
 11
126.4738468649
 21
79.5290386722
 31
0.0
  0
LINE
  5
213
330
1F
100
AcDbEntity
  8
0
  6
Continuous
 62
     7
370
    25
100
AcDbLine
 10
366.5738525065
 20
480.6290334508
 30
0.0
 11
126.4738468649
 21
480.6290334508
 31
0.0
  0
LINE
  5
214
330
1F
100
AcDbEntity
  8
0
  6
Continuous
 62
     7
370
    25
100
AcDbLine
 10
126.4738468649
 20
480.6290334508
 30
0.0
 11
126.4738468649
 21
485.6290435836
 31
0.0
  0
LINE
  5
215
330
1F
100
AcDbEntity
  8
0
  6
Continuous
 62
     7
370
    25
100
AcDbLine
 10
366.5738525065
 20
480.6290334508
 30
0.0
 11
366.5738525065
 21
485.6290435836
 31
0.0
  0
ARC
  5
216
330
1F
100
AcDbEntity
  8
0
  6
Continuous
 62
     7
370
    25
100
AcDbCircle
 10
126.4738518479
 20
430.1290375802
 30
0.0
 40
50.50000000000006
100
AcDbArc
 50
90.0
 51
180.0
  0
LINE
  5
217
330
1F
100
AcDbEntity
  8
0
  6
Continuous
 62
     7
370
    25
100
AcDbLine
 10
126.4738468649
 20
79.5290386722
 30
0.0
 11
366.5738525065
 21
79.5290386722
 31
0.0
  0
LINE
  5
218
330
1F
100
AcDbEntity
  8
0
  6
Continuous
 62
     7
370
    25
100
AcDbLine
 10
366.5738525065
 20
74.5290434405
 30
0.0
 11
366.5738525065
 21
79.5290386722
 31
0.0
  0
ARC
  5
219
330
1F
100
AcDbEntity
  8
0
  6
Continuous
 62
     7
370
    25
100
AcDbCircle
 10
366.5738518479
 20
430.1290375802
 30
0.0
 40
50.5
100
AcDbArc
 50
0.0
 51
90.0
  0
LINE
  5
21A
330
1F
100
AcDbEntity
  8
0
  6
Continuous
 62
     7
370
    25
100
AcDbLine
 10
498.5238490822
 20
455.5790340945
 30
0.0
 11
498.5238490822
 21
450.5790388629
 31
0.0
  0
ARC
  5
21B
330
1F
100
AcDbEntity
  8
0
  6
Continuous
 62
     7
370
    25
100
AcDbCircle
 10
498.5238518479
 20
400.0790375802
 30
0.0
 40
50.50000000000006
100
AcDbArc
 50
90.0
 51
180.0
  0
LINE
  5
21C
330
1F
100
AcDbEntity
  8
0
  6
Continuous
 62
     7
370
    25
100
AcDbLine
 10
498.5238490822
 20
109.5790332601
 30
0.0
 11
568.5238568308
 21
109.5790332601
 31
0.0
  0
LINE
  5
21D
330
1F
100
AcDbEntity
  8
0
  6
Continuous
 62
     7
370
    25
100
AcDbLine
 10
568.5238568308
 20
109.5790332601
 30
0.0
 11
568.5238568308
 21
104.5790380284
 31
0.0
  0
LINE
  5
21E
330
1F
100
AcDbEntity
  8
0
  6
Continuous
 62
     7
370
    25
100
AcDbLine
 10
498.5238490822
 20
109.5790332601
 30
0.0
 11
498.5238490822
 21
104.5790380284
 31
0.0
  0
LINE
  5
21F
330
1F
100
AcDbEntity
  8
0
  6
Continuous
 62
     7
370
    25
100
AcDbLine
 10
568.5238568308
 20
455.5790340945
 30
0.0
 11
568.5238568308
 21
450.5790388629
 31
0.0
  0
LINE
  5
220
330
1F
100
AcDbEntity
  8
0
  6
Continuous
 62
     7
370
    25
100
AcDbLine
 10
568.5238568308
 20
450.5790388629
 30
0.0
 11
498.5238490822
 21
450.5790388629
 31
0.0
  0
ARC
  5
221
330
1F
100
AcDbEntity
  8
0
  6
Continuous
 62
     7
370
    25
100
AcDbCircle
 10
366.5738518479
 20
130.0290375802
 30
0.0
 40
50.50000000000001
100
AcDbArc
 50
270.0
 51
0.0
  0
ARC
  5
222
330
1F
100
AcDbEntity
  8
0
  6
Continuous
 62
     7
370
    25
100
AcDbCircle
 10
568.5238518479
 20
160.0790375802
 30
0.0
 40
50.5
100
AcDbArc
 50
270.0
 51
0.0
  0
LINE
  5
223
330
1F
100
AcDbEntity
  8
0
  6
Continuous
 62
     7
370
    25
100
AcDbLine
 10
619.0238474133
 20
160.0790387437
 30
0.0
 11
624.0238426449
 21
160.0790387437
 31
0.0
  0
LINE
  5
224
330
1F
100
AcDbEntity
  8
0
  6
Continuous
 62
     7
370
    25
100
AcDbLine
 10
619.0238474133
 20
160.0790387437
 30
0.0
 11
619.0238474133
 21
400.0790408298
 31
0.0
  0
LINE
  5
225
330
1F
100
AcDbEntity
  8
0
  6
Continuous
 62
     7
370
    25
100
AcDbLine
 10
624.0238426449
 20
400.0790408298
 30
0.0
 11
619.0238474133
 21
400.0790408298
 31
0.0
  0
ARC
  5
226
330
1F
100
AcDbEntity
  8
0
  6
Continuous
 62
     7
370
    25
100
AcDbCircle
 10
498.5238518479
 20
160.0790375802
 30
0.0
 40
50.50000000000006
100
AcDbArc
 50
180.0
 51
270.0
  0
ARC
  5
227
330
1F
100
AcDbEntity
  8
0
  6
Continuous
 62
     7
370
    25
100
AcDbCircle
 10
568.5238518479
 20
400.0790375802
 30
0.0
 40
50.5
100
AcDbArc
 50
0.0
 51
90.0
  0
LINE
  5
228
330
1F
100
AcDbEntity
  8
0
  6
Continuous
 62
     8
370
    25
100
AcDbLine
 10
568.5238568308
 20
450.5790388629
 30
0.0
 11
568.5238568308
 21
450.079030399
 31
0.0
  0
LINE
  5
229
330
1F
100
AcDbEntity
  8
0
  6
Continuous
 62
     8
370
    25
100
AcDbLine
 10
498.5238490822
 20
450.5790388629
 30
0.0
 11
498.5238490822
 21
450.079030399
 31
0.0
  0
LINE
  5
22A
330
1F
100
AcDbEntity
  8
0
  6
Continuous
 62
     8
370
    25
100
AcDbLine
 10
568.5238568308
 20
110.0790417239
 30
0.0
 11
568.5238568308
 21
109.5790332601
 31
0.0
  0
LINE
  5
22B
330
1F
100
AcDbEntity
  8
0
  6
Continuous
 62
     8
370
    25
100
AcDbLine
 10
448.5238520624
 20
160.0790387437
 30
0.0
 11
448.0238510492
 21
160.0790387437
 31
0.0
  0
LINE
  5
22C
330
1F
100
AcDbEntity
  8
0
  6
Continuous
 62
     8
370
    25
100
AcDbLine
 10
448.5238520624
 20
400.0790408298
 30
0.0
 11
448.0238510492
 21
400.0790408298
 31
0.0
  0
LINE
  5
22D
330
1F
100
AcDbEntity
  8
0
  6
Continuous
 62
     8
370
    25
100
AcDbLine
 10
498.5238490822
 20
110.0790417239
 30
0.0
 11
498.5238490822
 21
109.5790332601
 31
0.0
  0
LINE
  5
22E
330
1F
100
AcDbEntity
  8
0
  6
Continuous
 62
     8
370
    25
100
AcDbLine
 10
417.0738486769
 20
130.0790375516
 30
0.0
 11
416.5238542678
 21
130.0790375516
 31
0.0
  0
LINE
  5
22F
330
1F
100
AcDbEntity
  8
0
  6
Continuous
 62
     8
370
    25
100
AcDbLine
 10
417.0738486769
 20
430.0790345714
 30
0.0
 11
416.5238542678
 21
430.0790345714
 31
0.0
  0
LINE
  5
230
330
1F
100
AcDbEntity
  8
0
  6
Continuous
 62
     8
370
    25
100
AcDbLine
 10
366.5238516601
 20
79.5290386722
 30
0.0
 11
366.5238516601
 21
80.0790405318
 31
0.0
  0
LINE
  5
231
330
1F
100
AcDbEntity
  8
0
  6
Continuous
 62
     8
370
    25
100
AcDbLine
 10
76.5238581421
 20
430.0790345714
 30
0.0
 11
75.9738562824
 21
430.0790345714
 31
0.0
  0
LINE
  5
232
330
1F
100
AcDbEntity
  8
0
  6
Continuous
 62
     8
370
    25
100
AcDbLine
 10
126.5238551619
 20
480.0790315911
 30
0.0
 11
126.5238551619
 21
480.6290334508
 31
0.0
  0
LINE
  5
233
330
1F
100
AcDbEntity
  8
0
  6
Continuous
 62
     8
370
    25
100
AcDbLine
 10
366.5238516601
 20
480.0790315911
 30
0.0
 11
366.5238516601
 21
480.6290334508
 31
0.0
  0
LINE
  5
234
330
1F
100
AcDbEntity
  8
0
  6
Continuous
 62
     8
370
    25
100
AcDbLine
 10
76.5238581421
 20
130.0790375516
 30
0.0
 11
75.9738562824
 21
130.0790375516
 31
0.0
  0
LINE
  5
235
330
1F
100
AcDbEntity
  8
0
  6
Continuous
 62
     8
370
    25
100
AcDbLine
 10
126.5238551619
 20
79.5290386722
 30
0.0
 11
126.5238551619
 21
80.0790405318
 31
0.0
  0
ENDSEC
  0
SECTION
  2
OBJECTS
  0
DICTIONARY
  5
C
330
0
100
AcDbDictionary
281
     1
  3
ACAD_GROUP
350
D
  3
ACAD_LAYOUT
350
1A
  3
ACAD_MLINESTYLE
350
17
  3
ACAD_PLOTSETTINGS
350
19
  3
ACAD_PLOTSTYLENAME
350
E
  3
ACAD_SCALELIST
350
47
  0
DICTIONARY
  5
D
102
{ACAD_REACTORS
330
C
102
}
330
C
100
AcDbDictionary
281
     1
  0
DICTIONARY
  5
1A
102
{ACAD_REACTORS
330
C
102
}
330
C
100
AcDbDictionary
281
     1
  3
Layout1
350
1E
  3
Layout2
350
26
  3
Model
350
22
  0
DICTIONARY
  5
17
102
{ACAD_REACTORS
330
C
102
}
330
C
100
AcDbDictionary
281
     1
  3
Standard
350
18
  0
DICTIONARY
  5
19
102
{ACAD_REACTORS
330
C
102
}
330
C
100
AcDbDictionary
281
     1
  0
ACDBDICTIONARYWDFLT
  5
E
102
{ACAD_REACTORS
330
C
102
}
330
C
100
AcDbDictionary
281
     1
  3
Normal
350
F
100
AcDbDictionaryWithDefault
340
F
  0
DICTIONARY
  5
47
102
{ACAD_REACTORS
330
C
102
}
330
C
100
AcDbDictionary
281
     1
  3
A0
350
48
  3
A1
350
49
  3
A2
350
4A
  3
A3
350
4B
  3
A4
350
4C
  3
A5
350
4D
  3
A6
350
4E
  3
A7
350
4F
  3
A8
350
50
  3
A9
350
51
  3
B0
350
52
  3
B1
350
53
  3
B2
350
54
  3
B3
350
55
  3
B4
350
56
  3
B5
350
57
  3
B6
350
58
  3
B7
350
59
  3
B8
350
5A
  3
B9
350
5B
  3
C0
350
5C
  3
C1
350
5D
  3
C2
350
5E
  3
C3
350
5F
  3
C4
350
60
  3
C5
350
61
  3
C6
350
62
  3
C7
350
63
  3
C8
350
64
  3
C9
350
65
  3
D0
350
66
  3
D1
350
67
  3
D2
350
68
  0
LAYOUT
  5
1E
102
{ACAD_REACTORS
330
1A
102
}
330
1A
100
AcDbPlotSettings
  1

  2
none_device
  4

  6

 40
0.0
 41
0.0
 42
0.0
 43
0.0
 44
0.0
 45
0.0
 46
0.0
 47
0.0
 48
0.0
 49
0.0
140
0.0
141
0.0
142
1.0
143
1.0
 70
   688
 72
     1
 73
     0
 74
     5
  7

 75
    16
147
1.0
148
0.0
149
0.0
100
AcDbLayout
  1
Layout1
 70
     1
 71
     1
 10
0.0
 20
0.0
 11
420.0
 21
297.0
 12
0.0
 22
0.0
 32
0.0
 14
1.0000000000E+20
 24
1.0000000000E+20
 34
1.0000000000E+20
 15
-1.0000000000E+20
 25
-1.0000000000E+20
 35
-1.0000000000E+20
146
0.0
 13
0.0
 23
0.0
 33
0.0
 16
1.0
 26
0.0
 36
0.0
 17
0.0
 27
1.0
 37
0.0
 76
     0
330
1B
  0
LAYOUT
  5
26
102
{ACAD_REACTORS
330
1A
102
}
330
1A
100
AcDbPlotSettings
  1

  2
none_device
  4

  6

 40
0.0
 41
0.0
 42
0.0
 43
0.0
 44
0.0
 45
0.0
 46
0.0
 47
0.0
 48
0.0
 49
0.0
140
0.0
141
0.0
142
1.0
143
1.0
 70
   688
 72
     1
 73
     0
 74
     5
  7

 75
    16
147
1.0
148
0.0
149
0.0
100
AcDbLayout
  1
Layout2
 70
     1
 71
     2
 10
0.0
 20
0.0
 11
0.0
 21
0.0
 12
0.0
 22
0.0
 32
0.0
 14
0.0
 24
0.0
 34
0.0
 15
0.0
 25
0.0
 35
0.0
146
0.0
 13
0.0
 23
0.0
 33
0.0
 16
1.0
 26
0.0
 36
0.0
 17
0.0
 27
1.0
 37
0.0
 76
     0
330
23
  0
LAYOUT
  5
22
102
{ACAD_REACTORS
330
1A
102
}
330
1A
100
AcDbPlotSettings
  1

  2
none_device
  4
Letter_(8.50_x_11.00_Inches)
  6

 40
6.35
 41
6.35
 42
6.35000508
 43
6.35000508
 44
215.9
 45
279.4
 46
0.0
 47
0.0
 48
0.0
 49
0.0
140
0.0
141
0.0
142
1.0
143
1.0
 70
  1712
 72
     1
 73
     0
 74
     0
  7

 75
     0
147
1.0
148
0.0
149
0.0
100
AcDbLayout
  1
Model
 70
     1
 71
     0
 10
0.0
 20
0.0
 11
700.0
 21
600.0
 12
0.0
 22
0.0
 32
0.0
 14
0.0
 24
0.0
 34
0.0
 15
700.0
 25
600.0
 35
0.0
146
0.0
 13
0.0
 23
0.0
 33
0.0
 16
1.0
 26
0.0
 36
0.0
 17
0.0
 27
1.0
 37
0.0
 76
     0
330
1F
331
29
  0
MLINESTYLE
  5
18
102
{ACAD_REACTORS
330
17
102
}
330
17
100
AcDbMlineStyle
  2
Standard
 70
     0
  3

 62
   256
 51
90.0
 52
90.0
 71
     2
 49
0.5
 62
   256
  6
BYLAYER
 49
-0.5
 62
   256
  6
BYLAYER
  0
ACDBPLACEHOLDER
  5
F
102
{ACAD_REACTORS
330
E
102
}
330
E
  0
SCALE
  5
48
102
{ACAD_REACTORS
330
47
102
}
330
47
100
AcDbScale
 70
     0
300
1:1
140
1.0
141
1.0
290
     1
  0
SCALE
  5
49
102
{ACAD_REACTORS
330
47
102
}
330
47
100
AcDbScale
 70
     0
300
1:2
140
1.0
141
2.0
290
     0
  0
SCALE
  5
4A
102
{ACAD_REACTORS
330
47
102
}
330
47
100
AcDbScale
 70
     0
300
1:4
140
1.0
141
4.0
290
     0
  0
SCALE
  5
4B
102
{ACAD_REACTORS
330
47
102
}
330
47
100
AcDbScale
 70
     0
300
1:5
140
1.0
141
5.0
290
     0
  0
SCALE
  5
4C
102
{ACAD_REACTORS
330
47
102
}
330
47
100
AcDbScale
 70
     0
300
1:8
140
1.0
141
8.0
290
     0
  0
SCALE
  5
4D
102
{ACAD_REACTORS
330
47
102
}
330
47
100
AcDbScale
 70
     0
300
1:10
140
1.0
141
10.0
290
     0
  0
SCALE
  5
4E
102
{ACAD_REACTORS
330
47
102
}
330
47
100
AcDbScale
 70
     0
300
1:16
140
1.0
141
16.0
290
     0
  0
SCALE
  5
4F
102
{ACAD_REACTORS
330
47
102
}
330
47
100
AcDbScale
 70
     0
300
1:20
140
1.0
141
20.0
290
     0
  0
SCALE
  5
50
102
{ACAD_REACTORS
330
47
102
}
330
47
100
AcDbScale
 70
     0
300
1:30
140
1.0
141
30.0
290
     0
  0
SCALE
  5
51
102
{ACAD_REACTORS
330
47
102
}
330
47
100
AcDbScale
 70
     0
300
1:40
140
1.0
141
40.0
290
     0
  0
SCALE
  5
52
102
{ACAD_REACTORS
330
47
102
}
330
47
100
AcDbScale
 70
     0
300
1:50
140
1.0
141
50.0
290
     0
  0
SCALE
  5
53
102
{ACAD_REACTORS
330
47
102
}
330
47
100
AcDbScale
 70
     0
300
1:100
140
1.0
141
100.0
290
     0
  0
SCALE
  5
54
102
{ACAD_REACTORS
330
47
102
}
330
47
100
AcDbScale
 70
     0
300
2:1
140
2.0
141
1.0
290
     0
  0
SCALE
  5
55
102
{ACAD_REACTORS
330
47
102
}
330
47
100
AcDbScale
 70
     0
300
4:1
140
4.0
141
1.0
290
     0
  0
SCALE
  5
56
102
{ACAD_REACTORS
330
47
102
}
330
47
100
AcDbScale
 70
     0
300
8:1
140
8.0
141
1.0
290
     0
  0
SCALE
  5
57
102
{ACAD_REACTORS
330
47
102
}
330
47
100
AcDbScale
 70
     0
300
10:1
140
10.0
141
1.0
290
     0
  0
SCALE
  5
58
102
{ACAD_REACTORS
330
47
102
}
330
47
100
AcDbScale
 70
     0
300
100:1
140
100.0
141
1.0
290
     0
  0
SCALE
  5
59
102
{ACAD_REACTORS
330
47
102
}
330
47
100
AcDbScale
 70
     0
300
1/128" = 1'-0"
140
0.0078125
141
12.0
290
     0
  0
SCALE
  5
5A
102
{ACAD_REACTORS
330
47
102
}
330
47
100
AcDbScale
 70
     0
300
1/64" = 1'-0"
140
0.015625
141
12.0
290
     0
  0
SCALE
  5
5B
102
{ACAD_REACTORS
330
47
102
}
330
47
100
AcDbScale
 70
     0
300
1/32" = 1'-0"
140
0.03125
141
12.0
290
     0
  0
SCALE
  5
5C
102
{ACAD_REACTORS
330
47
102
}
330
47
100
AcDbScale
 70
     0
300
1/16" = 1'-0"
140
0.0625
141
12.0
290
     0
  0
SCALE
  5
5D
102
{ACAD_REACTORS
330
47
102
}
330
47
100
AcDbScale
 70
     0
300
3/32" = 1'-0"
140
0.09375
141
12.0
290
     0
  0
SCALE
  5
5E
102
{ACAD_REACTORS
330
47
102
}
330
47
100
AcDbScale
 70
     0
300
1/8" = 1'-0"
140
0.125
141
12.0
290
     0
  0
SCALE
  5
5F
102
{ACAD_REACTORS
330
47
102
}
330
47
100
AcDbScale
 70
     0
300
3/16" = 1'-0"
140
0.1875
141
12.0
290
     0
  0
SCALE
  5
60
102
{ACAD_REACTORS
330
47
102
}
330
47
100
AcDbScale
 70
     0
300
1/4" = 1'-0"
140
0.25
141
12.0
290
     0
  0
SCALE
  5
61
102
{ACAD_REACTORS
330
47
102
}
330
47
100
AcDbScale
 70
     0
300
3/8" = 1'-0"
140
0.375
141
12.0
290
     0
  0
SCALE
  5
62
102
{ACAD_REACTORS
330
47
102
}
330
47
100
AcDbScale
 70
     0
300
1/2" = 1'-0"
140
0.5
141
12.0
290
     0
  0
SCALE
  5
63
102
{ACAD_REACTORS
330
47
102
}
330
47
100
AcDbScale
 70
     0
300
3/4" = 1'-0"
140
0.75
141
12.0
290
     0
  0
SCALE
  5
64
102
{ACAD_REACTORS
330
47
102
}
330
47
100
AcDbScale
 70
     0
300
1" = 1'-0"
140
1.0
141
12.0
290
     0
  0
SCALE
  5
65
102
{ACAD_REACTORS
330
47
102
}
330
47
100
AcDbScale
 70
     0
300
1-1/2" = 1'-0"
140
1.5
141
12.0
290
     0
  0
SCALE
  5
66
102
{ACAD_REACTORS
330
47
102
}
330
47
100
AcDbScale
 70
     0
300
3" = 1'-0"
140
3.0
141
12.0
290
     0
  0
SCALE
  5
67
102
{ACAD_REACTORS
330
47
102
}
330
47
100
AcDbScale
 70
     0
300
6" = 1'-0"
140
6.0
141
12.0
290
     0
  0
SCALE
  5
68
102
{ACAD_REACTORS
330
47
102
}
330
47
100
AcDbScale
 70
     0
300
1'-0" = 1'-0"
140
12.0
141
12.0
290
     0
  0
ENDSEC
  0
EOF
