  0
SECTION
  2
HEADER
  9
$ACADVER
  1
AC1015
  9
$ACADMAINTVER
 70
     6
  9
$DWGCODEPAGE
  3
ANSI_1252
  9
$INSBASE
 10
0.0
 20
0.0
 30
0.0
  9
$EXTMIN
 10
0.0
 20
0.0
 30
0.0
  9
$EXTMAX
 10
1500.0
 20
1000.0
 30
0.0
  9
$LIMMIN
 10
0.0
 20
0.0
  9
$LIMMAX
 10
1500.0
 20
1000.0
  9
$ORTHOMODE
 70
     0
  9
$REGENMODE
 70
     1
  9
$FILLMODE
 70
     1
  9
$QTEXTMODE
 70
     0
  9
$MIRRTEXT
 70
     1
  9
$LTSCALE
 40
1.0
  9
$ATTMODE
 70
     1
  9
$TEXTSIZE
 40
5.0
  9
$TRACEWID
 40
1.0
  9
$TEXTSTYLE
  7
Standard
  9
$CLAYER
  8
0
  9
$CELTYPE
  6
ByLayer
  9
$CECOLOR
 62
   256
  9
$CELTSCALE
 40
1.0
  9
$DISPSILH
 70
     0
  9
$DIMSCALE
 40
1.0
  9
$DIMASZ
 40
6.0
  9
$DIMEXO
 40
1.0
  9
$DIMDLI
 40
3.75
  9
$DIMRND
 40
0.0
  9
$DIMDLE
 40
0.0
  9
$DIMEXE
 40
1.0
  9
$DIMTP
 40
0.0
  9
$DIMTM
 40
0.0
  9
$DIMTXT
 40
5.0
  9
$DIMCEN
 40
2.5
  9
$DIMTSZ
 40
0.0
  9
$DIMTOL
 70
     0
  9
$DIMLIM
 70
     0
  9
$DIMTIH
 70
     1
  9
$DIMTOH
 70
     1
  9
$DIMSE1
 70
     0
  9
$DIMSE2
 70
     0
  9
$DIMTAD
 70
     1
  9
$DIMZIN
 70
     0
  9
$DIMBLK
  1

  9
$DIMASO
 70
     1
  9
$DIMSHO
 70
     1
  9
$DIMPOST
  1

  9
$DIMAPOST
  1

  9
$DIMALT
 70
     0
  9
$DIMALTD
 70
     3
  9
$DIMALTF
 40
0.0393700787
  9
$DIMLFAC
 40
1.0
  9
$DIMTOFL
 70
     1
  9
$DIMTVP
 40
0.0
  9
$DIMTIX
 70
     0
  9
$DIMSOXD
 70
     0
  9
$DIMSAH
 70
     0
  9
$DIMBLK1
  1

  9
$DIMBLK2
  1

  9
$DIMSTYLE
  2
ISO-25
  9
$DIMCLRD
 70
     0
  9
$DIMCLRE
 70
     0
  9
$DIMCLRT
 70
     0
  9
$DIMTFAC
 40
1.0
  9
$DIMGAP
 40
1.524
  9
$DIMJUST
 70
     0
  9
$DIMSD1
 70
     0
  9
$DIMSD2
 70
     0
  9
$DIMTOLJ
 70
     0
  9
$DIMTZIN
 70
     0
  9
$DIMALTZ
 70
     0
  9
$DIMALTTZ
 70
     0
  9
$DIMUPT
 70
     0
  9
$DIMDEC
 70
     2
  9
$DIMTDEC
 70
     2
  9
$DIMALTU
 70
     2
  9
$DIMALTTD
 70
     3
  9
$DIMTXSTY
  7
Standard
  9
$DIMAUNIT
 70
     0
  9
$DIMADEC
 70
     2
  9
$DIMALTRND
 40
0.0
  9
$DIMAZIN
 70
     0
  9
$DIMDSEP
 70
    44
  9
$DIMATFIT
 70
     3
  9
$DIMFRAC
 70
     0
  9
$DIMLDRBLK
  1

  9
$DIMLUNIT
 70
     2
  9
$DIMLWD
 70
    -2
  9
$DIMLWE
 70
    -2
  9
$DIMTMOVE
 70
     0
  9
$LUNITS
 70
     2
  9
$LUPREC
 70
     2
  9
$SKETCHINC
 40
1.0
  9
$FILLETRAD
 40
10.0
  9
$AUNITS
 70
     0
  9
$AUPREC
 70
     2
  9
$MENU
  1
.
  9
$ELEVATION
 40
0.0
  9
$PELEVATION
 40
0.0
  9
$THICKNESS
 40
0.0
  9
$LIMCHECK
 70
     0
  9
$CHAMFERA
 40
0.0
  9
$CHAMFERB
 40
0.0
  9
$CHAMFERC
 40
0.0
  9
$CHAMFERD
 40
0.0
  9
$SKPOLY
 70
     0
  9
$TDCREATE
 40
2458513.422193206
  9
$TDUCREATE
 40
2458513.338859873
  9
$TDUPDATE
 40
2458513.422193935
  9
$TDUUPDATE
 40
2458513.338860602
  9
$TDINDWG
 40
0.0000000116
  9
$TDUSRTIMER
 40
0.0000000116
  9
$USRTIMER
 70
     1
  9
$ANGBASE
 50
0.0
  9
$ANGDIR
 70
     0
  9
$PDMODE
 70
     0
  9
$PDSIZE
 40
-1.0
  9
$PLINEWID
 40
0.0
  9
$SPLFRAME
 70
     0
  9
$SPLINETYPE
 70
     6
  9
$SPLINESEGS
 70
     8
  9
$HANDSEED
  5
1EC
  9
$SURFTAB1
 70
     6
  9
$SURFTAB2
 70
     6
  9
$SURFTYPE
 70
     6
  9
$SURFU
 70
     6
  9
$SURFV
 70
     6
  9
$UCSBASE
  2

  9
$UCSNAME
  2

  9
$UCSORG
 10
0.0
 20
0.0
 30
0.0
  9
$UCSXDIR
 10
1.0
 20
0.0
 30
0.0
  9
$UCSYDIR
 10
0.0
 20
1.0
 30
0.0
  9
$UCSORTHOREF
  2

  9
$UCSORTHOVIEW
 70
     0
  9
$UCSORGTOP
 10
0.0
 20
0.0
 30
0.0
  9
$UCSORGBOTTOM
 10
0.0
 20
0.0
 30
0.0
  9
$UCSORGLEFT
 10
0.0
 20
0.0
 30
0.0
  9
$UCSORGRIGHT
 10
0.0
 20
0.0
 30
0.0
  9
$UCSORGFRONT
 10
0.0
 20
0.0
 30
0.0
  9
$UCSORGBACK
 10
0.0
 20
0.0
 30
0.0
  9
$PUCSBASE
  2

  9
$PUCSNAME
  2

  9
$PUCSORG
 10
0.0
 20
0.0
 30
0.0
  9
$PUCSXDIR
 10
1.0
 20
0.0
 30
0.0
  9
$PUCSYDIR
 10
0.0
 20
1.0
 30
0.0
  9
$PUCSORTHOREF
  2

  9
$PUCSORTHOVIEW
 70
     0
  9
$PUCSORGTOP
 10
0.0
 20
0.0
 30
0.0
  9
$PUCSORGBOTTOM
 10
0.0
 20
0.0
 30
0.0
  9
$PUCSORGLEFT
 10
0.0
 20
0.0
 30
0.0
  9
$PUCSORGRIGHT
 10
0.0
 20
0.0
 30
0.0
  9
$PUCSORGFRONT
 10
0.0
 20
0.0
 30
0.0
  9
$PUCSORGBACK
 10
0.0
 20
0.0
 30
0.0
  9
$USERI1
 70
     0
  9
$USERI2
 70
     0
  9
$USERI3
 70
     0
  9
$USERI4
 70
     0
  9
$USERI5
 70
     0
  9
$USERR1
 40
0.0
  9
$USERR2
 40
0.0
  9
$USERR3
 40
0.0
  9
$USERR4
 40
0.0
  9
$USERR5
 40
0.0
  9
$WORLDVIEW
 70
     1
  9
$SHADEDGE
 70
     3
  9
$SHADEDIF
 70
    70
  9
$TILEMODE
 70
     1
  9
$MAXACTVP
 70
    64
  9
$PINSBASE
 10
0.0
 20
0.0
 30
0.0
  9
$PLIMCHECK
 70
     0
  9
$PEXTMIN
 10
1.0000000000E+20
 20
1.0000000000E+20
 30
1.0000000000E+20
  9
$PEXTMAX
 10
-1.0000000000E+20
 20
-1.0000000000E+20
 30
-1.0000000000E+20
  9
$PLIMMIN
 10
0.0
 20
0.0
  9
$PLIMMAX
 10
420.0
 20
297.0
  9
$UNITMODE
 70
     0
  9
$VISRETAIN
 70
     1
  9
$PLINEGEN
 70
     0
  9
$PSLTSCALE
 70
     1
  9
$TREEDEPTH
 70
  3020
  9
$CMLSTYLE
  2
Standard
  9
$CMLJUST
 70
     0
  9
$CMLSCALE
 40
20.0
  9
$PROXYGRAPHICS
 70
     1
  9
$MEASUREMENT
 70
     1
  9
$CELWEIGHT
370
    -1
  9
$ENDCAPS
280
     0
  9
$JOINSTYLE
280
     0
  9
$LWDISPLAY
290
     1
  9
$INSUNITS
 70
     4
  9
$HYPERLINKBASE
  1

  9
$STYLESHEET
  1

  9
$XEDIT
290
     1
  9
$CEPSNTYPE
380
     0
  9
$PSTYLEMODE
290
     1
  9
$FINGERPRINTGUID
  2
{0AFAD2BF-624D-40AB-AAFD-C8EB21C5531B}
  9
$VERSIONGUID
  2
{FAEB1C32-E019-11D5-929B-00C0DF256EC4}
  9
$EXTNAMES
290
     1
  9
$PSVPSCALE
 40
0.0
  9
$OLESTARTUP
290
     0
  0
ENDSEC
  0
SECTION
  2
CLASSES
  0
CLASS
  1
ACDBDICTIONARYWDFLT
  2
AcDbDictionaryWithDefault
  3
ObjectDBX Classes
 90
        0
280
     0
281
     0
  0
CLASS
  1
VISUALSTYLE
  2
AcDbVisualStyle
  3
ObjectDBX Classes
 90
     4095
280
     0
281
     0
  0
CLASS
  1
MATERIAL
  2
AcDbMaterial
  3
ObjectDBX Classes
 90
     1153
280
     0
281
     0
  0
CLASS
  1
SCALE
  2
AcDbScale
  3
ObjectDBX Classes
 90
     1153
280
     0
281
     0
  0
CLASS
  1
TABLESTYLE
  2
AcDbTableStyle
  3
ObjectDBX Classes
 90
     4095
280
     0
281
     0
  0
CLASS
  1
MLEADERSTYLE
  2
AcDbMLeaderStyle
  3
ACDB_MLEADERSTYLE_CLASS
 90
     4095
280
     0
281
     0
  0
CLASS
  1
SUN
  2
AcDbSun
  3
SCENEOE
 90
     1153
280
     0
281
     0
  0
CLASS
  1
ACDBPLACEHOLDER
  2
AcDbPlaceHolder
  3
ObjectDBX Classes
 90
        0
280
     0
281
     0
  0
CLASS
  1
LAYOUT
  2
AcDbLayout
  3
ObjectDBX Classes
 90
        0
280
     0
281
     0
  0
ENDSEC
  0
SECTION
  2
TABLES
  0
TABLE
  2
VPORT
  5
8
330
0
100
AcDbSymbolTable
 70
     1
  0
VPORT
  5
29
330
8
100
AcDbSymbolTableRecord
100
AcDbViewportTableRecord
  2
*Active
 70
     0
 10
0.0
 20
0.0
 11
1.0
 21
1.0
 12
750.0
 22
500.0
 13
0.0
 23
0.0
 14
10.0
 24
10.0
 15
10.0
 25
10.0
 16
0.0
 26
0.0
 36
1.0
 17
0.0
 27
0.0
 37
0.0
 40
1000.0
 41
1.5
 42
50.0
 43
0.0
 44
0.0
 50
0.0
 51
0.0
 71
     0
 72
  2000
 73
     1
 74
     3
 75
     0
 76
     0
 77
     0
 78
     0
281
     0
 65
     1
110
0.0
120
0.0
130
0.0
111
1.0
121
0.0
131
0.0
112
0.0
122
1.0
132
0.0
 79
     0
146
0.0
  0
ENDTAB
  0
TABLE
  2
LTYPE
  5
5
330
0
100
AcDbSymbolTable
 70
     6
  0
LTYPE
  5
14
330
5
100
AcDbSymbolTableRecord
100
AcDbLinetypeTableRecord
  2
ByBlock
 70
     0
  3

 72
    65
 73
     0
 40
0.0
  0
LTYPE
  5
15
330
5
100
AcDbSymbolTableRecord
100
AcDbLinetypeTableRecord
  2
ByLayer
 70
     0
  3

 72
    65
 73
     0
 40
0.0
  0
LTYPE
  5
16
330
5
100
AcDbSymbolTableRecord
100
AcDbLinetypeTableRecord
  2
Continuous
 70
     0
  3
Solid line
 72
    65
 73
     0
 40
0.0
  0
LTYPE
  5
6E
330
5
100
AcDbSymbolTableRecord
100
AcDbLinetypeTableRecord
  2
HIDDEN
 70
     0
  3
Hidden __ __ __ __ __ __ __ __ __ __ __ __ __ __
 72
    65
 73
     2
 40
1.905
 49
1.27
 74
     0
 49
-0.635
 74
     0
  0
LTYPE
  5
6F
330
5
100
AcDbSymbolTableRecord
100
AcDbLinetypeTableRecord
  2
PHANTOM
 70
     0
  3
Phantom ______  __  __  ______  __  __  ______
 72
    65
 73
     6
 40
12.7
 49
6.35
 74
     0
 49
-1.27
 74
     0
 49
1.27
 74
     0
 49
-1.27
 74
     0
 49
1.27
 74
     0
 49
-1.27
 74
     0
  0
LTYPE
  5
70
330
5
100
AcDbSymbolTableRecord
100
AcDbLinetypeTableRecord
  2
CENTER
 70
     0
  3
Center ____ _ ____ _ ____ _ ____ _ ____ _ ____
 72
    65
 73
     4
 40
10.16
 49
6.35
 74
     0
 49
-1.27
 74
     0
 49
1.27
 74
     0
 49
-1.27
 74
     0
  0
LTYPE
  5
71
330
5
100
AcDbSymbolTableRecord
100
AcDbLinetypeTableRecord
  2
CENTERX2
 70
     0
  3
Center (2x) ________  __  ________  __  _____
 72
    65
 73
     4
 40
20.32
 49
12.7
 74
     0
 49
-2.54
 74
     0
 49
2.54
 74
     0
 49
-2.54
 74
     0
  0
LTYPE
  5
72
330
5
100
AcDbSymbolTableRecord
100
AcDbLinetypeTableRecord
  2
DOT2
 70
     0
  3
Dot (.5x) ........................................
 72
    65
 73
     2
 40
0.635
 49
0.0
 74
     0
 49
-0.635
 74
     0
  0
ENDTAB
  0
TABLE
  2
LAYER
  5
2
330
0
100
AcDbSymbolTable
 70
     2
  0
LAYER
  5
10
330
2
100
AcDbSymbolTableRecord
100
AcDbLayerTableRecord
  2
0
 70
     0
 62
     7
  6
Continuous
370
    -3
390
F
  0
LAYER
  5
73
330
2
100
AcDbSymbolTableRecord
100
AcDbLayerTableRecord
  2
TABLE_BL1
 70
     0
 62
   179
  6
Continuous
370
    -3
390
F
  0
ENDTAB
  0
TABLE
  2
STYLE
  5
3
330
0
100
AcDbSymbolTable
 70
     1
  0
STYLE
  5
11
330
3
100
AcDbSymbolTableRecord
100
AcDbTextStyleTableRecord
  2
Standard
 70
     0
 40
0.0
 41
1.0
 50
0.0
 71
     0
 42
5.0
  3
txt
  4

  0
ENDTAB
  0
TABLE
  2
VIEW
  5
6
330
0
100
AcDbSymbolTable
 70
     0
  0
ENDTAB
  0
TABLE
  2
UCS
  5
7
330
0
100
AcDbSymbolTable
 70
     0
  0
ENDTAB
  0
TABLE
  2
APPID
  5
9
330
0
100
AcDbSymbolTable
 70
     1
  0
APPID
  5
12
330
9
100
AcDbSymbolTableRecord
100
AcDbRegAppTableRecord
  2
ACAD
 70
     0
  0
ENDTAB
  0
TABLE
  2
DIMSTYLE
  5
A
330
0
100
AcDbSymbolTable
 70
     1
100
AcDbDimStyleTable
  0
DIMSTYLE
105
27
330
A
100
AcDbSymbolTableRecord
100
AcDbDimStyleTableRecord
  2
ISO-25
 70
     0
 41
2.5
 42
0.625
 43
3.75
 44
1.25
 73
     0
 74
     0
 77
     1
 78
     8
140
2.5
141
2.5
143
0.0393700787
147
0.625
171
     3
172
     1
178
     0
271
     2
272
     2
274
     3
278
    44
283
     0
284
     8
340
11
  0
ENDTAB
  0
TABLE
  2
BLOCK_RECORD
  5
1
330
0
100
AcDbSymbolTable
 70
     1
  0
BLOCK_RECORD
  5
1F
330
1
100
AcDbSymbolTableRecord
100
AcDbBlockTableRecord
  2
*Model_Space
340
22
  0
BLOCK_RECORD
  5
1B
330
1
100
AcDbSymbolTableRecord
100
AcDbBlockTableRecord
  2
*Paper_Space
340
1E
  0
BLOCK_RECORD
  5
23
330
1
100
AcDbSymbolTableRecord
100
AcDbBlockTableRecord
  2
*Paper_Space0
340
26
  0
ENDTAB
  0
ENDSEC
  0
SECTION
  2
BLOCKS
  0
BLOCK
  5
20
330
1F
100
AcDbEntity
  8
0
100
AcDbBlockBegin
  2
*Model_Space
 70
     0
 10
0.0
 20
0.0
 30
0.0
  3
*Model_Space
  1

  0
ENDBLK
  5
21
330
1F
100
AcDbEntity
  8
0
100
AcDbBlockEnd
  0
BLOCK
  5
1C
330
1B
100
AcDbEntity
 67
     1
  8
0
100
AcDbBlockBegin
  2
*Paper_Space
 70
     0
 10
0.0
 20
0.0
 30
0.0
  3
*Paper_Space
  1

  0
ENDBLK
  5
1D
330
1B
100
AcDbEntity
 67
     1
  8
0
100
AcDbBlockEnd
  0
BLOCK
  5
24
330
23
100
AcDbEntity
  8
0
100
AcDbBlockBegin
  2
*Paper_Space0
 70
     0
 10
0.0
 20
0.0
 30
0.0
  3
*Paper_Space0
  1

  0
ENDBLK
  5
25
330
23
100
AcDbEntity
  8
0
100
AcDbBlockEnd
  0
ENDSEC
  0
SECTION
  2
ENTITIES
  0
SPLINE
  5
74
330
1F
100
AcDbEntity
  8
0
  6
Continuous
 62
     7
370
    25
100
AcDbSpline
210
0.0
220
0.0
230
1.0
 70
     8
 71
     3
 72
    18
 73
    14
 74
     0
 42
0.000000001
 43
0.00000001
 40
0.0
 40
0.0
 40
0.0
 40
0.0
 40
0.1181635139670258
 40
0.2417302888342774
 40
0.3519954886980155
 40
0.439343518677062
 40
0.5540331161815143
 40
0.6249960116228777
 40
0.7018579524539389
 40
0.7811806993452355
 40
0.8592624491691468
 40
0.9329153330256956
 40
1.0
 40
1.0
 40
1.0
 40
1.0
 10
729.4074780899962
 20
581.4903354137776
 30
0.0
 10
729.7587001101779
 20
582.5534961703939
 30
0.0
 10
730.4772044736073
 20
584.7284328166235
 30
0.0
 10
729.9415613484108
 20
588.1095971154595
 30
0.0
 10
728.4633294542145
 20
590.785873808205
 30
0.0
 10
726.302610167477
 20
592.8120806620245
 30
0.0
 10
723.9283251828082
 20
593.9173041099241
 30
0.0
 10
721.4765501861519
 20
594.2715336081549
 30
0.0
 10
719.3359356244056
 20
594.083615887146
 30
0.0
 10
717.23830691212
 20
593.3600335995476
 30
0.0
 10
715.4158337905604
 20
592.1593390905094
 30
0.0
 10
713.9780242792745
 20
590.6609057081292
 30
0.0
 10
713.356874126993
 20
589.4924862702736
 30
0.0
 10
713.0607935794714
 20
588.9355415997709
 30
0.0
  0
SPLINE
  5
75
330
1F
100
AcDbEntity
  8
0
  6
Continuous
 62
     7
370
    25
100
AcDbSpline
210
0.0
220
0.0
230
1.0
 70
     8
 71
     3
 72
    18
 73
    14
 74
     0
 42
0.000000001
 43
0.00000001
 40
0.0
 40
0.0
 40
0.0
 40
0.0
 40
0.118163513967026
 40
0.2417302888342774
 40
0.3519954886980154
 40
0.4393435186770618
 40
0.5540331161815139
 40
0.624996011622877
 40
0.7018579524539382
 40
0.7811806993452347
 40
0.8592624491691464
 40
0.9329153330256953
 40
1.0
 40
1.0
 40
1.0
 40
1.0
 10
713.0607935794734
 20
588.93554159977
 30
0.0
 10
712.7095715592917
 20
587.872380843154
 30
0.0
 10
711.9910671958623
 20
585.697444196925
 30
0.0
 10
712.5267103210588
 20
582.3162798980898
 30
0.0
 10
714.0049422152548
 20
579.6400032053448
 30
0.0
 10
716.1656615019917
 20
577.6137963515258
 30
0.0
 10
718.5399464866601
 20
576.5085729036266
 30
0.0
 10
720.9917214833156
 20
576.1543434053958
 30
0.0
 10
723.1323360450616
 20
576.3422611264045
 30
0.0
 10
725.2299647573467
 20
577.0658434140028
 30
0.0
 10
727.0524378789057
 20
578.2665379230407
 30
0.0
 10
728.4902473901913
 20
579.7649713054205
 30
0.0
 10
729.1113975424727
 20
580.9333907432758
 30
0.0
 10
729.4074780899941
 20
581.4903354137784
 30
0.0
  0
LWPOLYLINE
  5
76
330
1F
100
AcDbEntity
  8
0
  6
Continuous
 62
     7
370
    25
100
AcDbPolyline
 90
        3
 70
   128
 43
0.0
 10
730.687454498
 20
602.0965775177
 10
729.6065838899
 20
602.6578407296
 10
729.3840513024
 20
602.7629065372
  0
LWPOLYLINE
  5
77
330
1F
100
AcDbEntity
  8
0
  6
Continuous
 62
     7
370
    25
100
AcDbPolyline
 90
        3
 70
   128
 43
0.0
 10
722.5194208973
 20
604.5202050743
 10
721.9633717544
 20
604.5491924091
 10
720.906115542
 20
604.5601580147
  0
LINE
  5
78
330
1F
100
AcDbEntity
  8
0
  6
Continuous
 62
     7
370
    25
100
AcDbLine
 10
713.9206110603
 20
603.1275932724
 30
0.0
 11
712.4942304762
 21
602.4766737435
 31
0.0
  0
LINE
  5
79
330
1F
100
AcDbEntity
  8
0
  6
Continuous
 62
     7
370
    25
100
AcDbLine
 10
706.8770815234
 20
598.1858908115
 30
0.0
 11
705.93761567
 21
597.063633459
 31
0.0
  0
LWPOLYLINE
  5
7A
330
1F
100
AcDbEntity
  8
0
  6
Continuous
 62
     7
370
    25
100
AcDbPolyline
 90
        3
 70
   128
 43
0.0
 10
702.6886553774
 20
590.7345012029
 10
702.4506847564
 20
589.8609989182
 10
702.2991389177
 20
589.1989630618
  0
LWPOLYLINE
  5
7B
330
1F
100
AcDbEntity
  8
0
  6
Continuous
 62
     7
370
    25
100
AcDbPolyline
 90
        3
 70
   128
 43
0.0
 10
702.1419279636
 20
582.0649075977
 10
702.1539498908
 20
581.9928446655
 10
702.4585967263
 20
580.5330206457
  0
LINE
  5
7C
330
1F
100
AcDbEntity
  8
0
  6
Continuous
 62
     7
370
    25
100
AcDbLine
 10
705.3919385514
 20
574.1022551238
 30
0.0
 11
706.2768666647
 21
572.9368398196
 31
0.0
  0
LWPOLYLINE
  5
7D
330
1F
100
AcDbEntity
  8
0
  6
Continuous
 62
     7
370
    25
100
AcDbPolyline
 90
        3
 70
   128
 43
0.0
 10
711.6977318015
 20
568.376089095
 10
712.8616877795
 20
567.768036284
 10
713.0892757298
 20
567.6606237343
  0
LWPOLYLINE
  5
7E
330
1F
100
AcDbEntity
  8
0
  6
Continuous
 62
     7
370
    25
100
AcDbPolyline
 90
        3
 70
   128
 43
0.0
 10
720.0499295146
 20
565.8992087947
 10
720.5048999151
 20
565.8766846045
 10
721.6251185191
 20
565.8668889736
  0
LINE
  5
7F
330
1F
100
AcDbEntity
  8
0
  6
Continuous
 62
     7
370
    25
100
AcDbLine
 10
728.5414152947
 20
567.2957354077
 30
0.0
 11
729.8839442657
 21
567.9038855544
 31
0.0
  0
LINE
  5
80
330
1F
100
AcDbEntity
  8
0
  6
Continuous
 62
     7
370
    25
100
AcDbLine
 10
735.5262979957
 20
572.1685297135
 30
0.0
 11
736.5338048922
 21
573.3663091662
 31
0.0
  0
LWPOLYLINE
  5
81
330
1F
100
AcDbEntity
  8
0
  6
Continuous
 62
     7
370
    25
100
AcDbPolyline
 90
        3
 70
   128
 43
0.0
 10
739.779616292
 20
579.6913758106
 10
740.0175869131
 20
580.5648780953
 10
740.1811405384
 20
581.2843875325
  0
LWPOLYLINE
  5
82
330
1F
100
AcDbEntity
  8
0
  6
Continuous
 62
     7
370
    25
100
AcDbPolyline
 90
        3
 70
   128
 43
0.0
 10
740.3280732871
 20
588.3504618237
 10
740.3143217786
 20
588.433032348
 10
740.0364909222
 20
589.7839278049
  0
LINE
  5
83
330
1F
100
AcDbEntity
  8
0
  6
Continuous
 62
     7
370
    25
100
AcDbLine
 10
737.1322255109
 20
596.2434980868
 30
0.0
 11
736.1055800066
 21
597.5928677571
 31
0.0
  0
SPLINE
  5
84
330
1F
100
AcDbEntity
  8
0
  6
Continuous
 62
     7
370
    25
100
AcDbSpline
210
0.0
220
0.0
230
1.0
 70
    24
 71
     3
 72
     9
 73
     5
 74
     0
 42
0.000000001
 43
0.00000001
 40
0.0
 40
0.0
 40
0.0
 40
0.0
 40
0.560000000440573
 40
1.0
 40
1.0
 40
1.0
 40
1.0
 10
737.747529112447
 20
597.6239546229452
 30
0.0
 10
737.6761648739121
 20
597.5703192071541
 30
0.0
 10
737.5487287337716
 20
597.474541679031
 30
0.0
 10
737.3488636114414
 20
597.3243285028178
 30
0.0
 10
737.2609229577041
 20
597.2582347053501
 30
0.0
  0
SPLINE
  5
85
330
1F
100
AcDbEntity
  8
0
  6
Continuous
 62
     7
370
    25
100
AcDbSpline
210
0.0
220
0.0
230
1.0
 70
    24
 71
     3
 72
     9
 73
     5
 74
     0
 42
0.000000001
 43
0.00000001
 40
0.0
 40
0.0
 40
0.0
 40
0.0
 40
0.5599999995282069
 40
0.9999999999999999
 40
0.9999999999999999
 40
0.9999999999999999
 40
0.9999999999999999
 10
705.2073487117635
 20
573.1676423081985
 30
0.0
 10
705.0957954596784
 20
573.0838019256583
 30
0.0
 10
704.8965932236442
 20
572.9340869567104
 30
0.0
 10
704.7744747051958
 20
572.842306008055
 30
0.0
 10
704.7207425570208
 20
572.8019223906032
 30
0.0
  0
SPLINE
  5
86
330
1F
100
AcDbEntity
  8
0
  6
Continuous
 62
     7
370
    25
100
AcDbSpline
210
0.0
220
0.0
230
1.0
 70
    24
 71
     3
 72
     9
 73
     5
 74
     0
 42
0.000000001
 43
0.00000001
 40
0.0
 40
0.0
 40
0.0
 40
0.0
 40
0.5599999999792283
 40
1.0
 40
1.0
 40
1.0
 40
1.0
 10
737.7475291124626
 20
597.6239546229572
 30
0.0
 10
737.909810744412
 20
597.7459210725904
 30
0.0
 10
738.1995993729035
 20
597.9637183040862
 30
0.0
 10
738.6560664369993
 20
598.306786502955
 30
0.0
 10
738.8569119452108
 20
598.4577365104643
 30
0.0
  0
SPLINE
  5
87
330
1F
100
AcDbEntity
  8
0
  6
Continuous
 62
     7
370
    25
100
AcDbSpline
210
0.0
220
0.0
230
1.0
 70
    24
 71
     3
 72
     9
 73
     5
 74
     0
 42
0.000000001
 43
0.00000001
 40
0.0
 40
0.0
 40
0.0
 40
0.0
 40
0.5600000000440137
 40
0.9999999999999999
 40
0.9999999999999999
 40
0.9999999999999999
 40
0.9999999999999999
 10
703.611359725124
 20
571.968140503736
 30
0.0
 10
703.8667879117586
 20
572.1601133640398
 30
0.0
 10
704.3229096735702
 20
572.5029220431269
 30
0.0
 10
704.5991825092971
 20
572.7105611733168
 30
0.0
 10
704.7207425570048
 20
572.8019223905914
 30
0.0
  0
SPLINE
  5
88
330
1F
100
AcDbEntity
  8
0
  6
Continuous
 62
     7
370
    25
100
AcDbSpline
210
0.0
220
0.0
230
1.0
 70
    24
 71
     3
 72
    11
 73
     7
 74
     0
 42
0.000000001
 43
0.00000001
 40
0.0
 40
0.0
 40
0.0
 40
0.0
 40
0.2723457484541141
 40
0.561893996550559
 40
0.7876533507594963
 40
1.0
 40
1.0
 40
1.0
 40
1.0
 10
742.8178311224839
 20
601.4346553615604
 30
0.0
 10
742.8133287469482
 20
601.4312714988741
 30
0.0
 10
742.8040396069557
 20
601.4242900345431
 30
0.0
 10
742.735129811368
 20
601.3724993111456
 30
0.0
 10
742.6474070305605
 20
601.3065692610312
 30
0.0
 10
742.5842229763798
 20
601.2590818487512
 30
0.0
 10
742.5535981456651
 20
601.2360650610347
 30
0.0
  0
SPLINE
  5
89
330
1F
100
AcDbEntity
  8
0
  6
Continuous
 62
     7
370
    25
100
AcDbSpline
210
0.0
220
0.0
230
1.0
 70
    24
 71
     3
 72
    11
 73
     7
 74
     0
 42
0.000000001
 43
0.00000001
 40
0.0
 40
0.0
 40
0.0
 40
0.0
 40
0.2723457483393857
 40
0.561893996405732
 40
0.7876533506639878
 40
1.0
 40
1.0
 40
1.0
 40
1.0
 10
699.9146735238023
 20
569.189811952514
 30
0.0
 10
699.8754868077945
 20
569.1603602852681
 30
0.0
 10
699.79463817844
 20
569.0995966599481
 30
0.0
 10
699.7085905795487
 20
569.0349256308848
 30
0.0
 10
699.658797703743
 20
568.9975026631336
 30
0.0
 10
699.6531688227894
 20
568.9932721496917
 30
0.0
 10
699.6504405469836
 20
568.9912216519882
 30
0.0
  0
LINE
  5
8A
330
1F
100
AcDbEntity
  8
0
  6
Continuous
 62
     7
370
    25
100
AcDbLine
 10
742.8178311226
 20
601.4346553617
 30
0.0
 11
741.8928113965
 21
602.5973891462
 31
0.0
  0
LWPOLYLINE
  5
8B
330
1F
100
AcDbEntity
  8
0
  6
Continuous
 62
     7
370
    25
100
AcDbPolyline
 90
        3
 70
   128
 43
0.0
 10
734.6756805595
 20
608.629276295
 10
733.2417372154
 20
609.395938922
 10
732.3040689522
 20
609.8392776739
  0
LWPOLYLINE
  5
8C
330
1F
100
AcDbEntity
  8
0
  6
Continuous
 62
     7
370
    25
100
AcDbPolyline
 90
        3
 70
   128
 43
0.0
 10
723.1844625387
 20
612.1424061166
 10
721.1112095977
 20
612.2126586746
 10
720.5229366824
 20
612.2035701364
  0
LWPOLYLINE
  5
8D
330
1F
100
AcDbEntity
  8
0
  6
Continuous
 62
     7
370
    25
100
AcDbPolyline
 90
        3
 70
   128
 43
0.0
 10
711.3068151598
 20
610.3216681484
 10
709.0068326585
 20
609.2856005332
 10
708.8828303984
 20
609.2222128402
  0
LINE
  5
8E
330
1F
100
AcDbEntity
  8
0
  6
Continuous
 62
     7
370
    25
100
AcDbLine
 10
701.3953927701
 20
603.527530329
 30
0.0
 11
699.6890596955
 21
601.4859128555
 31
0.0
  0
LWPOLYLINE
  5
8F
330
1F
100
AcDbEntity
  8
0
  6
Continuous
 62
     7
370
    25
100
AcDbPolyline
 90
        3
 70
   128
 43
0.0
 10
695.4134950416
 20
593.1056255671
 10
695.3334314351
 20
592.838783483
 10
694.7622556561
 20
590.5270291915
  0
LWPOLYLINE
  5
90
330
1F
100
AcDbEntity
  8
0
  6
Continuous
 62
     7
370
    25
100
AcDbPolyline
 90
        3
 70
   128
 43
0.0
 10
694.5461242899
 20
581.1202572608
 10
694.6659480025
 20
580.4034275848
 10
695.0778600492
 20
578.5159812104
  0
LINE
  5
91
330
1F
100
AcDbEntity
  8
0
  6
Continuous
 62
     7
370
    25
100
AcDbLine
 10
698.9652770926
 20
569.9453935069
 30
0.0
 11
699.6504405535
 21
568.991221643
 31
0.0
  0
LINE
  5
92
330
1F
100
AcDbEntity
  8
0
  6
Continuous
 62
     7
370
    25
100
AcDbLine
 10
699.6504405535
 20
568.991221643
 30
0.0
 11
700.575460273
 21
567.8284878673
 31
0.0
  0
LWPOLYLINE
  5
93
330
1F
100
AcDbEntity
  8
0
  6
Continuous
 62
     7
370
    25
100
AcDbPolyline
 90
        3
 70
   128
 43
0.0
 10
707.79259111
 20
561.7966007185
 10
709.2265344604
 20
561.0299380884
 10
710.1642027172
 20
560.5865993397
  0
LWPOLYLINE
  5
94
330
1F
100
AcDbEntity
  8
0
  6
Continuous
 62
     7
370
    25
100
AcDbPolyline
 90
        3
 70
   128
 43
0.0
 10
719.2838091308
 20
558.283470897
 10
721.3570620748
 20
558.213218339
 10
721.945334987
 20
558.2223068772
  0
LWPOLYLINE
  5
95
330
1F
100
AcDbEntity
  8
0
  6
Continuous
 62
     7
370
    25
100
AcDbPolyline
 90
        3
 70
   128
 43
0.0
 10
731.1614565097
 20
560.1042088651
 10
733.4614390101
 20
561.1402764799
 10
733.585441271
 20
561.2036641733
  0
LINE
  5
96
330
1F
100
AcDbEntity
  8
0
  6
Continuous
 62
     7
370
    25
100
AcDbLine
 10
741.0728788994
 20
566.8983466846
 30
0.0
 11
742.779211974
 21
568.939964158
 31
0.0
  0
LWPOLYLINE
  5
97
330
1F
100
AcDbEntity
  8
0
  6
Continuous
 62
     7
370
    25
100
AcDbPolyline
 90
        3
 70
   128
 43
0.0
 10
747.0547766279
 20
577.3202514465
 10
747.1348402322
 20
577.5870935229
 10
747.7060160134
 20
579.898847822
  0
LWPOLYLINE
  5
98
330
1F
100
AcDbEntity
  8
0
  6
Continuous
 62
     7
370
    25
100
AcDbPolyline
 90
        3
 70
   128
 43
0.0
 10
747.9221473796
 20
589.3056197528
 10
747.8023236691
 20
590.022449417
 10
747.3904116203
 20
591.9098958031
  0
LINE
  5
99
330
1F
100
AcDbEntity
  8
0
  6
Continuous
 62
     7
370
    25
100
AcDbLine
 10
743.5029945768
 20
600.4804835067
 30
0.0
 11
742.8178311255
 21
601.4346553578
 31
0.0
  0
SPLINE
  5
9A
330
1F
100
AcDbEntity
  8
0
  6
Continuous
 62
     7
370
    25
100
AcDbSpline
210
0.0
220
0.0
230
1.0
 70
    24
 71
     3
 72
     9
 73
     5
 74
     0
 42
0.000000001
 43
0.00000001
 40
0.0
 40
0.0
 40
0.0
 40
0.0
 40
0.5599999999871947
 40
1.0
 40
1.0
 40
1.0
 40
1.0
 10
690.7500542637073
 20
562.028158520994
 30
0.0
 10
690.5951930136255
 20
561.9103782295622
 30
0.0
 10
690.3186550670447
 20
561.700056280572
 30
0.0
 10
689.9543924883975
 20
561.4230150410873
 30
0.0
 10
689.7941169537881
 20
561.3011168957105
 30
0.0
  0
SPLINE
  5
9B
330
1F
100
AcDbEntity
  8
0
  6
Continuous
 62
     7
370
    25
100
AcDbSpline
210
0.0
220
0.0
230
1.0
 70
    24
 71
     3
 72
     9
 73
     5
 74
     0
 42
0.000000001
 43
0.00000001
 40
0.0
 40
0.0
 40
0.0
 40
0.0
 40
0.5600000000054086
 40
0.9999999999999999
 40
0.9999999999999999
 40
0.9999999999999999
 40
0.9999999999999999
 10
752.6741547156794
 20
609.124760117838
 30
0.0
 10
752.4692707203694
 20
608.968934844152
 30
0.0
 10
752.1034064430338
 20
608.6906754268585
 30
0.0
 10
751.8359140556371
 20
608.4872331110646
 30
0.0
 10
751.718217405184
 20
608.3977184921163
 30
0.0
  0
ARC
  5
9C
330
1F
100
AcDbEntity
  8
0
  6
Continuous
 62
     7
370
    25
100
AcDbCircle
 10
721.2341358347
 20
585.2129385068
 30
0.0
 40
38.29899805700008
100
AcDbArc
 50
37.2549368278
 51
217.2549368278
  0
ARC
  5
9D
330
1F
100
AcDbEntity
  8
0
  6
Continuous
 62
     7
370
    25
100
AcDbCircle
 10
721.2341358347
 20
585.2129385068
 30
0.0
 40
39.50000000000017
100
AcDbArc
 50
37.2549368278
 51
217.2549368513
  0
ARC
  5
9E
330
1F
100
AcDbEntity
  8
0
  6
Continuous
 62
     7
370
    25
100
AcDbCircle
 10
721.2341358347
 20
585.2129385068
 30
0.0
 40
38.29899805700008
100
AcDbArc
 50
217.2549368278
 51
37.2549368278
  0
ARC
  5
9F
330
1F
100
AcDbEntity
  8
0
  6
Continuous
 62
     7
370
    25
100
AcDbCircle
 10
721.2341358347
 20
585.2129385068
 30
0.0
 40
39.50000000000009
100
AcDbArc
 50
217.2549368513
 51
37.2549368176
  0
SPLINE
  5
A0
330
1F
100
AcDbEntity
  8
0
  6
Continuous
 62
     7
370
    25
100
AcDbSpline
210
0.0
220
0.0
230
1.0
 70
     8
 71
     3
 72
    12
 73
     8
 74
     0
 42
0.000000001
 43
0.00000001
 40
0.0
 40
0.0
 40
0.0
 40
0.0
 40
0.320375533191366
 40
0.5620058561934607
 40
0.762511088390219
 40
0.8964635022549721
 40
1.0
 40
1.0
 40
1.0
 40
1.0
 10
739.2950913457136
 20
616.7120969235644
 30
0.0
 10
739.3358869727819
 20
616.8103598885613
 30
0.0
 10
739.4074510560035
 20
616.9827337312985
 30
0.0
 10
739.3740131542311
 20
617.2576646573036
 30
0.0
 10
739.2716317290003
 20
617.4640531328147
 30
0.0
 10
739.1387691141778
 20
617.6050536462877
 30
0.0
 10
739.0460774032175
 20
617.659550159681
 30
0.0
 10
739.005667200241
 20
617.683308650542
 30
0.0
  0
LINE
  5
A1
330
1F
100
AcDbEntity
  8
0
  6
Continuous
 62
     7
370
    25
100
AcDbLine
 10
737.0933144955
 20
618.658995323
 30
0.0
 11
739.0056672002
 21
617.6833086505
 31
0.0
  0
SPLINE
  5
A2
330
1F
100
AcDbEntity
  8
0
  6
Continuous
 62
     7
370
    25
100
AcDbSpline
210
0.0
220
0.0
230
1.0
 70
     8
 71
     3
 72
    12
 73
     8
 74
     0
 42
0.000000001
 43
0.00000001
 40
0.0
 40
0.0
 40
0.0
 40
0.0
 40
0.1369201212178534
 40
0.2732892266835771
 40
0.4609277195254757
 40
0.7173042691150326
 40
1.0
 40
1.0
 40
1.0
 40
1.0
 10
737.0933144954943
 20
618.6589953230183
 30
0.0
 10
737.035803234757
 20
618.6828298429994
 30
0.0
 10
736.9210121592548
 20
618.7304029642913
 30
0.0
 10
736.7210180890934
 20
618.742475907803
 30
0.0
 10
736.4989352659145
 20
618.6942583711113
 30
0.0
 10
736.2762442285463
 20
618.5571330201824
 30
0.0
 10
736.1849716559603
 20
618.4037456496573
 30
0.0
 10
736.1371072645761
 20
618.3233075407252
 30
0.0
  0
SPLINE
  5
A3
330
1F
100
AcDbEntity
  8
0
  6
Continuous
 62
     7
370
    25
100
AcDbSpline
210
0.0
220
0.0
230
1.0
 70
     8
 71
     3
 72
    11
 73
     7
 74
     0
 42
0.000000001
 43
0.00000001
 40
0.0
 40
0.0
 40
0.0
 40
0.0
 40
0.2603296700639506
 40
0.5282089223352208
 40
0.7614183595322356
 40
1.0
 40
1.0
 40
1.0
 40
1.0
 10
729.3031750752414
 20
603.1742763481874
 30
0.0
 10
729.9597905615652
 20
604.6298202737348
 30
0.0
 10
731.2920634382396
 20
607.5831190204203
 30
0.0
 10
733.1090272018652
 20
611.6108500490981
 30
0.0
 10
734.7580477023142
 20
615.2662950117849
 30
0.0
 10
735.6739443583034
 20
617.2965971315721
 30
0.0
 10
736.1371072645761
 20
618.3233075407252
 30
0.0
  0
SPLINE
  5
A4
330
1F
100
AcDbEntity
  8
0
  6
Continuous
 62
     7
370
    25
100
AcDbSpline
210
0.0
220
0.0
230
1.0
 70
     8
 71
     3
 72
    12
 73
     8
 74
     0
 42
0.000000001
 43
0.00000001
 40
0.0
 40
0.0
 40
0.0
 40
0.0
 40
0.2229001245800256
 40
0.4458326905764342
 40
0.667931358390575
 40
0.8889145851688823
 40
0.9999999999999999
 40
0.9999999999999999
 40
0.9999999999999999
 40
0.9999999999999999
 10
729.3031750752414
 20
603.1742763481874
 30
0.0
 10
729.2778032720394
 20
603.0991169437825
 30
0.0
 10
729.2270559729626
 20
602.9487871960936
 30
0.0
 10
729.2513348254796
 20
602.7069538494908
 30
0.0
 10
729.3491668682626
 20
602.4890581219922
 30
0.0
 10
729.4866891581556
 20
602.3415098674317
 30
0.0
 10
729.5889251094029
 20
602.2826025764231
 30
0.0
 10
729.6231256379439
 20
602.2628965878463
 30
0.0
  0
LINE
  5
A5
330
1F
100
AcDbEntity
  8
0
  6
Continuous
 62
     7
370
    25
100
AcDbLine
 10
730.1149701061
 20
602.0119564284
 30
0.0
 11
729.6231256379
 21
602.2628965878
 31
0.0
  0
SPLINE
  5
A6
330
1F
100
AcDbEntity
  8
0
  6
Continuous
 62
     7
370
    25
100
AcDbSpline
210
0.0
220
0.0
230
1.0
 70
     8
 71
     3
 72
    12
 73
     8
 74
     0
 42
0.000000001
 43
0.00000001
 40
0.0
 40
0.0
 40
0.0
 40
0.0
 40
0.2201335749264704
 40
0.4402546066784583
 40
0.6607438481110336
 40
0.8821597119404231
 40
1.0
 40
1.0
 40
1.0
 40
1.0
 10
730.1149701060825
 20
602.0119564284463
 30
0.0
 10
730.1883365593741
 20
601.9831577492113
 30
0.0
 10
730.335065285549
 20
601.9255620316852
 30
0.0
 10
730.5758054251978
 20
601.9372862689094
 30
0.0
 10
730.7970891904138
 20
602.0224993393484
 30
0.0
 10
730.9530692112276
 20
602.1521616363896
 30
0.0
 10
731.0180722052315
 20
602.2528412690525
 30
0.0
 10
731.0406509307625
 20
602.2878122396559
 30
0.0
  0
SPLINE
  5
A7
330
1F
100
AcDbEntity
  8
0
  6
Continuous
 62
     7
370
    25
100
AcDbSpline
210
0.0
220
0.0
230
1.0
 70
    24
 71
     3
 72
    11
 73
     7
 74
     0
 42
0.000000001
 43
0.00000001
 40
0.0
 40
0.0
 40
0.0
 40
0.0
 40
0.283227050525323
 40
0.5762690817459334
 40
0.7861908663395976
 40
1.0
 40
1.0
 40
1.0
 40
1.0
 10
739.2950913457136
 20
616.7120969235644
 30
0.0
 10
738.6258524887575
 20
615.5426303929871
 30
0.0
 10
737.2641828994597
 20
613.1631705128012
 30
0.0
 10
735.0818008374013
 20
609.3495503797772
 30
0.0
 10
732.9841371308256
 20
605.6839719813536
 30
0.0
 10
731.6924297475892
 20
603.426768090295
 30
0.0
 10
731.0406509307625
 20
602.2878122396559
 30
0.0
  0
SPLINE
  5
A8
330
1F
100
AcDbEntity
  8
0
  6
Continuous
 62
     7
370
    25
100
AcDbSpline
210
0.0
220
0.0
230
1.0
 70
     8
 71
     3
 72
    13
 73
     9
 74
     0
 42
0.000000001
 43
0.00000001
 40
0.0
 40
0.0
 40
0.0
 40
0.0
 40
0.3201770901877472
 40
0.4946667587106033
 40
0.6890181118666826
 40
0.8387695944500841
 40
0.9672348183767592
 40
0.9999999999999999
 40
0.9999999999999999
 40
0.9999999999999999
 40
0.9999999999999999
 10
723.8395218422224
 20
621.4290545157081
 30
0.0
 10
723.8338851974153
 20
621.5354379359775
 30
0.0
 10
723.825176701704
 20
621.6997980457353
 30
0.0
 10
723.7027872933263
 20
621.9115859110155
 30
0.0
 10
723.5612512750528
 20
622.0519363000408
 30
0.0
 10
723.3828274391784
 20
622.1440854439332
 30
0.0
 10
723.2446838497123
 20
622.1747864059497
 30
0.0
 10
723.1721142536591
 20
622.1778807777988
 30
0.0
 10
723.1573666879818
 20
622.1785096148677
 30
0.0
  0
LINE
  5
A9
330
1F
100
AcDbEntity
  8
0
  6
Continuous
 62
     7
370
    25
100
AcDbLine
 10
721.0110619222
 20
622.227834188
 30
0.0
 11
723.157366688
 21
622.1785096149
 31
0.0
  0
SPLINE
  5
AA
330
1F
100
AcDbEntity
  8
0
  6
Continuous
 62
     7
370
    25
100
AcDbSpline
210
0.0
220
0.0
230
1.0
 70
     8
 71
     3
 72
    12
 73
     8
 74
     0
 42
0.000000001
 43
0.00000001
 40
0.0
 40
0.0
 40
0.0
 40
0.0
 40
0.1369201143547613
 40
0.2732892131935765
 40
0.4609276901287039
 40
0.7173042183016236
 40
1.0
 40
1.0
 40
1.0
 40
1.0
 10
721.0110619222362
 20
622.2278341879965
 30
0.0
 10
720.9489046573312
 20
622.2243551510288
 30
0.0
 10
720.8248402705884
 20
622.2174110779828
 30
0.0
 10
720.6394135854503
 20
622.1415142613686
 30
0.0
 10
720.4602446773106
 20
622.0017136517652
 30
0.0
 10
720.3191034200664
 20
621.7815459566305
 30
0.0
 10
720.3034219545312
 20
621.6037470114908
 30
0.0
 10
720.295198411833
 20
621.5105071791695
 30
0.0
  0
SPLINE
  5
AB
330
1F
100
AcDbEntity
  8
0
  6
Continuous
 62
     7
370
    25
100
AcDbSpline
210
0.0
220
0.0
230
1.0
 70
    24
 71
     3
 72
    11
 73
     7
 74
     0
 42
0.000000001
 43
0.00000001
 40
0.0
 40
0.0
 40
0.0
 40
0.0
 40
0.2603296700649106
 40
0.5282089223371725
 40
0.7614183595020925
 40
0.9999999999999999
 40
0.9999999999999999
 40
0.9999999999999999
 40
0.9999999999999999
 10
720.7109565615848
 20
604.8965696447318
 30
0.0
 10
720.6710098321964
 20
606.4928641898841
 30
0.0
 10
720.5899579149262
 20
609.7317459555213
 30
0.0
 10
720.4794187009874
 20
614.1489572520383
 30
0.0
 10
720.3790967057986
 20
618.157882542345
 30
0.0
 10
720.3233760038175
 20
620.3845142104385
 30
0.0
 10
720.295198411833
 20
621.5105071791695
 30
0.0
  0
SPLINE
  5
AC
330
1F
100
AcDbEntity
  8
0
  6
Continuous
 62
     7
370
    25
100
AcDbSpline
210
0.0
220
0.0
230
1.0
 70
     8
 71
     3
 72
    12
 73
     8
 74
     0
 42
0.000000001
 43
0.00000001
 40
0.0
 40
0.0
 40
0.0
 40
0.0
 40
0.2229001236196702
 40
0.4458326887125356
 40
0.6679313556061642
 40
0.8889145814683888
 40
1.0
 40
1.0
 40
1.0
 40
1.0
 10
720.7109565615848
 20
604.8965696447318
 30
0.0
 10
720.7207078000475
 20
604.8178449483756
 30
0.0
 10
720.740211696194
 20
604.6603840978628
 30
0.0
 10
720.8670137432595
 20
604.4530339807166
 30
0.0
 10
721.0496987810515
 20
604.2991644462596
 30
0.0
 10
721.2376208727304
 20
604.2258967474014
 30
0.0
 10
721.3552911991617
 20
604.2171816289482
 30
0.0
 10
721.3946549201303
 20
604.2142661998728
 30
0.0
  0
LINE
  5
AD
330
1F
100
AcDbEntity
  8
0
  6
Continuous
 62
     7
370
    25
100
AcDbLine
 10
721.9466703089
 20
604.2015802459
 30
0.0
 11
721.3946549201
 21
604.2142661999
 31
0.0
  0
SPLINE
  5
AE
330
1F
100
AcDbEntity
  8
0
  6
Continuous
 62
     7
370
    25
100
AcDbSpline
210
0.0
220
0.0
230
1.0
 70
     8
 71
     3
 72
    12
 73
     8
 74
     0
 42
0.000000001
 43
0.00000001
 40
0.0
 40
0.0
 40
0.0
 40
0.0
 40
0.2201335711101334
 40
0.440254599040839
 40
0.6607438366208983
 40
0.8821596965545252
 40
1.0
 40
1.0
 40
1.0
 40
1.0
 10
721.9466703088902
 20
604.2015802458941
 30
0.0
 10
722.0252664780119
 20
604.2074660416769
 30
0.0
 10
722.1824543378566
 20
604.2192372978707
 30
0.0
 10
722.3942667558601
 20
604.3342536974427
 30
0.0
 10
722.5566639775953
 20
604.5070394446117
 30
0.0
 10
722.640938765822
 20
604.6915383358681
 30
0.0
 10
722.6558211849796
 20
604.8104512988263
 30
0.0
 10
722.6609905790212
 20
604.8517556026273
 30
0.0
  0
SPLINE
  5
AF
330
1F
100
AcDbEntity
  8
0
  6
Continuous
 62
     7
370
    25
100
AcDbSpline
210
0.0
220
0.0
230
1.0
 70
     8
 71
     3
 72
    11
 73
     7
 74
     0
 42
0.000000001
 43
0.00000001
 40
0.0
 40
0.0
 40
0.0
 40
0.0
 40
0.2832270505409914
 40
0.5762690817789581
 40
0.78619086635677
 40
1.0
 40
1.0
 40
1.0
 40
1.0
 10
723.8395218422224
 20
621.4290545157081
 30
0.0
 10
723.7439709778829
 20
620.0850297219768
 30
0.0
 10
723.5495580192655
 20
617.350404154637
 30
0.0
 10
723.237967486291
 20
612.9675510515008
 30
0.0
 10
722.9384726524943
 20
608.7548368594266
 30
0.0
 10
722.7540485783694
 20
606.1607155959881
 30
0.0
 10
722.6609905790212
 20
604.8517556026273
 30
0.0
  0
SPLINE
  5
B0
330
1F
100
AcDbEntity
  8
0
  6
Continuous
 62
     7
370
    25
100
AcDbSpline
210
0.0
220
0.0
230
1.0
 70
     8
 71
     3
 72
    13
 73
     9
 74
     0
 42
0.000000001
 43
0.00000001
 40
0.0
 40
0.0
 40
0.0
 40
0.0
 40
0.1923255843130471
 40
0.4540879704407532
 40
0.6566903155945611
 40
0.8131117782652125
 40
0.9441977497085242
 40
1.0
 40
1.0
 40
1.0
 40
1.0
 10
707.8679236853293
 20
618.9729661712947
 30
0.0
 10
707.8398909032068
 20
619.0299006622113
 30
0.0
 10
707.7737044455637
 20
619.1643251461961
 30
0.0
 10
707.6024885098751
 20
619.3161632050667
 30
0.0
 10
707.3861071677396
 20
619.4055534045
 30
0.0
 10
707.1819475588502
 20
619.4219552357818
 30
0.0
 10
707.0293264056926
 20
619.39417599094
 30
0.0
 10
706.9514111693035
 20
619.3618715242393
 30
0.0
 10
706.9281467523052
 20
619.3522258551883
 30
0.0
  0
LINE
  5
B1
330
1F
100
AcDbEntity
  8
0
  6
Continuous
 62
     7
370
    25
100
AcDbLine
 10
704.9729918061
 20
618.4654190041
 30
0.0
 11
706.9281467523
 21
619.3522258552
 31
0.0
  0
SPLINE
  5
B2
330
1F
100
AcDbEntity
  8
0
  6
Continuous
 62
     7
370
    25
100
AcDbSpline
210
0.0
220
0.0
230
1.0
 70
     8
 71
     3
 72
    12
 73
     8
 74
     0
 42
0.000000001
 43
0.00000001
 40
0.0
 40
0.0
 40
0.0
 40
0.0
 40
0.1369201225725725
 40
0.2732892293761473
 40
0.4609277253892932
 40
0.7173042792486659
 40
1.0
 40
1.0
 40
1.0
 40
1.0
 10
704.9729918060598
 20
618.4654190041341
 30
0.0
 10
704.918499543453
 20
618.4353154693863
 30
0.0
 10
704.8097343146834
 20
618.3752295473308
 30
0.0
 10
704.6756010453073
 20
618.2263952419796
 30
0.0
 10
704.5748326599977
 20
618.022700754266
 30
0.0
 10
704.5431959899224
 20
617.7630976352925
 30
0.0
 10
704.606211546493
 20
617.5961024063135
 30
0.0
 10
704.6392576314472
 20
617.5085281814058
 30
0.0
  0
SPLINE
  5
B3
330
1F
100
AcDbEntity
  8
0
  6
Continuous
 62
     7
370
    25
100
AcDbSpline
210
0.0
220
0.0
230
1.0
 70
    24
 71
     3
 72
    11
 73
     7
 74
     0
 42
0.000000001
 43
0.00000001
 40
0.0
 40
0.0
 40
0.0
 40
0.0
 40
0.260329670061361
 40
0.5282089223299576
 40
0.7614183594635631
 40
1.0
 40
1.0
 40
1.0
 40
1.0
 10
712.2223601206116
 20
602.7202783903255
 30
0.0
 10
711.4937631150277
 20
604.1411578431736
 30
0.0
 10
710.0154397297542
 20
607.0241223718525
 30
0.0
 10
707.9992911853678
 20
610.9559310652504
 30
0.0
 10
706.1694966959097
 20
614.5243198631727
 30
0.0
 10
705.1531948042234
 20
616.5062693699131
 30
0.0
 10
704.6392576314472
 20
617.5085281814058
 30
0.0
  0
SPLINE
  5
B4
330
1F
100
AcDbEntity
  8
0
  6
Continuous
 62
     7
370
    25
100
AcDbSpline
210
0.0
220
0.0
230
1.0
 70
     8
 71
     3
 72
    12
 73
     8
 74
     0
 42
0.000000001
 43
0.00000001
 40
0.0
 40
0.0
 40
0.0
 40
0.0
 40
0.2229001220214053
 40
0.4458326855483558
 40
0.6679313506030045
 40
0.8889145746355003
 40
1.0
 40
1.0
 40
1.0
 40
1.0
 10
712.2223601206116
 20
602.7202783903255
 30
0.0
 10
712.2653030485629
 20
602.65358079351
 30
0.0
 10
712.3511951544992
 20
602.5201758925244
 30
0.0
 10
712.5554056957545
 20
602.3883772386023
 30
0.0
 10
712.7867607165042
 20
602.3290096459475
 30
0.0
 10
712.9878623367437
 20
602.3445340702273
 30
0.0
 10
713.0976609878026
 20
602.3877372633871
 30
0.0
 10
713.1343914345928
 20
602.4021898324506
 30
0.0
  0
LINE
  5
B5
330
1F
100
AcDbEntity
  8
0
  6
Continuous
 62
     7
370
    25
100
AcDbLine
 10
713.6372443526
 20
602.6302706875
 30
0.0
 11
713.1343914346
 21
602.4021898325
 31
0.0
  0
SPLINE
  5
B6
330
1F
100
AcDbEntity
  8
0
  6
Continuous
 62
     7
370
    25
100
AcDbSpline
210
0.0
220
0.0
230
1.0
 70
     8
 71
     3
 72
    12
 73
     8
 74
     0
 42
0.000000001
 43
0.00000001
 40
0.0
 40
0.0
 40
0.0
 40
0.0
 40
0.2201335757473653
 40
0.4402546082627167
 40
0.6607438504652388
 40
0.8821597150738474
 40
1.0
 40
1.0
 40
1.0
 40
1.0
 10
713.6372443526211
 20
602.6302706874598
 30
0.0
 10
713.7055033018632
 20
602.6696752080695
 30
0.0
 10
713.842017310946
 20
602.7484820040157
 30
0.0
 10
713.9829499542385
 20
602.9440101672566
 30
0.0
 10
714.0542958628364
 20
603.1701462622641
 30
0.0
 10
714.0501737481502
 20
603.3729394717357
 30
0.0
 10
714.0119879458114
 20
603.48653358188
 30
0.0
 10
713.9987241454825
 20
603.5259903826594
 30
0.0
  0
SPLINE
  5
B7
330
1F
100
AcDbEntity
  8
0
  6
Continuous
 62
     7
370
    25
100
AcDbSpline
210
0.0
220
0.0
230
1.0
 70
     8
 71
     3
 72
    11
 73
     7
 74
     0
 42
0.000000001
 43
0.00000001
 40
0.0
 40
0.0
 40
0.0
 40
0.0
 40
0.2832270505044782
 40
0.5762690817061524
 40
0.7861908663338447
 40
1.0
 40
1.0
 40
1.0
 40
1.0
 10
707.8679236853293
 20
618.9729661712947
 30
0.0
 10
708.3649858343803
 20
617.7205837081974
 30
0.0
 10
709.3763353777038
 20
615.1724185853093
 30
0.0
 10
710.9972507005435
 20
611.0884103206595
 30
0.0
 10
712.5552433653936
 20
607.1629400450488
 30
0.0
 10
713.514630049581
 20
604.7456989391842
 30
0.0
 10
713.9987241454825
 20
603.5259903826594
 30
0.0
  0
SPLINE
  5
B8
330
1F
100
AcDbEntity
  8
0
  6
Continuous
 62
     7
370
    25
100
AcDbSpline
210
0.0
220
0.0
230
1.0
 70
     8
 71
     3
 72
    12
 73
     8
 74
     0
 42
0.000000001
 43
0.00000001
 40
0.0
 40
0.0
 40
0.0
 40
0.0
 40
0.3203291957399095
 40
0.5619245719158537
 40
0.738929015773479
 40
0.880131558562377
 40
1.0
 40
1.0
 40
1.0
 40
1.0
 10
694.5436677706327
 20
609.8302903068434
 30
0.0
 10
694.4569869730522
 20
609.89194310623
 30
0.0
 10
694.3049306799589
 20
610.000095042936
 30
0.0
 10
694.0375337863111
 20
610.0276515848864
 30
0.0
 10
693.8216495920325
 20
609.9795261264067
 30
0.0
 10
693.652127471016
 20
609.8888621904522
 30
0.0
 10
693.5700764339066
 20
609.8034526219577
 30
0.0
 10
693.5324034233812
 20
609.7642375713475
 30
0.0
  0
LINE
  5
B9
330
1F
100
AcDbEntity
  8
0
  6
Continuous
 62
     7
370
    25
100
AcDbLine
 10
692.1556407572
 20
608.1169422683
 30
0.0
 11
693.5324034234
 21
609.7642375713
 31
0.0
  0
SPLINE
  5
BA
330
1F
100
AcDbEntity
  8
0
  6
Continuous
 62
     7
370
    25
100
AcDbSpline
210
0.0
220
0.0
230
1.0
 70
     8
 71
     3
 72
    12
 73
     8
 74
     0
 42
0.000000001
 43
0.00000001
 40
0.0
 40
0.0
 40
0.0
 40
0.0
 40
0.1369201157522483
 40
0.2732892159078247
 40
0.4609276959964263
 40
0.7173042284140346
 40
1.0
 40
1.0
 40
1.0
 40
1.0
 10
692.1556407571713
 20
608.1169422683088
 30
0.0
 10
692.1196063574529
 20
608.0661766170184
 30
0.0
 10
692.0476825733494
 20
607.964849613605
 30
0.0
 10
691.9914094486635
 20
607.7725563008893
 30
0.0
 10
691.9889999823357
 20
607.5453121520479
 30
0.0
 10
692.0731338859728
 20
607.2976911653905
 30
0.0
 10
692.202365463286
 20
607.1745750753748
 30
0.0
 10
692.2701360020255
 20
607.1100115691381
 30
0.0
  0
SPLINE
  5
BB
330
1F
100
AcDbEntity
  8
0
  6
Continuous
 62
     7
370
    25
100
AcDbSpline
210
0.0
220
0.0
230
1.0
 70
     8
 71
     3
 72
    11
 73
     7
 74
     0
 42
0.000000001
 43
0.00000001
 40
0.0
 40
0.0
 40
0.0
 40
0.0
 40
0.2603296700661923
 40
0.5282089223397666
 40
0.761418359465504
 40
1.0
 40
1.0
 40
1.0
 40
1.0
 10
705.5186563807941
 20
597.0764437586354
 30
0.0
 10
704.2457166716674
 20
598.040485517584
 30
0.0
 10
701.6629218953733
 20
599.9965263271291
 30
0.0
 10
698.140486966593
 20
602.6641894854582
 30
0.0
 10
694.9436332227942
 20
605.0852786260461
 30
0.0
 10
693.1680411953955
 20
606.4299965645716
 30
0.0
 10
692.2701360020255
 20
607.1100115691381
 30
0.0
  0
SPLINE
  5
BC
330
1F
100
AcDbEntity
  8
0
  6
Continuous
 62
     7
370
    25
100
AcDbSpline
210
0.0
220
0.0
230
1.0
 70
     8
 71
     3
 72
    12
 73
     8
 74
     0
 42
0.000000001
 43
0.00000001
 40
0.0
 40
0.0
 40
0.0
 40
0.0
 40
0.2229001272209166
 40
0.4458326959109152
 40
0.6679313662889496
 40
0.8889145956180229
 40
1.0
 40
1.0
 40
1.0
 40
1.0
 10
705.5186563807941
 20
597.0764437586354
 30
0.0
 10
705.5862856246473
 20
597.0349835385479
 30
0.0
 10
705.7215539552913
 20
596.9520570641439
 30
0.0
 10
705.9627265880202
 20
596.9219142132047
 30
0.0
 10
706.196928892385
 20
596.9688070416056
 30
0.0
 10
706.3713793883411
 20
597.0700487835303
 30
0.0
 10
706.4515593886068
 20
597.1566133560461
 30
0.0
 10
706.478381638132
 20
597.185571407385
 30
0.0
  0
LINE
  5
BD
330
1F
100
AcDbEntity
  8
0
  6
Continuous
 62
     7
370
    25
100
AcDbLine
 10
706.8324758875
 20
597.6092448619
 30
0.0
 11
706.4783816381
 21
597.1855714074
 31
0.0
  0
SPLINE
  5
BE
330
1F
100
AcDbEntity
  8
0
  6
Continuous
 62
     7
370
    25
100
AcDbSpline
210
0.0
220
0.0
230
1.0
 70
     8
 71
     3
 72
    12
 73
     8
 74
     0
 42
0.000000001
 43
0.00000001
 40
0.0
 40
0.0
 40
0.0
 40
0.0
 40
0.2201364054726352
 40
0.4402602676309875
 40
0.6607523441707808
 40
0.8834152975165475
 40
1.0
 40
1.0
 40
1.0
 40
1.0
 10
706.8324758875452
 20
597.6092448619117
 30
0.0
 10
706.8768782484638
 20
597.6743635490462
 30
0.0
 10
706.965680440266
 20
597.8045972128693
 30
0.0
 10
707.0078176181264
 20
598.041910464602
 30
0.0
 10
706.9739263484934
 20
598.2770486549147
 30
0.0
 10
706.8820208146876
 20
598.4579180446675
 30
0.0
 10
706.7982932614337
 20
598.5436412859517
 30
0.0
 10
706.7695197335462
 20
598.5731006452407
 30
0.0
  0
SPLINE
  5
BF
330
1F
100
AcDbEntity
  8
0
  6
Continuous
 62
     7
370
    25
100
AcDbSpline
210
0.0
220
0.0
230
1.0
 70
    24
 71
     3
 72
    11
 73
     7
 74
     0
 42
0.000000001
 43
0.00000001
 40
0.0
 40
0.0
 40
0.0
 40
0.0
 40
0.2832270505599122
 40
0.5762690817539508
 40
0.7861908663431416
 40
1.0
 40
1.0
 40
1.0
 40
1.0
 10
694.5436677706327
 20
609.8302903068434
 30
0.0
 10
695.5348936785833
 20
608.9175998802878
 30
0.0
 10
697.5516955435755
 20
607.0605905550941
 30
0.0
 10
700.784074563151
 20
604.0843150535961
 30
0.0
 10
703.8909751711257
 20
601.2235762265328
 30
0.0
 10
705.8041543149395
 20
599.4619795260628
 30
0.0
 10
706.7695197335462
 20
598.5731006452407
 30
0.0
  0
SPLINE
  5
C0
330
1F
100
AcDbEntity
  8
0
  6
Continuous
 62
     7
370
    25
100
AcDbSpline
210
0.0
220
0.0
230
1.0
 70
     8
 71
     3
 72
    12
 73
     8
 74
     0
 42
0.000000001
 43
0.00000001
 40
0.0
 40
0.0
 40
0.0
 40
0.0
 40
0.3203291896136383
 40
0.5619245569549512
 40
0.7389289952628371
 40
0.8801315335581633
 40
0.9999999999999999
 40
0.9999999999999999
 40
0.9999999999999999
 40
0.9999999999999999
 10
686.5057863932585
 20
595.8118460064744
 30
0.0
 10
686.4009395448667
 20
595.8297838709275
 30
0.0
 10
686.2170161912011
 20
595.8612506459275
 30
0.0
 10
685.9641435786516
 20
595.7700590670762
 30
0.0
 10
685.7905194954208
 20
595.6330308857363
 30
0.0
 10
685.6771229419767
 20
595.477792599933
 30
0.0
 10
685.6402553356032
 20
595.3652406123664
 30
0.0
 10
685.6233278968713
 20
595.3135633525412
 30
0.0
  0
LINE
  5
C1
330
1F
100
AcDbEntity
  8
0
  6
Continuous
 62
     7
370
    25
100
AcDbLine
 10
685.0976422528
 20
593.2320466782
 30
0.0
 11
685.6233278969
 21
595.3135633525
 31
0.0
  0
SPLINE
  5
C2
330
1F
100
AcDbEntity
  8
0
  6
Continuous
 62
     7
370
    25
100
AcDbSpline
210
0.0
220
0.0
230
1.0
 70
     8
 71
     3
 72
    12
 73
     8
 74
     0
 42
0.000000001
 43
0.00000001
 40
0.0
 40
0.0
 40
0.0
 40
0.0
 40
0.1369201147334915
 40
0.2732892139410205
 40
0.4609276917773926
 40
0.7173042211628835
 40
1.0
 40
1.0
 40
1.0
 40
1.0
 10
685.0976422527895
 20
593.2320466781941
 30
0.0
 10
685.0872027705668
 20
593.1706736670274
 30
0.0
 10
685.0663658183327
 20
593.0481746316474
 30
0.0
 10
685.0990984248322
 20
592.8505083499863
 30
0.0
 10
685.1955251094236
 20
592.6447230182347
 30
0.0
 10
685.3787658565623
 20
592.4581285472321
 30
0.0
 10
685.5486175559124
 20
592.4032762620702
 30
0.0
 10
685.6376897595894
 20
592.3745110867155
 30
0.0
  0
SPLINE
  5
C3
330
1F
100
AcDbEntity
  8
0
  6
Continuous
 62
     7
370
    25
100
AcDbSpline
210
0.0
220
0.0
230
1.0
 70
     8
 71
     3
 72
    11
 73
     7
 74
     0
 42
0.000000001
 43
0.00000001
 40
0.0
 40
0.0
 40
0.0
 40
0.0
 40
0.2603296700654321
 40
0.528208922338224
 40
0.7614183595481295
 40
1.0
 40
1.0
 40
1.0
 40
1.0
 10
701.9275960850634
 20
589.0828964152712
 30
0.0
 10
700.362434993425
 20
589.3991601869832
 30
0.0
 10
697.1867230075718
 20
590.0408594062407
 30
0.0
 10
692.855663131121
 20
590.9160136240051
 30
0.0
 10
688.9249262236848
 20
591.710276710349
 30
0.0
 10
686.7417218376227
 20
592.1514252007896
 30
0.0
 10
685.6376897595894
 20
592.3745110867155
 30
0.0
  0
SPLINE
  5
C4
330
1F
100
AcDbEntity
  8
0
  6
Continuous
 62
     7
370
    25
100
AcDbSpline
210
0.0
220
0.0
230
1.0
 70
     8
 71
     3
 72
    12
 73
     8
 74
     0
 42
0.000000001
 43
0.00000001
 40
0.0
 40
0.0
 40
0.0
 40
0.0
 40
0.2229001214508881
 40
0.4458326844630973
 40
0.6679313492014551
 40
0.8889145729193919
 40
1.0
 40
1.0
 40
1.0
 40
1.0
 10
701.9275960850634
 20
589.0828964152712
 30
0.0
 10
702.0065168436001
 20
589.0748852766646
 30
0.0
 10
702.1643698470409
 20
589.0588618334859
 30
0.0
 10
702.3947373738122
 20
589.1363449470183
 30
0.0
 10
702.5854003229272
 20
589.2802104970353
 30
0.0
 10
702.6986476490612
 20
589.4471173956515
 30
0.0
 10
702.7333283719432
 20
589.5598981887503
 30
0.0
 10
702.7449299576501
 20
589.5976262384703
 30
0.0
  0
LINE
  5
C5
330
1F
100
AcDbEntity
  8
0
  6
Continuous
 62
     7
370
    25
100
AcDbLine
 10
702.8801328264
 20
590.132978552
 30
0.0
 11
702.7449299577
 21
589.5976262385
 31
0.0
  0
SPLINE
  5
C6
330
1F
100
AcDbEntity
  8
0
  6
Continuous
 62
     7
370
    25
100
AcDbSpline
210
0.0
220
0.0
230
1.0
 70
     8
 71
     3
 72
    12
 73
     8
 74
     0
 42
0.000000001
 43
0.00000001
 40
0.0
 40
0.0
 40
0.0
 40
0.0
 40
0.2200858061118185
 40
0.4401590717532111
 40
0.588534462898872
 40
0.811024297058487
 40
1.0
 40
1.0
 40
1.0
 40
1.0
 10
702.8801328263705
 20
590.1329785519694
 30
0.0
 10
702.8919099987969
 20
590.2108916503988
 30
0.0
 10
702.9154636725876
 20
590.3667134077764
 30
0.0
 10
702.8572055817609
 20
590.5737861264406
 30
0.0
 10
702.7499427712312
 20
590.7537936925131
 30
0.0
 10
702.603164766178
 20
590.8952601274237
 30
0.0
 10
702.4675118756418
 20
590.949264229112
 30
0.0
 10
702.4052099377304
 20
590.9740669456412
 30
0.0
  0
SPLINE
  5
C7
330
1F
100
AcDbEntity
  8
0
  6
Continuous
 62
     7
370
    25
100
AcDbSpline
210
0.0
220
0.0
230
1.0
 70
    24
 71
     3
 72
    11
 73
     7
 74
     0
 42
0.000000001
 43
0.00000001
 40
0.0
 40
0.0
 40
0.0
 40
0.0
 40
0.2832270505644773
 40
0.5762690817601844
 40
0.7861908663719643
 40
1.0
 40
1.0
 40
1.0
 40
1.0
 10
686.5057863932585
 20
595.8118460064744
 30
0.0
 10
687.7948516123223
 20
595.4196171494231
 30
0.0
 10
690.4176534550079
 20
594.6215670943794
 30
0.0
 10
694.6212838643199
 20
593.3425122206605
 30
0.0
 10
698.6617326466957
 20
592.1131092513726
 30
0.0
 10
701.1497756571588
 20
591.356062787064
 30
0.0
 10
702.4052099377304
 20
590.9740669456412
 30
0.0
  0
SPLINE
  5
C8
330
1F
100
AcDbEntity
  8
0
  6
Continuous
 62
     7
370
    25
100
AcDbSpline
210
0.0
220
0.0
230
1.0
 70
     8
 71
     3
 72
    12
 73
     8
 74
     0
 42
0.000000001
 43
0.00000001
 40
0.0
 40
0.0
 40
0.0
 40
0.0
 40
0.3203292008043397
 40
0.5619245726364718
 40
0.7389290150957548
 40
0.8801315566606928
 40
1.0
 40
1.0
 40
1.0
 40
1.0
 10
685.3462805380645
 20
579.694158088357
 30
0.0
 10
685.2440338429943
 20
579.6648282027813
 30
0.0
 10
685.064671704649
 20
579.6133774347082
 30
0.0
 10
684.8764078967139
 20
579.4214993452604
 30
0.0
 10
684.7794323033036
 20
579.2227085536186
 30
0.0
 10
684.7446209098872
 20
579.0336427818484
 30
0.0
 10
684.7602388155734
 20
578.916240702058
 30
0.0
 10
684.7674096394147
 20
578.8623365711396
 30
0.0
  0
LINE
  5
C9
330
1F
100
AcDbEntity
  8
0
  6
Continuous
 62
     7
370
    25
100
AcDbLine
 10
685.1969194909
 20
576.758868331
 30
0.0
 11
684.7674096394
 21
578.8623365711
 31
0.0
  0
SPLINE
  5
CA
330
1F
100
AcDbEntity
  8
0
  6
Continuous
 62
     7
370
    25
100
AcDbSpline
210
0.0
220
0.0
230
1.0
 70
     8
 71
     3
 72
    12
 73
     8
 74
     0
 42
0.000000001
 43
0.00000001
 40
0.0
 40
0.0
 40
0.0
 40
0.0
 40
0.1369201213241911
 40
0.2732892270164534
 40
0.4609277204781417
 40
0.7173042709071552
 40
0.9999999999999999
 40
0.9999999999999999
 40
0.9999999999999999
 40
0.9999999999999999
 10
685.1969194909196
 20
576.7588683309581
 30
0.0
 10
685.2141425972757
 20
576.6990436364979
 30
0.0
 10
685.248519498036
 20
576.5796350035852
 30
0.0
 10
685.3637747546067
 20
576.4157459863567
 30
0.0
 10
685.5399391187677
 20
576.2721777861428
 30
0.0
 10
685.7859936257909
 20
576.1835671811492
 30
0.0
 10
685.962824218774
 20
576.2078428719004
 30
0.0
 10
686.0555562239397
 20
576.2205733244888
 30
0.0
  0
SPLINE
  5
CB
330
1F
100
AcDbEntity
  8
0
  6
Continuous
 62
     7
370
    25
100
AcDbSpline
210
0.0
220
0.0
230
1.0
 70
    24
 71
     3
 72
    11
 73
     7
 74
     0
 42
0.000000001
 43
0.00000001
 40
0.0
 40
0.0
 40
0.0
 40
0.0
 40
0.2603296700663265
 40
0.5282089223400361
 40
0.7614183594802437
 40
1.0
 40
1.0
 40
1.0
 40
1.0
 10
702.160432765554
 20
580.3228564465803
 30
0.0
 10
700.6130496409667
 20
579.9287023119969
 30
0.0
 10
697.4734091517471
 20
579.1289635399579
 30
0.0
 10
693.1915438540486
 20
578.038273791725
 30
0.0
 10
689.3054544347616
 20
577.0483972786484
 30
0.0
 10
687.1470480940765
 20
576.4986014525269
 30
0.0
 10
686.0555562239397
 20
576.2205733244888
 30
0.0
  0
SPLINE
  5
CC
330
1F
100
AcDbEntity
  8
0
  6
Continuous
 62
     7
370
    25
100
AcDbSpline
210
0.0
220
0.0
230
1.0
 70
     8
 71
     3
 72
    12
 73
     8
 74
     0
 42
0.000000001
 43
0.00000001
 40
0.0
 40
0.0
 40
0.0
 40
0.0
 40
0.2229001266620319
 40
0.4458326948083283
 40
0.6679313644652003
 40
0.8889145930765703
 40
1.0
 40
1.0
 40
1.0
 40
1.0
 10
702.160432765554
 20
580.3228564465803
 30
0.0
 10
702.2350138147973
 20
580.34988109416
 30
0.0
 10
702.3841867680103
 20
580.4039343225592
 30
0.0
 10
702.5581220749352
 20
580.5736969195077
 30
0.0
 10
702.6674825335949
 20
580.7860408546895
 30
0.0
 10
702.6970966579894
 20
580.9855549392688
 30
0.0
 10
702.6794091614227
 20
581.1022143168298
 30
0.0
 10
702.6734922438241
 20
581.1412398466181
 30
0.0
  0
LINE
  5
CD
330
1F
100
AcDbEntity
  8
0
  6
Continuous
 62
     7
370
    25
100
AcDbLine
 10
702.5630251505
 20
581.6822379667
 30
0.0
 11
702.6734922438
 21
581.1412398466
 31
0.0
  0
SPLINE
  5
CE
330
1F
100
AcDbEntity
  8
0
  6
Continuous
 62
     7
370
    25
100
AcDbSpline
210
0.0
220
0.0
230
1.0
 70
     8
 71
     3
 72
    13
 73
     9
 74
     0
 42
0.000000001
 43
0.00000001
 40
0.0
 40
0.0
 40
0.0
 40
0.0
 40
0.2200615389988426
 40
0.2941794150062046
 40
0.5152195009116779
 40
0.7362296893604158
 40
0.958013028133417
 40
1.0
 40
1.0
 40
1.0
 40
1.0
 10
702.563025150549
 20
581.6822379667088
 30
0.0
 10
702.5401965854792
 20
581.7577577790177
 30
0.0
 10
702.5096792404302
 20
581.8587130586519
 30
0.0
 10
702.4058878733414
 20
582.0099153055265
 30
0.0
 10
702.2701916572424
 20
582.137815831036
 30
0.0
 10
702.0513868696876
 20
582.2336485847887
 30
0.0
 10
701.8770361228337
 20
582.2483093038311
 30
0.0
 10
701.7848707291305
 20
582.2359400416793
 30
0.0
 10
701.7701998369323
 20
582.233971101882
 30
0.0
  0
SPLINE
  5
CF
330
1F
100
AcDbEntity
  8
0
  6
Continuous
 62
     7
370
    25
100
AcDbSpline
210
0.0
220
0.0
230
1.0
 70
     8
 71
     3
 72
    11
 73
     7
 74
     0
 42
0.000000001
 43
0.00000001
 40
0.0
 40
0.0
 40
0.0
 40
0.0
 40
0.2832270505631154
 40
0.5762690817613774
 40
0.7861908663724586
 40
1.0
 40
1.0
 40
1.0
 40
1.0
 10
685.3462805380645
 20
579.694158088357
 30
0.0
 10
686.6778698921792
 20
579.9000765362591
 30
0.0
 10
689.3871936409282
 20
580.319049352077
 30
0.0
 10
693.7294948829974
 20
580.9905476104411
 30
0.0
 10
697.90323140539
 20
581.6359788346068
 30
0.0
 10
700.4733508504365
 20
582.0334249429266
 30
0.0
 10
701.7701998369323
 20
582.233971101882
 30
0.0
  0
ARC
  5
D0
330
1F
100
AcDbEntity
  8
0
  6
Continuous
 62
     7
370
    25
100
AcDbCircle
 10
721.2341358347
 20
585.2129385068
 30
0.0
 40
16.42261912900005
100
AcDbArc
 50
307.2549368278
 51
127.2549368278
  0
ARC
  5
D1
330
1F
100
AcDbEntity
  8
0
  6
Continuous
 62
     7
370
    25
100
AcDbCircle
 10
721.2341358347
 20
585.2129385068
 30
0.0
 40
16.42261912900005
100
AcDbArc
 50
127.2549368278
 51
307.2549368278
  0
SPLINE
  5
D2
330
1F
100
AcDbEntity
  8
0
  6
Continuous
 62
     7
370
    25
100
AcDbSpline
210
0.0
220
0.0
230
1.0
 70
     8
 71
     3
 72
    12
 73
     8
 74
     0
 42
0.000000001
 43
0.00000001
 40
0.0
 40
0.0
 40
0.0
 40
0.0
 40
0.3203291947014397
 40
0.5619245601170223
 40
0.7389289982560251
 40
0.8801315363484
 40
1.0
 40
1.0
 40
1.0
 40
1.0
 10
718.6287498271844
 20
548.9968224969875
 30
0.0
 10
718.6345923212127
 20
548.8906128259376
 30
0.0
 10
718.644841280537
 20
548.7042987975191
 30
0.0
 10
718.790015947889
 20
548.4780582644909
 30
0.0
 10
718.9622435396475
 20
548.3392789395704
 30
0.0
 10
719.1388227834684
 20
548.2632692440418
 30
0.0
 10
719.2567566703825
 20
548.2523711589773
 30
0.0
 10
719.3109049815407
 20
548.2473673986797
 30
0.0
  0
LINE
  5
D3
330
1F
100
AcDbEntity
  8
0
  6
Continuous
 62
     7
370
    25
100
AcDbLine
 10
721.4572097473
 20
548.1980428255
 30
0.0
 11
719.3109049815
 21
548.2473673987
 31
0.0
  0
SPLINE
  5
D4
330
1F
100
AcDbEntity
  8
0
  6
Continuous
 62
     7
370
    25
100
AcDbSpline
210
0.0
220
0.0
230
1.0
 70
     8
 71
     3
 72
    12
 73
     8
 74
     0
 42
0.000000001
 43
0.00000001
 40
0.0
 40
0.0
 40
0.0
 40
0.0
 40
0.1369201143734574
 40
0.2732892132302901
 40
0.4609276902131089
 40
0.7173042184500338
 40
1.0
 40
1.0
 40
1.0
 40
1.0
 10
721.4572097473459
 20
548.1980428255495
 30
0.0
 10
721.5193670122552
 20
548.2015218625281
 30
0.0
 10
721.6434313990059
 20
548.2084659355961
 30
0.0
 10
721.8288580841429
 20
548.2843627522511
 30
0.0
 10
722.0080269922711
 20
548.4241633619066
 30
0.0
 10
722.1491682494358
 20
548.6443310570407
 30
0.0
 10
722.1648497149498
 20
548.8221300021427
 30
0.0
 10
722.1730732576337
 20
548.9153698344097
 30
0.0
  0
SPLINE
  5
D5
330
1F
100
AcDbEntity
  8
0
  6
Continuous
 62
     7
370
    25
100
AcDbSpline
210
0.0
220
0.0
230
1.0
 70
    24
 71
     3
 72
    11
 73
     7
 74
     0
 42
0.000000001
 43
0.00000001
 40
0.0
 40
0.0
 40
0.0
 40
0.0
 40
0.2603296700636654
 40
0.5282089223346418
 40
0.7614183595005999
 40
1.0
 40
1.0
 40
1.0
 40
1.0
 10
721.7573151078793
 20
565.5293073689478
 30
0.0
 10
721.7972618372677
 20
563.9330128237942
 30
0.0
 10
721.8783137545379
 20
560.6941310581545
 30
0.0
 10
721.9888529684772
 20
556.2769197616173
 30
0.0
 10
722.089174963667
 20
552.2679944712752
 30
0.0
 10
722.1448956656488
 20
550.041362803155
 30
0.0
 10
722.1730732576337
 20
548.9153698344097
 30
0.0
  0
SPLINE
  5
D6
330
1F
100
AcDbEntity
  8
0
  6
Continuous
 62
     7
370
    25
100
AcDbSpline
210
0.0
220
0.0
230
1.0
 70
     8
 71
     3
 72
    12
 73
     8
 74
     0
 42
0.000000001
 43
0.00000001
 40
0.0
 40
0.0
 40
0.0
 40
0.0
 40
0.2228401656766478
 40
0.411469260466112
 40
0.6322887730400512
 40
0.8531344551548727
 40
1.0
 40
1.0
 40
1.0
 40
1.0
 10
721.7573151078793
 20
565.5293073689478
 30
0.0
 10
721.7476217774978
 20
565.6080602270889
 30
0.0
 10
721.7297232650304
 20
565.7534755753522
 30
0.0
 10
721.6160084789045
 20
565.951528164871
 30
0.0
 10
721.4511644597857
 20
566.1061935033237
 30
0.0
 10
721.2561180739809
 20
566.1952522707352
 30
0.0
 10
721.1257045192566
 20
566.2069419159449
 30
0.0
 10
721.0736167493831
 20
566.2116108136747
 30
0.0
  0
LINE
  5
D7
330
1F
100
AcDbEntity
  8
0
  6
Continuous
 62
     7
370
    25
100
AcDbLine
 10
720.5216013674
 20
566.2242967675
 30
0.0
 11
721.0736167494
 21
566.2116108137
 31
0.0
  0
SPLINE
  5
D8
330
1F
100
AcDbEntity
  8
0
  6
Continuous
 62
     7
370
    25
100
AcDbSpline
210
0.0
220
0.0
230
1.0
 70
     8
 71
     3
 72
    12
 73
     8
 74
     0
 42
0.000000001
 43
0.00000001
 40
0.0
 40
0.0
 40
0.0
 40
0.0
 40
0.2201335700392902
 40
0.4402545968996891
 40
0.6607438333972045
 40
0.8821596922327213
 40
1.0
 40
1.0
 40
1.0
 40
1.0
 10
720.5216013673672
 20
566.2242967674985
 30
0.0
 10
720.443005198192
 20
566.2184109724789
 30
0.0
 10
720.28581733824
 20
566.2066397178116
 30
0.0
 10
720.0740049191174
 20
566.0916233203012
 30
0.0
 10
719.9116076957292
 20
565.9188375747174
 30
0.0
 10
719.827332904905
 20
565.7343386826782
 30
0.0
 10
719.8124504850028
 20
565.6154257180553
 30
0.0
 10
719.8072810905622
 20
565.5741214125537
 30
0.0
  0
SPLINE
  5
D9
330
1F
100
AcDbEntity
  8
0
  6
Continuous
 62
     7
370
    25
100
AcDbSpline
210
0.0
220
0.0
230
1.0
 70
     8
 71
     3
 72
    11
 73
     7
 74
     0
 42
0.000000001
 43
0.00000001
 40
0.0
 40
0.0
 40
0.0
 40
0.0
 40
0.2832270505560734
 40
0.576269081755135
 40
0.7861908663644723
 40
1.0
 40
1.0
 40
1.0
 40
1.0
 10
718.6287498271844
 20
548.9968224969875
 30
0.0
 10
718.7243006915538
 20
550.3408472911389
 30
0.0
 10
718.9187136502135
 20
553.0754728590749
 30
0.0
 10
719.2303041832178
 20
557.458325962627
 30
0.0
 10
719.529799017048
 20
561.6710401551763
 30
0.0
 10
719.714223091206
 20
564.2651614190795
 30
0.0
 10
719.8072810905622
 20
565.5741214125537
 30
0.0
  0
SPLINE
  5
DA
330
1F
100
AcDbEntity
  8
0
  6
Continuous
 62
     7
370
    25
100
AcDbSpline
210
0.0
220
0.0
230
1.0
 70
     8
 71
     3
 72
    12
 73
     8
 74
     0
 42
0.000000001
 43
0.00000001
 40
0.0
 40
0.0
 40
0.0
 40
0.0
 40
0.3203291954782901
 40
0.5619245703249689
 40
0.7389290134330649
 40
0.8801315555716007
 40
1.0
 40
1.0
 40
1.0
 40
1.0
 10
703.1731803226553
 20
553.7137800880644
 30
0.0
 10
703.1323615793624
 20
553.6155535201933
 30
0.0
 10
703.0607569454115
 20
553.4432435255861
 30
0.0
 10
703.0933927101132
 20
553.1764189225066
 30
0.0
 10
703.18835031542
 20
552.9766563178314
 30
0.0
 10
703.314463338769
 20
552.8315590925846
 30
0.0
 10
703.4159895865481
 20
552.7705706632809
 30
0.0
 10
703.4626044691514
 20
552.7425683630448
 30
0.0
  0
LINE
  5
DB
330
1F
100
AcDbEntity
  8
0
  6
Continuous
 62
     7
370
    25
100
AcDbLine
 10
705.3749571738
 20
551.7668816906
 30
0.0
 11
703.4626044692
 21
552.742568363
 31
0.0
  0
SPLINE
  5
DC
330
1F
100
AcDbEntity
  8
0
  6
Continuous
 62
     7
370
    25
100
AcDbSpline
210
0.0
220
0.0
230
1.0
 70
     8
 71
     3
 72
    12
 73
     8
 74
     0
 42
0.000000001
 43
0.00000001
 40
0.0
 40
0.0
 40
0.0
 40
0.0
 40
0.1369201211910094
 40
0.2732892266307677
 40
0.4609277194041151
 40
0.7173042689015596
 40
1.0
 40
1.0
 40
1.0
 40
1.0
 10
705.3749571738263
 20
551.7668816906053
 30
0.0
 10
705.4324684345513
 20
551.7430471706125
 30
0.0
 10
705.5472595100296
 20
551.6954740492972
 30
0.0
 10
705.7472535801669
 20
551.6834011057317
 30
0.0
 10
705.9693364033283
 20
551.7316186423486
 30
0.0
 10
706.1920274407995
 20
551.8687439932289
 30
0.0
 10
706.2833000134367
 20
552.0221313637896
 30
0.0
 10
706.3311644048732
 20
552.1025694727832
 30
0.0
  0
SPLINE
  5
DD
330
1F
100
AcDbEntity
  8
0
  6
Continuous
 62
     7
370
    25
100
AcDbSpline
210
0.0
220
0.0
230
1.0
 70
     8
 71
     3
 72
    11
 73
     7
 74
     0
 42
0.000000001
 43
0.00000001
 40
0.0
 40
0.0
 40
0.0
 40
0.0
 40
0.2603296700652872
 40
0.5282089223379374
 40
0.7614183595338959
 40
1.0
 40
1.0
 40
1.0
 40
1.0
 10
713.1650965941624
 20
567.2516006652199
 30
0.0
 10
712.5084811078391
 20
565.7960567396739
 30
0.0
 10
711.1762082311659
 20
562.8427579929909
 30
0.0
 10
709.3592444675494
 20
558.8150269643334
 30
0.0
 10
707.7102239671165
 20
555.1595820016819
 30
0.0
 10
706.7943273111393
 20
553.1292798819217
 30
0.0
 10
706.3311644048732
 20
552.1025694727832
 30
0.0
  0
SPLINE
  5
DE
330
1F
100
AcDbEntity
  8
0
  6
Continuous
 62
     7
370
    25
100
AcDbSpline
210
0.0
220
0.0
230
1.0
 70
     8
 71
     3
 72
    13
 73
     9
 74
     0
 42
0.000000001
 43
0.00000001
 40
0.0
 40
0.0
 40
0.0
 40
0.0
 40
0.2228776829879329
 40
0.4457878041258604
 40
0.6678641110419591
 40
0.7058050573007457
 40
0.9258788050832785
 40
1.0
 40
1.0
 40
1.0
 40
1.0
 10
713.1650965941624
 20
567.2516006652199
 30
0.0
 10
713.1904689793315
 20
567.3267836617182
 30
0.0
 10
713.241217442427
 20
567.4771605970273
 30
0.0
 10
713.2169298699837
 20
567.7186404382368
 30
0.0
 10
713.1460085738803
 20
567.8776216655357
 30
0.0
 10
713.0469012214064
 20
568.0158323816895
 30
0.0
 10
712.9594576925718
 20
568.0996184734256
 30
0.0
 10
712.8681504997518
 20
568.150229250494
 30
0.0
 10
712.8451460314418
 20
568.162980425744
 30
0.0
  0
LINE
  5
DF
330
1F
100
AcDbEntity
  8
0
  6
Continuous
 62
     7
370
    25
100
AcDbLine
 10
712.3533015632
 20
568.4139205852
 30
0.0
 11
712.8451460314
 21
568.1629804257
 31
0.0
  0
SPLINE
  5
E0
330
1F
100
AcDbEntity
  8
0
  6
Continuous
 62
     7
370
    25
100
AcDbSpline
210
0.0
220
0.0
230
1.0
 70
     8
 71
     3
 72
    12
 73
     8
 74
     0
 42
0.000000001
 43
0.00000001
 40
0.0
 40
0.0
 40
0.0
 40
0.0
 40
0.2201335749437888
 40
0.4402546067132257
 40
0.6607438481633751
 40
0.8821597120108852
 40
1.0
 40
1.0
 40
1.0
 40
1.0
 10
712.3533015632378
 20
568.4139205851773
 30
0.0
 10
712.2799351099393
 20
568.442719264395
 30
0.0
 10
712.1332063837507
 20
568.5003149818865
 30
0.0
 10
711.8924662441045
 20
568.4885907446053
 30
0.0
 10
711.6711824789083
 20
568.4033776741139
 30
0.0
 10
711.5152024581482
 20
568.2737153770538
 30
0.0
 10
711.4501994641747
 20
568.173035744405
 30
0.0
 10
711.4276207386645
 20
568.1380647738218
 30
0.0
  0
SPLINE
  5
E1
330
1F
100
AcDbEntity
  8
0
  6
Continuous
 62
     7
370
    25
100
AcDbSpline
210
0.0
220
0.0
230
1.0
 70
    24
 71
     3
 72
    11
 73
     7
 74
     0
 42
0.000000001
 43
0.00000001
 40
0.0
 40
0.0
 40
0.0
 40
0.0
 40
0.2832270505599696
 40
0.5762690817591545
 40
0.7861908663459314
 40
1.0
 40
1.0
 40
1.0
 40
1.0
 10
703.1731803226553
 20
553.7137800880644
 30
0.0
 10
703.8424191798498
 20
554.8832466190581
 30
0.0
 10
705.2040887694969
 20
557.2627064998546
 30
0.0
 10
707.386470831711
 20
561.0763266331509
 30
0.0
 10
709.4841345384359
 20
564.7419050318351
 30
0.0
 10
710.7758419217816
 20
566.9991089230847
 30
0.0
 10
711.4276207386645
 20
568.1380647738218
 30
0.0
  0
SPLINE
  5
E2
330
1F
100
AcDbEntity
  8
0
  6
Continuous
 62
     7
370
    25
100
AcDbSpline
210
0.0
220
0.0
230
1.0
 70
     8
 71
     3
 72
    12
 73
     8
 74
     0
 42
0.000000001
 43
0.00000001
 40
0.0
 40
0.0
 40
0.0
 40
0.0
 40
0.3203291874989044
 40
0.5619245577985542
 40
0.7389289972586489
 40
0.8801315365316004
 40
1.0
 40
1.0
 40
1.0
 40
1.0
 10
734.6003479839695
 20
551.4529108426789
 30
0.0
 10
734.6516945368674
 20
551.3597542012235
 30
0.0
 10
734.7417671564026
 20
551.1963379201018
 30
0.0
 10
734.970727097415
 20
551.0554911694809
 30
0.0
 10
735.1861128893719
 20
551.0051820678614
 30
0.0
 10
735.3781846616331
 20
551.0133145599634
 30
0.0
 10
735.4891679243993
 20
551.0546653194257
 30
0.0
 10
735.5401249170903
 20
551.0736511583276
 30
0.0
  0
LINE
  5
E3
330
1F
100
AcDbEntity
  8
0
  6
Continuous
 62
     7
370
    25
100
AcDbLine
 10
737.4952798633
 20
551.9604580093
 30
0.0
 11
735.5401249171
 21
551.0736511583
 31
0.0
  0
SPLINE
  5
E4
330
1F
100
AcDbEntity
  8
0
  6
Continuous
 62
     7
370
    25
100
AcDbSpline
210
0.0
220
0.0
230
1.0
 70
     8
 71
     3
 72
    12
 73
     8
 74
     0
 42
0.000000001
 43
0.00000001
 40
0.0
 40
0.0
 40
0.0
 40
0.0
 40
0.1369201225457448
 40
0.2732892293233315
 40
0.4609277252679473
 40
0.7173042790351964
 40
1.0
 40
1.0
 40
1.0
 40
1.0
 10
737.4952798632575
 20
551.9604580093463
 30
0.0
 10
737.5497721258657
 20
551.9905615440773
 30
0.0
 10
737.6585373546386
 20
552.0506474660995
 30
0.0
 10
737.7926706240416
 20
552.1994817713984
 30
0.0
 10
737.8934390093989
 20
552.4031762590516
 30
0.0
 10
737.9250756795766
 20
552.6627793780754
 30
0.0
 10
737.8620601230101
 20
552.8297746071165
 30
0.0
 10
737.8290140380404
 20
552.9173488321034
 30
0.0
  0
SPLINE
  5
E5
330
1F
100
AcDbEntity
  8
0
  6
Continuous
 62
     7
370
    25
100
AcDbSpline
210
0.0
220
0.0
230
1.0
 70
    24
 71
     3
 72
    11
 73
     7
 74
     0
 42
0.000000001
 43
0.00000001
 40
0.0
 40
0.0
 40
0.0
 40
0.0
 40
0.2603296700627184
 40
0.5282089223327179
 40
0.761418359465242
 40
1.0
 40
1.0
 40
1.0
 40
1.0
 10
730.2459115489274
 20
567.7055986230835
 30
0.0
 10
730.9745085545106
 20
566.2847191702367
 30
0.0
 10
732.4528319397829
 20
563.4017546415602
 30
0.0
 10
734.4689804841589
 20
559.4699459481826
 30
0.0
 10
736.2987749735988
 20
555.9015571502954
 30
0.0
 10
737.3150768652716
 20
553.9196076435816
 30
0.0
 10
737.8290140380404
 20
552.9173488321034
 30
0.0
  0
SPLINE
  5
E6
330
1F
100
AcDbEntity
  8
0
  6
Continuous
 62
     7
370
    25
100
AcDbSpline
210
0.0
220
0.0
230
1.0
 70
     8
 71
     3
 72
    12
 73
     8
 74
     0
 42
0.000000001
 43
0.00000001
 40
0.0
 40
0.0
 40
0.0
 40
0.0
 40
0.1165847777148139
 40
0.3388935665352916
 40
0.5612376805370359
 40
0.7827183635946305
 40
1.0
 40
1.0
 40
1.0
 40
1.0
 10
730.2459115489274
 20
567.7055986230835
 30
0.0
 10
730.2252066644594
 20
567.7411949829396
 30
0.0
 10
730.1650208299139
 20
567.8446679884534
 30
0.0
 10
730.0149263516461
 20
567.9819344961671
 30
0.0
 10
729.7962881633747
 20
568.0776553482849
 30
0.0
 10
729.5560860761617
 20
568.0996217043158
 30
0.0
 10
729.4074747681972
 20
568.048836681063
 30
0.0
 10
729.3338802347779
 20
568.023687181054
 30
0.0
  0
LINE
  5
E7
330
1F
100
AcDbEntity
  8
0
  6
Continuous
 62
     7
370
    25
100
AcDbLine
 10
728.8310273167
 20
567.795606326
 30
0.0
 11
729.3338802348
 21
568.0236871811
 31
0.0
  0
SPLINE
  5
E8
330
1F
100
AcDbEntity
  8
0
  6
Continuous
 62
     7
370
    25
100
AcDbSpline
210
0.0
220
0.0
230
1.0
 70
     8
 71
     3
 72
    12
 73
     8
 74
     0
 42
0.000000001
 43
0.00000001
 40
0.0
 40
0.0
 40
0.0
 40
0.0
 40
0.2201335757646954
 40
0.4402546082974786
 40
0.6607438505176882
 40
0.8821597151442155
 40
1.0
 40
1.0
 40
1.0
 40
1.0
 10
728.831027316696
 20
567.7956063260204
 30
0.0
 10
728.7627683674631
 20
567.7562018053945
 30
0.0
 10
728.6262543583988
 20
567.677395009416
 30
0.0
 10
728.4853217151525
 20
567.4818668461419
 30
0.0
 10
728.4139758066077
 20
567.2557307511172
 30
0.0
 10
728.4180979213425
 20
567.0529375416756
 30
0.0
 10
728.4562837236895
 20
566.9393434315638
 30
0.0
 10
728.4695475240152
 20
566.8998866308134
 30
0.0
  0
SPLINE
  5
E9
330
1F
100
AcDbEntity
  8
0
  6
Continuous
 62
     7
370
    25
100
AcDbSpline
210
0.0
220
0.0
230
1.0
 70
     8
 71
     3
 72
    11
 73
     7
 74
     0
 42
0.000000001
 43
0.00000001
 40
0.0
 40
0.0
 40
0.0
 40
0.0
 40
0.2832270505582933
 40
0.5762690817572593
 40
0.7861908663604439
 40
1.0
 40
1.0
 40
1.0
 40
1.0
 10
734.6003479839695
 20
551.4529108426789
 30
0.0
 10
734.1032858347555
 20
552.705293306187
 30
0.0
 10
733.091936291203
 20
555.2534584296527
 30
0.0
 10
731.4710209684554
 20
559.3374666940693
 30
0.0
 10
729.913028303813
 20
563.262936969157
 30
0.0
 10
728.9536416198177
 20
565.6801780745374
 30
0.0
 10
728.4695475240152
 20
566.8998866308134
 30
0.0
  0
SPLINE
  5
EA
330
1F
100
AcDbEntity
  8
0
  6
Continuous
 62
     7
370
    25
100
AcDbSpline
210
0.0
220
0.0
230
1.0
 70
     8
 71
     3
 72
    12
 73
     8
 74
     0
 42
0.000000001
 43
0.00000001
 40
0.0
 40
0.0
 40
0.0
 40
0.0
 40
0.3203291956777188
 40
0.5619245718616277
 40
0.7389290157161567
 40
0.8801315585013686
 40
1.0
 40
1.0
 40
1.0
 40
1.0
 10
747.9246038988185
 20
560.5955867067202
 30
0.0
 10
748.0112846963846
 20
560.533933907338
 30
0.0
 10
748.1633409894673
 20
560.4257819706291
 30
0.0
 10
748.4307378831046
 20
560.3982254286584
 30
0.0
 10
748.6466220773953
 20
560.446350887127
 30
0.0
 10
748.8161441984472
 20
560.5370148230869
 30
0.0
 10
748.8981952355772
 20
560.6224243916103
 30
0.0
 10
748.9358682461232
 20
560.661639442245
 30
0.0
  0
LINE
  5
EB
330
1F
100
AcDbEntity
  8
0
  6
Continuous
 62
     7
370
    25
100
AcDbLine
 10
750.3126309124
 20
562.3089347453
 30
0.0
 11
748.9358682461
 21
560.6616394422
 31
0.0
  0
SPLINE
  5
EC
330
1F
100
AcDbEntity
  8
0
  6
Continuous
 62
     7
370
    25
100
AcDbSpline
210
0.0
220
0.0
230
1.0
 70
     8
 71
     3
 72
    13
 73
     9
 74
     0
 42
0.000000001
 43
0.00000001
 40
0.0
 40
0.0
 40
0.0
 40
0.0
 40
0.1368258648470764
 40
0.2731010933964176
 40
0.4606104098961517
 40
0.7168104619180417
 40
0.8076499722265383
 40
1.0
 40
1.0
 40
1.0
 40
1.0
 10
750.3126309123702
 20
562.3089347453283
 30
0.0
 10
750.3486730365705
 20
562.3597082592036
 30
0.0
 10
750.4206122385514
 20
562.4610509561447
 30
0.0
 10
750.4767556586198
 20
562.6532122456359
 30
0.0
 10
750.4799334786791
 20
562.8812384837596
 30
0.0
 10
750.4148618722656
 20
563.0603087619608
 30
0.0
 10
750.3159450009621
 20
563.2119538930168
 30
0.0
 10
750.2457881249164
 20
563.2738344726303
 30
0.0
 10
750.19813566873
 20
563.315865443435
 30
0.0
  0
SPLINE
  5
ED
330
1F
100
AcDbEntity
  8
0
  6
Continuous
 62
     7
370
    25
100
AcDbSpline
210
0.0
220
0.0
230
1.0
 70
     8
 71
     3
 72
    11
 73
     7
 74
     0
 42
0.000000001
 43
0.00000001
 40
0.0
 40
0.0
 40
0.0
 40
0.0
 40
0.2603296700330337
 40
0.5282089222724908
 40
0.761418359516545
 40
1.0
 40
1.0
 40
1.0
 40
1.0
 10
736.9496152885434
 20
573.3494332550116
 30
0.0
 10
738.2225549976714
 20
572.385391496062
 30
0.0
 10
740.8053497739681
 20
570.429350686515
 30
0.0
 10
744.3277847034389
 20
567.7616875276628
 30
0.0
 10
747.524638447739
 20
565.3405983866954
 30
0.0
 10
749.3002304754979
 20
563.9958804478971
 30
0.0
 10
750.19813566873
 20
563.315865443435
 30
0.0
  0
SPLINE
  5
EE
330
1F
100
AcDbEntity
  8
0
  6
Continuous
 62
     7
370
    25
100
AcDbSpline
210
0.0
220
0.0
230
1.0
 70
     8
 71
     3
 72
    12
 73
     8
 74
     0
 42
0.000000001
 43
0.00000001
 40
0.0
 40
0.0
 40
0.0
 40
0.0
 40
0.2229001272671074
 40
0.445832696003325
 40
0.6679313664265746
 40
0.8889145958008485
 40
1.0
 40
1.0
 40
1.0
 40
1.0
 10
736.9496152885434
 20
573.3494332550116
 30
0.0
 10
736.8819860446805
 20
573.3908934750834
 30
0.0
 10
736.7467177140171
 20
573.473819949456
 30
0.0
 10
736.5055450812812
 20
573.5039628003386
 30
0.0
 10
736.2713427769269
 20
573.4570699718838
 30
0.0
 10
736.0968922810619
 20
573.3558282299546
 30
0.0
 10
736.0167122808474
 20
573.2692636574928
 30
0.0
 10
735.9898900313725
 20
573.2403056062077
 30
0.0
  0
LINE
  5
EF
330
1F
100
AcDbEntity
  8
0
  6
Continuous
 62
     7
370
    25
100
AcDbLine
 10
735.635795782
 20
572.8166321517
 30
0.0
 11
735.9898900314
 21
573.2403056062
 31
0.0
  0
SPLINE
  5
F0
330
1F
100
AcDbEntity
  8
0
  6
Continuous
 62
     7
370
    25
100
AcDbSpline
210
0.0
220
0.0
230
1.0
 70
     8
 71
     3
 72
    12
 73
     8
 74
     0
 42
0.000000001
 43
0.00000001
 40
0.0
 40
0.0
 40
0.0
 40
0.0
 40
0.2201335703051261
 40
0.4402545974574357
 40
0.6607438342490904
 40
0.8821596933820269
 40
1.0
 40
1.0
 40
1.0
 40
1.0
 10
735.6357957819959
 20
572.8166321517248
 30
0.0
 10
735.5913935719466
 20
572.7515134590595
 30
0.0
 10
735.5025916818743
 20
572.6212797841749
 30
0.0
 10
735.460452239678
 20
572.3839666155636
 30
0.0
 10
735.4942885629557
 20
572.149269203363
 30
0.0
 10
735.5859911329404
 20
571.9683473418818
 30
0.0
 10
735.6696819946276
 20
571.8825707767169
 30
0.0
 10
735.6987519358637
 20
571.852776368361
 30
0.0
  0
SPLINE
  5
F1
330
1F
100
AcDbEntity
  8
0
  6
Continuous
 62
     7
370
    25
100
AcDbSpline
210
0.0
220
0.0
230
1.0
 70
    24
 71
     3
 72
    11
 73
     7
 74
     0
 42
0.000000001
 43
0.00000001
 40
0.0
 40
0.0
 40
0.0
 40
0.0
 40
0.2832270505602067
 40
0.5762690817528338
 40
0.7861908663425545
 40
1.0
 40
1.0
 40
1.0
 40
1.0
 10
747.9246038988185
 20
560.5955867067202
 30
0.0
 10
746.9333779908633
 20
561.5082771332801
 30
0.0
 10
744.9165761258676
 20
563.3652864584768
 30
0.0
 10
741.6841971062838
 20
566.3415619599825
 30
0.0
 10
738.5772964983005
 20
569.2023007870537
 30
0.0
 10
736.6641173544759
 20
570.9638974875337
 30
0.0
 10
735.6987519358637
 20
571.852776368361
 30
0.0
  0
SPLINE
  5
F2
330
1F
100
AcDbEntity
  8
0
  6
Continuous
 62
     7
370
    25
100
AcDbSpline
210
0.0
220
0.0
230
1.0
 70
     8
 71
     3
 72
    12
 73
     8
 74
     0
 42
0.000000001
 43
0.00000001
 40
0.0
 40
0.0
 40
0.0
 40
0.0
 40
0.3203291896669105
 40
0.5619245570102503
 40
0.7389289953257698
 40
0.8801315336280615
 40
0.9999999999999999
 40
0.9999999999999999
 40
0.9999999999999999
 40
0.9999999999999999
 10
755.9624852762236
 20
574.6140310070697
 30
0.0
 10
756.0673321246259
 20
574.5960931426182
 30
0.0
 10
756.2512554782973
 20
574.5646263676232
 30
0.0
 10
756.5041280908472
 20
574.6558179464903
 30
0.0
 10
756.677752174067
 20
574.7928461278337
 30
0.0
 10
756.7911487274821
 20
574.9480844136117
 30
0.0
 10
756.8280163338517
 20
575.0606364011383
 30
0.0
 10
756.844943772576
 20
575.1123136609273
 30
0.0
  0
LINE
  5
F3
330
1F
100
AcDbEntity
  8
0
  6
Continuous
 62
     7
370
    25
100
AcDbLine
 10
757.3706294166
 20
577.1938303352
 30
0.0
 11
756.8449437726
 21
575.1123136609
 31
0.0
  0
SPLINE
  5
F4
330
1F
100
AcDbEntity
  8
0
  6
Continuous
 62
     7
370
    25
100
AcDbSpline
210
0.0
220
0.0
230
1.0
 70
     8
 71
     3
 72
    13
 73
     9
 74
     0
 42
0.000000001
 43
0.00000001
 40
0.0
 40
0.0
 40
0.0
 40
0.0
 40
0.1368520550563382
 40
0.273153368483972
 40
0.4606985757378621
 40
0.5051868322059978
 40
0.7677990591363133
 40
1.0
 40
1.0
 40
1.0
 40
1.0
 10
757.3706294166354
 20
577.1938303351861
 30
0.0
 10
757.3810714630987
 20
577.2552189232883
 30
0.0
 10
757.4019135334945
 20
577.3777490498522
 30
0.0
 10
757.3691378702424
 20
577.5751537735608
 30
0.0
 10
757.3080731905414
 20
577.7068020815135
 30
0.0
 10
757.2031951584166
 20
577.8545336938921
 30
0.0
 10
757.060430098345
 20
577.9820098969146
 30
0.0
 10
756.9039930926681
 20
578.0292143135279
 30
0.0
 10
756.8305819098857
 20
578.0513659268315
 30
0.0
  0
SPLINE
  5
F5
330
1F
100
AcDbEntity
  8
0
  6
Continuous
 62
     7
370
    25
100
AcDbSpline
210
0.0
220
0.0
230
1.0
 70
     8
 71
     3
 72
    11
 73
     7
 74
     0
 42
0.000000001
 43
0.00000001
 40
0.0
 40
0.0
 40
0.0
 40
0.0
 40
0.2603296700668727
 40
0.5282089223411509
 40
0.7614183595496735
 40
1.0
 40
1.0
 40
1.0
 40
1.0
 10
740.5406755845153
 20
581.3429805982548
 30
0.0
 10
742.1058366761526
 20
581.0267168265432
 30
0.0
 10
745.2815486620038
 20
580.3850176072862
 30
0.0
 10
749.6126085384327
 20
579.5098633895259
 30
0.0
 10
753.5433454458318
 20
578.7156003031896
 30
0.0
 10
755.7265498318667
 20
578.2744518127546
 30
0.0
 10
756.8305819098857
 20
578.0513659268315
 30
0.0
  0
SPLINE
  5
F6
330
1F
100
AcDbEntity
  8
0
  6
Continuous
 62
     7
370
    25
100
AcDbSpline
210
0.0
220
0.0
230
1.0
 70
     8
 71
     3
 72
    12
 73
     8
 74
     0
 42
0.000000001
 43
0.00000001
 40
0.0
 40
0.0
 40
0.0
 40
0.0
 40
0.2229001214099219
 40
0.4458326843810407
 40
0.6679313490790859
 40
0.8889145727567329
 40
1.0
 40
1.0
 40
1.0
 40
1.0
 10
740.5406755845153
 20
581.3429805982548
 30
0.0
 10
740.4617548259798
 20
581.3509917368742
 30
0.0
 10
740.3039018225418
 20
581.3670151800785
 30
0.0
 10
740.0735342957579
 20
581.2895320665835
 30
0.0
 10
739.8828713466202
 20
581.1456665165972
 30
0.0
 10
739.769624020419
 20
580.9787596179445
 30
0.0
 10
739.7349432975219
 20
580.8659788247813
 30
0.0
 10
739.7233417117972
 20
580.8282507749981
 30
0.0
  0
LINE
  5
F7
330
1F
100
AcDbEntity
  8
0
  6
Continuous
 62
     7
370
    25
100
AcDbLine
 10
739.5881388431
 20
580.2928984614
 30
0.0
 11
739.7233417118
 21
580.828250775
 31
0.0
  0
SPLINE
  5
F8
330
1F
100
AcDbEntity
  8
0
  6
Continuous
 62
     7
370
    25
100
AcDbSpline
210
0.0
220
0.0
230
1.0
 70
     8
 71
     3
 72
    12
 73
     8
 74
     0
 42
0.000000001
 43
0.00000001
 40
0.0
 40
0.0
 40
0.0
 40
0.0
 40
0.2201335722438189
 40
0.4402546012954474
 40
0.6607438400039257
 40
0.8821597010770227
 40
1.0
 40
1.0
 40
1.0
 40
1.0
 10
739.5881388430565
 20
580.2928984614186
 30
0.0
 10
739.57638777715
 20
580.2149631495013
 30
0.0
 10
739.5528863149115
 20
580.0590969664141
 30
0.0
 10
739.6178863173958
 20
579.8270015716882
 30
0.0
 10
739.7502031847257
 20
579.6302275421136
 30
0.0
 10
739.9113233983542
 20
579.5070108356069
 30
0.0
 10
740.0239433133074
 20
579.4660409262593
 30
0.0
 10
740.0630617317997
 20
579.4518100678883
 30
0.0
  0
SPLINE
  5
F9
330
1F
100
AcDbEntity
  8
0
  6
Continuous
 62
     7
370
    25
100
AcDbSpline
210
0.0
220
0.0
230
1.0
 70
    24
 71
     3
 72
    11
 73
     7
 74
     0
 42
0.000000001
 43
0.00000001
 40
0.0
 40
0.0
 40
0.0
 40
0.0
 40
0.2832270505644366
 40
0.5762690817612998
 40
0.786190866372286
 40
1.0
 40
1.0
 40
1.0
 40
1.0
 10
755.9624852762236
 20
574.6140310070697
 30
0.0
 10
754.673420057164
 20
575.0062598641197
 30
0.0
 10
752.0506182144816
 20
575.8043099191624
 30
0.0
 10
747.84698780518
 20
577.0833647928781
 30
0.0
 10
743.8065390228157
 20
578.3127677621626
 30
0.0
 10
741.3184960123662
 20
579.069814226467
 30
0.0
 10
740.0630617317997
 20
579.4518100678883
 30
0.0
  0
SPLINE
  5
FA
330
1F
100
AcDbEntity
  8
0
  6
Continuous
 62
     7
370
    25
100
AcDbSpline
210
0.0
220
0.0
230
1.0
 70
     8
 71
     3
 72
    12
 73
     8
 74
     0
 42
0.000000001
 43
0.00000001
 40
0.0
 40
0.0
 40
0.0
 40
0.0
 40
0.3203292007420905
 40
0.5619245725821573
 40
0.738929015038328
 40
0.8801315565995776
 40
1.0
 40
1.0
 40
1.0
 40
1.0
 10
757.1219911313813
 20
590.731718925188
 30
0.0
 10
757.2242378264389
 20
590.7610488107553
 30
0.0
 10
757.40359996478
 20
590.8124995788183
 30
0.0
 10
757.5918637727241
 20
591.0043776682452
 30
0.0
 10
757.6888393661511
 20
591.2031684598895
 30
0.0
 10
757.7236507595849
 20
591.3922342316911
 30
0.0
 10
757.708032853889
 20
591.5096363115156
 30
0.0
 10
757.7008620300412
 20
591.5635404424652
 30
0.0
  0
LINE
  5
FB
330
1F
100
AcDbEntity
  8
0
  6
Continuous
 62
     7
370
    25
100
AcDbLine
 10
757.2713521785
 20
593.6670086827
 30
0.0
 11
757.70086203
 21
591.5635404425
 31
0.0
  0
SPLINE
  5
FC
330
1F
100
AcDbEntity
  8
0
  6
Continuous
 62
     7
370
    25
100
AcDbSpline
210
0.0
220
0.0
230
1.0
 70
     8
 71
     3
 72
    12
 73
     8
 74
     0
 42
0.000000001
 43
0.00000001
 40
0.0
 40
0.0
 40
0.0
 40
0.0
 40
0.1335496659692239
 40
0.2374496721155472
 40
0.4314228611592358
 40
0.6784626707083495
 40
0.9999999999999999
 40
0.9999999999999999
 40
0.9999999999999999
 40
0.9999999999999999
 10
757.2713521785237
 20
593.6670086827078
 30
0.0
 10
757.2547473586484
 20
593.7253779175709
 30
0.0
 10
757.2252241920697
 20
593.829157703011
 30
0.0
 10
757.1236733942732
 20
593.9872203881775
 30
0.0
 10
756.9622339889593
 20
594.1342147945295
 30
0.0
 10
756.7060597325062
 20
594.2414370100649
 30
0.0
 10
756.5186806240789
 20
594.2183561805507
 30
0.0
 10
756.4127154454374
 20
594.2053036890367
 30
0.0
  0
SPLINE
  5
FD
330
1F
100
AcDbEntity
  8
0
  6
Continuous
 62
     7
370
    25
100
AcDbSpline
210
0.0
220
0.0
230
1.0
 70
    24
 71
     3
 72
    11
 73
     7
 74
     0
 42
0.000000001
 43
0.00000001
 40
0.0
 40
0.0
 40
0.0
 40
0.0
 40
0.2603296700658182
 40
0.52820892233901
 40
0.761418359479765
 40
1.0
 40
1.0
 40
1.0
 40
1.0
 10
740.3078389037555
 20
590.103020566928
 30
0.0
 10
741.8552220283442
 20
590.4971747015118
 30
0.0
 10
744.9948625175667
 20
591.2969134735515
 30
0.0
 10
749.2767278152802
 20
592.3876032217883
 30
0.0
 10
753.1628172345893
 20
593.3774797348705
 30
0.0
 10
755.3212235752918
 20
593.9272755609962
 30
0.0
 10
756.4127154454374
 20
594.2053036890367
 30
0.0
  0
SPLINE
  5
FE
330
1F
100
AcDbEntity
  8
0
  6
Continuous
 62
     7
370
    25
100
AcDbSpline
210
0.0
220
0.0
230
1.0
 70
     8
 71
     3
 72
    12
 73
     8
 74
     0
 42
0.000000001
 43
0.00000001
 40
0.0
 40
0.0
 40
0.0
 40
0.0
 40
0.222900126707647
 40
0.4458326948994186
 40
0.6679313646014783
 40
0.8889145932580038
 40
1.0
 40
1.0
 40
1.0
 40
1.0
 10
740.3078389037555
 20
590.103020566928
 30
0.0
 10
740.2332578545187
 20
590.0759959193311
 30
0.0
 10
740.0840849013184
 20
590.0219426908973
 30
0.0
 10
739.9101495944337
 20
589.8521800939088
 30
0.0
 10
739.8007891358224
 20
589.6398361587019
 30
0.0
 10
739.7711750114876
 20
589.4403220741905
 30
0.0
 10
739.7888625080441
 20
589.3236626967027
 30
0.0
 10
739.7947794256321
 20
589.2846371669867
 30
0.0
  0
LINE
  5
FF
330
1F
100
AcDbEntity
  8
0
  6
Continuous
 62
     7
370
    25
100
AcDbLine
 10
739.9052465189
 20
588.743639047
 30
0.0
 11
739.7947794256
 21
589.284637167
 31
0.0
  0
SPLINE
  5
100
330
1F
100
AcDbEntity
  8
0
  6
Continuous
 62
     7
370
    25
100
AcDbSpline
210
0.0
220
0.0
230
1.0
 70
     8
 71
     3
 72
    12
 73
     8
 74
     0
 42
0.000000001
 43
0.00000001
 40
0.0
 40
0.0
 40
0.0
 40
0.0
 40
0.2201335730272913
 40
0.4402546029152849
 40
0.6607438424671103
 40
0.8821597043935899
 40
1.0
 40
1.0
 40
1.0
 40
1.0
 10
739.9052465188954
 20
588.7436390469522
 30
0.0
 10
739.9284740392046
 20
588.668323160892
 30
0.0
 10
739.9749277563263
 20
588.5176956802461
 30
0.0
 10
740.1341931538416
 20
588.3367874003586
 30
0.0
 10
740.3387835844132
 20
588.2169102639497
 30
0.0
 10
740.5374096051173
 20
588.1758032898807
 30
0.0
 10
740.6566528185225
 20
588.1877546265224
 30
0.0
 10
740.6980718324586
 20
588.1919059116545
 30
0.0
  0
SPLINE
  5
101
330
1F
100
AcDbEntity
  8
0
  6
Continuous
 62
     7
370
    25
100
AcDbSpline
210
0.0
220
0.0
230
1.0
 70
     8
 71
     3
 72
    11
 73
     7
 74
     0
 42
0.000000001
 43
0.00000001
 40
0.0
 40
0.0
 40
0.0
 40
0.0
 40
0.2832270505634275
 40
0.576269081760296
 40
0.7861908663717233
 40
0.9999999999999999
 40
0.9999999999999999
 40
0.9999999999999999
 40
0.9999999999999999
 10
757.1219911313813
 20
590.731718925188
 30
0.0
 10
755.7904017772603
 20
590.5258004772851
 30
0.0
 10
753.0810780285065
 20
590.1068276614665
 30
0.0
 10
748.7387767864273
 20
589.4353294031007
 30
0.0
 10
744.5650402640234
 20
588.7898981789332
 30
0.0
 10
741.9949208189627
 20
588.3924520706114
 30
0.0
 10
740.6980718324586
 20
588.1919059116545
 30
0.0
  0
SPLINE
  5
102
330
1F
100
AcDbEntity
  8
0
  6
Continuous
 62
     7
370
    25
100
AcDbSpline
210
0.0
220
0.0
230
1.0
 70
     8
 71
     3
 72
    12
 73
     8
 74
     0
 42
0.000000001
 43
0.00000001
 40
0.0
 40
0.0
 40
0.0
 40
0.0
 40
0.136920119090674
 40
0.2732892225298378
 40
0.460927710532049
 40
0.7173042536063291
 40
1.0
 40
1.0
 40
1.0
 40
1.0
 10
692.4338093948543
 20
561.960122306322
 30
0.0
 10
692.4752838385066
 20
561.9136949444845
 30
0.0
 10
692.5580658177792
 20
561.82102706116
 30
0.0
 10
692.7330159921825
 20
561.7233755377501
 30
0.0
 10
692.9540265040113
 20
561.6704599076617
 30
0.0
 10
693.2141606613686
 20
561.6973835545358
 30
0.0
 10
693.3629466981383
 20
561.7959791164684
 30
0.0
 10
693.4409718174763
 20
561.84768377003
 30
0.0
  0
SPLINE
  5
103
330
1F
100
AcDbEntity
  8
0
  6
Continuous
 62
     7
370
    25
100
AcDbSpline
210
0.0
220
0.0
230
1.0
 70
     8
 71
     3
 72
    11
 73
     7
 74
     0
 42
0.000000001
 43
0.00000001
 40
0.0
 40
0.0
 40
0.0
 40
0.0
 40
0.2603296700655776
 40
0.5282089223385146
 40
0.7614183595482882
 40
1.0
 40
1.0
 40
1.0
 40
1.0
 10
706.1710502629313
 20
572.5313572023732
 30
0.0
 10
704.9479233106103
 20
571.504852222076
 30
0.0
 10
702.466198622042
 20
569.4220735311902
 30
0.0
 10
699.0816038383272
 20
566.5815642972286
 30
0.0
 10
696.0098495766098
 20
564.0036053678974
 30
0.0
 10
694.3037401280639
 20
562.5717590313529
 30
0.0
 10
693.4409718174763
 20
561.84768377003
 30
0.0
  0
SPLINE
  5
104
330
1F
100
AcDbEntity
  8
0
  6
Continuous
 62
     7
370
    25
100
AcDbSpline
210
0.0
220
0.0
230
1.0
 70
     8
 71
     3
 72
    12
 73
     8
 74
     0
 42
0.000000001
 43
0.00000001
 40
0.0
 40
0.0
 40
0.0
 40
0.0
 40
0.2229001252313302
 40
0.4458326920057713
 40
0.6679313602957614
 40
0.8889145875472736
 40
1.0
 40
1.0
 40
1.0
 40
1.0
 10
706.1710502629313
 20
572.5313572023732
 30
0.0
 10
706.2265199113793
 20
572.588065072924
 30
0.0
 10
706.3374672814917
 20
572.7014890674567
 30
0.0
 10
706.4205203475508
 20
572.9299075836664
 30
0.0
 10
706.4269181355528
 20
573.1686725832429
 30
0.0
 10
706.3670336219163
 20
573.3612776513377
 30
0.0
 10
706.3004811293683
 20
573.458709802965
 30
0.0
 10
706.2782176265847
 20
573.4913033377212
 30
0.0
  0
SPLINE
  5
105
330
1F
100
AcDbEntity
  8
0
  6
Continuous
 62
     7
370
    25
100
AcDbSpline
210
0.0
220
0.0
230
1.0
 70
    24
 71
     3
 72
     9
 73
     5
 74
     0
 42
0.000000001
 43
0.00000001
 40
0.0
 40
0.0
 40
0.0
 40
0.0
 40
0.4999998288440479
 40
1.0
 40
1.0
 40
1.0
 40
1.0
 10
705.9439599295206
 20
573.9307959233439
 30
0.0
 10
705.9996695266279
 20
573.8575471841474
 30
0.0
 10
706.1110887589825
 20
573.7110496556066
 30
0.0
 10
706.2225079913372
 20
573.5645521270656
 30
0.0
 10
706.2782176265847
 20
573.4913033377212
 30
0.0
  0
SPLINE
  5
106
330
1F
100
AcDbEntity
  8
0
  6
Continuous
 62
     7
370
    25
100
AcDbSpline
210
0.0
220
0.0
230
1.0
 70
     8
 71
     3
 72
    12
 73
     8
 74
     0
 42
0.000000001
 43
0.00000001
 40
0.0
 40
0.0
 40
0.0
 40
0.0
 40
0.2201335735715892
 40
0.4402546039526498
 40
0.660743844002258
 40
0.882159706432299
 40
1.0
 40
1.0
 40
1.0
 40
1.0
 10
705.9439599295206
 20
573.9307959233439
 30
0.0
 10
705.8903543183106
 20
573.9885751483359
 30
0.0
 10
705.7831461503331
 20
574.104130306065
 30
0.0
 10
705.5611598242845
 20
574.1980203674658
 30
0.0
 10
705.3248174754756
 20
574.2172574734965
 30
0.0
 10
705.1280259676001
 20
574.1681129768423
 30
0.0
 10
705.02577703634
 20
574.1056075030331
 30
0.0
 10
704.9902609701944
 20
574.0838962879143
 30
0.0
  0
SPLINE
  5
107
330
1F
100
AcDbEntity
  8
0
  6
Continuous
 62
     7
370
    25
100
AcDbSpline
210
0.0
220
0.0
230
1.0
 70
     8
 71
     3
 72
    11
 73
     7
 74
     0
 42
0.000000001
 43
0.00000001
 40
0.0
 40
0.0
 40
0.0
 40
0.0
 40
0.283227050518169
 40
0.5762690817323776
 40
0.7861908663323477
 40
1.0
 40
1.0
 40
1.0
 40
1.0
 10
691.2948045607508
 20
564.6695323170392
 30
0.0
 10
692.4051804470915
 20
565.4328133955868
 30
0.0
 10
694.6644113052624
 20
566.9858263773398
 30
0.0
 10
698.2853373642599
 20
569.4748793018276
 30
0.0
 10
701.7657019211924
 20
571.8673091491625
 30
0.0
 10
703.9088541242488
 20
573.3405287545385
 30
0.0
 10
704.9902609701944
 20
574.0838962879143
 30
0.0
  0
SPLINE
  5
108
330
1F
100
AcDbEntity
  8
0
  6
Continuous
 62
     7
370
    25
100
AcDbSpline
210
0.0
220
0.0
230
1.0
 70
     8
 71
     3
 72
    12
 73
     8
 74
     0
 42
0.000000001
 43
0.00000001
 40
0.0
 40
0.0
 40
0.0
 40
0.0
 40
0.320329200365431
 40
0.5619245694925583
 40
0.738929010357599
 40
0.8801315506287802
 40
0.9999999999999999
 40
0.9999999999999999
 40
0.9999999999999999
 40
0.9999999999999999
 10
691.2948045607508
 20
564.6695323170392
 30
0.0
 10
691.215409231329
 20
564.5987438241397
 30
0.0
 10
691.0761331795231
 20
564.4745659678837
 30
0.0
 10
690.9897661327958
 20
564.220005177302
 30
0.0
 10
690.9886462344905
 20
563.9988247300338
 30
0.0
 10
691.0393148175776
 20
563.8133782551145
 30
0.0
 10
691.1043249209324
 20
563.7143789895661
 30
0.0
 10
691.1341737382724
 20
563.6689243472619
 30
0.0
  0
LINE
  5
109
330
1F
100
AcDbEntity
  8
0
  6
Continuous
 62
     7
370
    25
100
AcDbLine
 10
691.1341737383
 20
563.6689243473
 30
0.0
 11
691.7839915658
 21
562.8145233262
 31
0.0
  0
LINE
  5
10A
330
1F
100
AcDbEntity
  8
0
  6
Continuous
 62
     7
370
    25
100
AcDbLine
 10
692.4338093949
 20
561.9601223063
 30
0.0
 11
691.7839915658
 21
562.8145233262
 31
0.0
  0
SPLINE
  5
10B
330
1F
100
AcDbEntity
  8
0
  6
Continuous
 62
     7
370
    25
100
AcDbSpline
210
0.0
220
0.0
230
1.0
 70
     8
 71
     3
 72
    12
 73
     8
 74
     0
 42
0.000000001
 43
0.00000001
 40
0.0
 40
0.0
 40
0.0
 40
0.0
 40
0.2201335735841817
 40
0.440254603977707
 40
0.6607438440396514
 40
0.8821597064822532
 40
1.0
 40
1.0
 40
1.0
 40
1.0
 10
736.5243117400165
 20
596.4950810901131
 30
0.0
 10
736.5779173512362
 20
596.4373018651298
 30
0.0
 10
736.6851255192329
 20
596.321746707418
 30
0.0
 10
736.9071118452974
 20
596.2278566460539
 30
0.0
 10
737.14345419411
 20
596.2086195400622
 30
0.0
 10
737.3402457019571
 20
596.2577640367448
 30
0.0
 10
737.4424946331936
 20
596.3202695105542
 30
0.0
 10
737.4780106993197
 20
596.3419807256663
 30
0.0
  0
SPLINE
  5
10C
330
1F
100
AcDbEntity
  8
0
  6
Continuous
 62
     7
370
    25
100
AcDbSpline
210
0.0
220
0.0
230
1.0
 70
     8
 71
     3
 72
    11
 73
     7
 74
     0
 42
0.000000001
 43
0.00000001
 40
0.0
 40
0.0
 40
0.0
 40
0.0
 40
0.283227050518569
 40
0.5762690817332465
 40
0.7861908663327875
 40
1.0
 40
1.0
 40
1.0
 40
1.0
 10
751.1734671087673
 20
605.756344696544
 30
0.0
 10
750.063091222426
 20
604.9930636179961
 30
0.0
 10
747.8038603642535
 20
603.4400506362421
 30
0.0
 10
744.1829343052522
 20
600.9509977117517
 30
0.0
 10
740.7025697483189
 20
598.5585678644161
 30
0.0
 10
738.5594175452643
 20
597.0853482590414
 30
0.0
 10
737.4780106993197
 20
596.3419807256663
 30
0.0
  0
SPLINE
  5
10D
330
1F
100
AcDbEntity
  8
0
  6
Continuous
 62
     7
370
    25
100
AcDbSpline
210
0.0
220
0.0
230
1.0
 70
     8
 71
     3
 72
    12
 73
     8
 74
     0
 42
0.000000001
 43
0.00000001
 40
0.0
 40
0.0
 40
0.0
 40
0.0
 40
0.3203292003935692
 40
0.5619245695284422
 40
0.7389290104027931
 40
0.8801315506835851
 40
1.0
 40
1.0
 40
1.0
 40
1.0
 10
751.1734671087673
 20
605.756344696544
 30
0.0
 10
751.2528624381807
 20
605.8271331894484
 30
0.0
 10
751.3921384899685
 20
605.9513110457102
 30
0.0
 10
751.4785055366891
 20
606.2058718363002
 30
0.0
 10
751.4796254349465
 20
606.4270522835402
 30
0.0
 10
751.4289568519504
 20
606.6124987584792
 30
0.0
 10
751.3639467484261
 20
606.711498023888
 30
0.0
 10
751.3340979310168
 20
606.7569526661151
 30
0.0
  0
LINE
  5
10E
330
1F
100
AcDbEntity
  8
0
  6
Continuous
 62
     7
370
    25
100
AcDbLine
 10
750.6842801037
 20
607.6113536873
 30
0.0
 11
751.334097931
 21
606.7569526661
 31
0.0
  0
LINE
  5
10F
330
1F
100
AcDbEntity
  8
0
  6
Continuous
 62
     7
370
    25
100
AcDbLine
 10
750.6842801037
 20
607.6113536873
 30
0.0
 11
750.0344622748
 21
608.4657547073
 31
0.0
  0
SPLINE
  5
110
330
1F
100
AcDbEntity
  8
0
  6
Continuous
 62
     7
370
    25
100
AcDbSpline
210
0.0
220
0.0
230
1.0
 70
     8
 71
     3
 72
    12
 73
     8
 74
     0
 42
0.000000001
 43
0.00000001
 40
0.0
 40
0.0
 40
0.0
 40
0.0
 40
0.1369201190564413
 40
0.2732892224798682
 40
0.4609277104377467
 40
0.7173042534523937
 40
1.0
 40
1.0
 40
1.0
 40
1.0
 10
750.0344622748436
 20
608.4657547073296
 30
0.0
 10
749.9929878311327
 20
608.5121820690895
 30
0.0
 10
749.9102058517377
 20
608.6048499522657
 30
0.0
 10
749.735255677437
 20
608.702501475762
 30
0.0
 10
749.5142451656164
 20
608.7554171058669
 30
0.0
 10
749.2541110082192
 20
608.7284934590645
 30
0.0
 10
749.1053249714048
 20
608.6298978971234
 30
0.0
 10
749.0272998520145
 20
608.5781932435382
 30
0.0
  0
SPLINE
  5
111
330
1F
100
AcDbEntity
  8
0
  6
Continuous
 62
     7
370
    25
100
AcDbSpline
210
0.0
220
0.0
230
1.0
 70
     8
 71
     3
 72
    11
 73
     7
 74
     0
 42
0.000000001
 43
0.00000001
 40
0.0
 40
0.0
 40
0.0
 40
0.0
 40
0.2603296700665834
 40
0.5282089223405583
 40
0.7614183595493681
 40
1.0
 40
1.0
 40
1.0
 40
1.0
 10
736.2972214066231
 20
597.8945198112482
 30
0.0
 10
737.5203483589431
 20
598.9210247915447
 30
0.0
 10
740.0020730475098
 20
601.0038034824292
 30
0.0
 10
743.3866678312114
 20
603.8443127163795
 30
0.0
 10
746.4584220929064
 20
606.4222716456919
 30
0.0
 10
748.1645315414356
 20
607.8541179822225
 30
0.0
 10
749.0272998520145
 20
608.5781932435382
 30
0.0
  0
SPLINE
  5
112
330
1F
100
AcDbEntity
  8
0
  6
Continuous
 62
     7
370
    25
100
AcDbSpline
210
0.0
220
0.0
230
1.0
 70
     8
 71
     3
 72
    12
 73
     8
 74
     0
 42
0.000000001
 43
0.00000001
 40
0.0
 40
0.0
 40
0.0
 40
0.0
 40
0.2229001251907732
 40
0.4458326919246653
 40
0.6679313601744261
 40
0.8889145873855718
 40
1.0
 40
1.0
 40
1.0
 40
1.0
 10
736.2972214066231
 20
597.8945198112482
 30
0.0
 10
736.2417517581658
 20
597.8378119407064
 30
0.0
 10
736.1308043880348
 20
597.7243879461915
 30
0.0
 10
736.0477513219387
 20
597.4959694299946
 30
0.0
 10
736.0413535338989
 20
597.2572044304194
 30
0.0
 10
736.1012380475223
 20
597.0645993622497
 30
0.0
 10
736.1677905401111
 20
596.9671672105708
 30
0.0
 10
736.1900540429328
 20
596.9345736757615
 30
0.0
  0
SPLINE
  5
113
330
1F
100
AcDbEntity
  8
0
  6
Continuous
 62
     7
370
    25
100
AcDbSpline
210
0.0
220
0.0
230
1.0
 70
    24
 71
     3
 72
     9
 73
     5
 74
     0
 42
0.000000001
 43
0.00000001
 40
0.0
 40
0.0
 40
0.0
 40
0.0
 40
0.4999999145895417
 40
1.0
 40
1.0
 40
1.0
 40
1.0
 10
736.5243117400165
 20
596.4950810901131
 30
0.0
 10
736.4686021333522
 20
596.5683298418753
 30
0.0
 10
736.357182900991
 20
596.7148273704248
 30
0.0
 10
736.2457636686298
 20
596.8613248989743
 30
0.0
 10
736.1900540429328
 20
596.9345736757615
 30
0.0
  0
SPLINE
  5
114
330
1F
100
AcDbEntity
  8
0
  6
Continuous
 62
     7
370
    25
100
AcDbSpline
210
0.0
220
0.0
230
1.0
 70
     8
 71
     3
 72
    19
 73
    15
 74
     0
 42
0.000000001
 43
0.00000001
 40
0.0
 40
0.0
 40
0.0
 40
0.0
 40
0.0903184215815982
 40
0.2045631923303831
 40
0.2714198874793251
 40
0.3439361549146844
 40
0.420785504056542
 40
0.5
 40
0.5792144959434581
 40
0.6560638450853157
 40
0.7285801125206752
 40
0.7954368076696171
 40
0.9096815784184019
 40
1.0
 40
1.0
 40
1.0
 40
1.0
 10
713.7716943959208
 20
588.6117570945493
 30
0.0
 10
714.151673554277
 20
589.290529091573
 30
0.0
 10
715.0122925541576
 20
590.8278872976201
 30
0.0
 10
716.9044483391909
 20
592.3042276385919
 30
0.0
 10
718.914147269843
 20
593.1469768369878
 30
0.0
 10
720.7541259669088
 20
593.4743937583054
 30
0.0
 10
722.7259067899425
 20
593.3599218809076
 30
0.0
 10
724.6681903248729
 20
592.7527438445848
 30
0.0
 10
726.4011625564185
 20
591.6860021970684
 30
0.0
 10
727.7817910044389
 20
590.2735969742959
 30
0.0
 10
728.7425368429685
 20
588.6705714349581
 30
0.0
 10
729.4259111548681
 20
586.6012441159735
 30
0.0
 10
729.5541389720584
 20
584.2047066253185
 30
0.0
 10
728.9592373220689
 20
582.5463256849143
 30
0.0
 10
728.6965772735468
 20
581.8141199189994
 30
0.0
  0
SPLINE
  5
115
330
1F
100
AcDbEntity
  8
0
  6
Continuous
 62
     7
370
    25
100
AcDbSpline
210
0.0
220
0.0
230
1.0
 70
     8
 71
     3
 72
    19
 73
    15
 74
     0
 42
0.000000001
 43
0.00000001
 40
0.0
 40
0.0
 40
0.0
 40
0.0
 40
0.0903184215815995
 40
0.2045631923303841
 40
0.2714198874793253
 40
0.3439361549146847
 40
0.4207855040565417
 40
0.4999999999999996
 40
0.5792144959434573
 40
0.6560638450853146
 40
0.7285801125206736
 40
0.795436807669615
 40
0.9096815784183996
 40
0.9999999999999999
 40
0.9999999999999999
 40
0.9999999999999999
 40
0.9999999999999999
 10
728.6965772735468
 20
581.8141199189994
 30
0.0
 10
728.3165981151907
 20
581.1353479219754
 30
0.0
 10
727.4559791153101
 20
579.5979897159284
 30
0.0
 10
725.5638233302767
 20
578.1216493749566
 30
0.0
 10
723.5541243996246
 20
577.2789001765607
 30
0.0
 10
721.7141457025589
 20
576.951483255243
 30
0.0
 10
719.7423648795251
 20
577.065955132641
 30
0.0
 10
717.8000813445948
 20
577.6731331689637
 30
0.0
 10
716.0671091130491
 20
578.73987481648
 30
0.0
 10
714.6864806650289
 20
580.1522800392527
 30
0.0
 10
713.7257348264991
 20
581.7553055785903
 30
0.0
 10
713.0423605145994
 20
583.824632897575
 30
0.0
 10
712.9141326974093
 20
586.22117038823
 30
0.0
 10
713.5090343473986
 20
587.8795513286341
 30
0.0
 10
713.7716943959208
 20
588.6117570945493
 30
0.0
  0
ARC
  5
116
330
1F
100
AcDbEntity
  8
0
  6
Continuous
 62
     7
370
    25
100
AcDbCircle
 10
721.2341358347
 20
585.2129385068
 30
0.0
 40
8.91131119600013
100
AcDbArc
 50
337.3074712698
 51
33.6929108129
  0
SPLINE
  5
117
330
1F
100
AcDbEntity
  8
0
  6
Continuous
 62
     7
370
    25
100
AcDbSpline
210
0.0
220
0.0
230
1.0
 70
    24
 71
     3
 72
     9
 73
     5
 74
     0
 42
0.000000001
 43
0.00000001
 40
0.0
 40
0.0
 40
0.0
 40
0.0
 40
0.7733582472124872
 40
1.0
 40
1.0
 40
1.0
 40
1.0
 10
729.4056299326694
 20
581.4911771693245
 30
0.0
 10
729.4206951044926
 20
581.4843156366157
 30
0.0
 10
729.4401753025477
 20
581.4754432508441
 30
0.0
 10
729.4135194248415
 20
581.4875838476398
 30
0.0
 10
729.4074780899962
 20
581.4903354137776
 30
0.0
  0
SPLINE
  5
118
330
1F
100
AcDbEntity
  8
0
  6
Continuous
 62
     7
370
    25
100
AcDbSpline
210
0.0
220
0.0
230
1.0
 70
    24
 71
     3
 72
    13
 73
     9
 74
     0
 42
0.000000001
 43
0.00000001
 40
0.0
 40
0.0
 40
0.0
 40
0.0
 40
0.2017330449261738
 40
0.347349712867063
 40
0.5000000000987838
 40
0.6526502873113782
 40
0.7982669552100827
 40
0.9999999999999999
 40
0.9999999999999999
 40
0.9999999999999999
 40
0.9999999999999999
 10
713.1243629159163
 20
588.9065885226725
 30
0.0
 10
713.089032203788
 20
588.9226801305042
 30
0.0
 10
713.0281987755428
 20
588.950387120016
 30
0.0
 10
713.0544416725347
 20
588.9384346180333
 30
0.0
 10
713.13973205026
 20
588.8995885482118
 30
0.0
 10
713.2866153519802
 20
588.8326895714875
 30
0.0
 10
713.4983183000486
 20
588.7362680557034
 30
0.0
 10
713.6712559986648
 20
588.6575024306189
 30
0.0
 10
713.7716943961254
 20
588.611757094456
 30
0.0
  0
ARC
  5
119
330
1F
100
AcDbEntity
  8
0
  6
Continuous
 62
     7
370
    25
100
AcDbCircle
 10
721.2341358347
 20
585.2129385068
 30
0.0
 40
8.911311196000037
100
AcDbArc
 50
157.3074712684
 51
213.6929108093
  0
CIRCLE
  5
11A
330
1F
100
AcDbEntity
  8
0
  6
Continuous
 62
     7
370
    25
100
AcDbCircle
 10
721.2341358347
 20
585.2129385068
 30
0.0
 40
57.00000000000011
  0
SPLINE
  5
11B
330
1F
100
AcDbEntity
  8
0
  6
Continuous
 62
     7
370
    25
100
AcDbSpline
210
0.0
220
0.0
230
1.0
 70
     8
 71
     3
 72
    35
 73
    31
 74
     0
 42
0.000000001
 43
0.00000001
 40
0.0
 40
0.0
 40
0.0
 40
0.0
 40
0.0282546077220526
 40
0.0583834426637939
 40
0.090349539927827
 40
0.1258616479012821
 40
0.1640104750491878
 40
0.2048405213069453
 40
0.2374624815847439
 40
0.2716127104071186
 40
0.3071914351681351
 40
0.3440550017625768
 40
0.3820151215667328
 40
0.4208413631481724
 40
0.4602672732901844
 40
0.500000004480954
 40
0.5397327356717238
 40
0.5791586458137356
 40
0.6179848873951753
 40
0.6559450071993314
 40
0.692808573793773
 40
0.7283872985547897
 40
0.7625375273771645
 40
0.7951594876549629
 40
0.8359928376182006
 40
0.8741415922595372
 40
0.9096504660940493
 40
0.9416198397637133
 40
0.9717470283705445
 40
1.0
 40
1.0
 40
1.0
 40
1.0
 10
765.241996739493
 20
580.5673069797215
 30
0.0
 10
765.3459182992876
 20
581.8726655689144
 30
0.0
 10
765.5606549003929
 20
584.5699717604405
 30
0.0
 10
765.4098583240947
 20
588.7611532997021
 30
0.0
 10
764.8361051499879
 20
593.2514557707558
 30
0.0
 10
763.6956219026146
 20
598.0200850346337
 30
0.0
 10
761.8731545907482
 20
603.0128872711575
 30
0.0
 10
759.5059237621693
 20
607.6246853716909
 30
0.0
 10
756.7303857228665
 20
611.7738603401375
 30
0.0
 10
753.6908149383521
 20
615.4236250234684
 30
0.0
 10
750.1282781147098
 20
618.8562654835948
 30
0.0
 10
746.0579227130224
 20
621.9701513915714
 30
0.0
 10
741.5202427567681
 20
624.6625107234208
 30
0.0
 10
736.5821465358265
 20
626.8374703236694
 30
0.0
 10
731.3353928719106
 20
628.4143143860525
 30
0.0
 10
725.8918497532464
 20
629.3352553696275
 30
0.0
 10
720.3759988892562
 20
629.5712282906746
 30
0.0
 10
714.915646975106
 20
629.1246656430844
 30
0.0
 10
709.6322623125717
 20
628.0287231249944
 30
0.0
 10
704.6324346659574
 20
626.3431781610354
 30
0.0
 10
700.0016160456853
 20
624.1478201071412
 30
0.0
 10
695.8008663096088
 20
621.5347008929409
 30
0.0
 10
692.0662211321721
 20
618.6000466878439
 30
0.0
 10
688.485397128808
 20
615.121756767772
 30
0.0
 10
685.2073399777647
 20
611.1057420990977
 30
0.0
 10
682.3825595804228
 20
606.6035109358716
 30
0.0
 10
680.2715736108216
 20
602.1781049200309
 30
0.0
 10
678.772895563841
 20
597.906649749052
 30
0.0
 10
677.7503997188691
 20
593.8393129812484
 30
0.0
 10
677.3972035628431
 20
591.1567779496155
 30
0.0
 10
677.2262749299744
 20
589.8585700338272
 30
0.0
  0
SPLINE
  5
11C
330
1F
100
AcDbEntity
  8
0
  6
Continuous
 62
     7
370
    25
100
AcDbSpline
210
0.0
220
0.0
230
1.0
 70
     8
 71
     3
 72
    35
 73
    31
 74
     0
 42
0.000000001
 43
0.00000001
 40
0.0
 40
0.0
 40
0.0
 40
0.0
 40
0.0282546077224728
 40
0.0583834426636159
 40
0.0903495399278291
 40
0.1258616479030815
 40
0.1640104750499176
 40
0.2048405213069399
 40
0.2374624815847384
 40
0.2716127104071134
 40
0.3071914351681301
 40
0.344055001762572
 40
0.3820151215667282
 40
0.4208413631481679
 40
0.46026727329018
 40
0.5000000044809499
 40
0.5397327356717199
 40
0.5791586458137319
 40
0.6179848873951718
 40
0.6559450071993279
 40
0.6928085737937698
 40
0.7283872985547866
 40
0.7625375273771616
 40
0.79515948765496
 40
0.8359928376182583
 40
0.8741415922594717
 40
0.9096504660940467
 40
0.9416198397647852
 40
0.9717470283710187
 40
1.0
 40
1.0
 40
1.0
 40
1.0
 10
677.2262749299744
 20
589.8585700338272
 30
0.0
 10
677.1223533701749
 20
588.5532114446148
 30
0.0
 10
676.9076167690632
 20
585.8559052530969
 30
0.0
 10
677.0584133453935
 20
581.6647237138366
 30
0.0
 10
677.632166519485
 20
577.1744212427179
 30
0.0
 10
678.7726497668755
 20
572.4057919787972
 30
0.0
 10
680.5951170787939
 20
567.4129897422948
 30
0.0
 10
682.9623479073125
 20
562.8011916418263
 30
0.0
 10
685.7378859466024
 20
558.652016673411
 30
0.0
 10
688.7774567311151
 20
555.0022519900793
 30
0.0
 10
692.3399935547578
 20
551.569611529953
 30
0.0
 10
696.4103489564452
 20
548.4557256219764
 30
0.0
 10
700.9480289126996
 20
545.763366290127
 30
0.0
 10
705.8861251336411
 20
543.5884066898784
 30
0.0
 10
711.132878797557
 20
542.0115626274953
 30
0.0
 10
716.5764219162212
 20
541.0906216439204
 30
0.0
 10
722.0922727802115
 20
540.8546487228731
 30
0.0
 10
727.5526246943616
 20
541.3012113704633
 30
0.0
 10
732.8360093568959
 20
542.3971538885536
 30
0.0
 10
737.8358370035103
 20
544.0826988525125
 30
0.0
 10
742.4666556237823
 20
546.2780569064066
 30
0.0
 10
746.6674053598588
 20
548.891176120607
 30
0.0
 10
750.4020505372958
 20
551.8258303257038
 30
0.0
 10
753.9828745406606
 20
555.3041202457784
 30
0.0
 10
757.260931691707
 20
559.3201349144468
 30
0.0
 10
760.0857120890396
 20
563.8223660776791
 30
0.0
 10
762.1966980586657
 20
568.247772093559
 30
0.0
 10
763.6953761056549
 20
572.5192272645629
 30
0.0
 10
764.7178719505996
 20
576.5865640323726
 30
0.0
 10
765.0710681066247
 20
579.2690990639553
 30
0.0
 10
765.241996739493
 20
580.5673069797215
 30
0.0
  0
SPLINE
  5
11D
330
1F
100
AcDbEntity
  8
0
  6
Continuous
 62
     7
370
    25
100
AcDbSpline
210
0.0
220
0.0
230
1.0
 70
    24
 71
     3
 72
    11
 73
     7
 74
     0
 42
0.000000001
 43
0.00000001
 40
0.0
 40
0.0
 40
0.0
 40
0.0
 40
0.2706996604071816
 40
0.5623161110113787
 40
0.7892984430189677
 40
1.0
 40
1.0
 40
1.0
 40
1.0
 10
677.2262749299745
 20
589.8585700338272
 30
0.0
 10
677.7645293303201
 20
589.8017499212287
 30
0.0
 10
678.8826287054055
 20
589.6837192421526
 30
0.0
 10
680.1662504392801
 20
589.5482154145839
 30
0.0
 10
680.9358655282036
 20
589.4669720174433
 30
0.0
 10
681.0482567568249
 20
589.4551075863095
 30
0.0
 10
681.1023620311046
 20
589.4493960347183
 30
0.0
  0
ARC
  5
11E
330
1F
100
AcDbEntity
  8
0
  6
Continuous
 62
     7
370
    25
100
AcDbCircle
 10
721.2341358347
 20
585.2129385068
 30
0.0
 40
40.35476230894881
100
AcDbArc
 50
173.973964907
 51
353.973964907
  0
SPLINE
  5
11F
330
1F
100
AcDbEntity
  8
0
  6
Continuous
 62
     7
370
    25
100
AcDbSpline
210
0.0
220
0.0
230
1.0
 70
    24
 71
     3
 72
    11
 73
     7
 74
     0
 42
0.000000001
 43
0.00000001
 40
0.0
 40
0.0
 40
0.0
 40
0.0
 40
0.2706996603325186
 40
0.5623161109123108
 40
0.7892984429590808
 40
0.9999999999999999
 40
0.9999999999999999
 40
0.9999999999999999
 40
0.9999999999999999
 10
761.3659096383632
 20
580.9764809788301
 30
0.0
 10
761.4501762742142
 20
580.9675854830676
 30
0.0
 10
761.6252207751685
 20
580.9491071422539
 30
0.0
 10
762.6741244278207
 20
580.8383810179338
 30
0.0
 10
763.956009521131
 20
580.7030605165254
 30
0.0
 10
764.8240979250434
 20
580.6114219143628
 30
0.0
 10
765.241996739493
 20
580.5673069797215
 30
0.0
  0
ARC
  5
120
330
1F
100
AcDbEntity
  8
0
  6
Continuous
 62
     7
370
    25
100
AcDbCircle
 10
721.2341358347
 20
585.2129385068
 30
0.0
 40
40.35476230894881
100
AcDbArc
 50
353.973964907
 51
173.973964907
  0
CIRCLE
  5
121
330
1F
100
AcDbEntity
  8
0
  6
Continuous
 62
     7
370
    25
100
AcDbCircle
 10
721.2341358347
 20
585.2129385068
 30
0.0
 40
39.93812333100001
  0
ARC
  5
122
330
1F
100
AcDbEntity
  8
0
  6
Continuous
 62
     7
370
    25
100
AcDbCircle
 10
921.2341358347
 20
645.2129385068
 30
0.0
 40
63.95796437412241
100
AcDbArc
 50
0.0
 51
90.0
  0
LINE
  5
123
330
1F
100
AcDbEntity
  8
0
  6
Continuous
 62
     7
370
    25
100
AcDbLine
 10
921.2341358347
 20
710.2129385068
 30
0.0
 11
921.2341358347
 21
709.1709028809
 31
0.0
  0
ARC
  5
124
330
1F
100
AcDbEntity
  8
0
  6
Continuous
 62
     7
370
    25
100
AcDbCircle
 10
921.2341358347
 20
645.2129385068
 30
0.0
 40
65.0
100
AcDbArc
 50
0.0
 51
90.0
  0
LINE
  5
125
330
1F
100
AcDbEntity
  8
0
  6
Continuous
 62
     7
370
    25
100
AcDbLine
 10
985.1921002089
 20
645.2129385068
 30
0.0
 11
986.2341358347
 21
645.2129385068
 31
0.0
  0
LINE
  5
126
330
1F
100
AcDbEntity
  8
0
  6
Continuous
 62
     7
370
    25
100
AcDbLine
 10
521.2341358347
 20
710.2129385068
 30
0.0
 11
921.2341358347
 21
710.2129385068
 31
0.0
  0
LINE
  5
127
330
1F
100
AcDbEntity
  8
0
  6
Continuous
 62
     7
370
    25
100
AcDbLine
 10
921.2341358347
 20
709.1709028809
 30
0.0
 11
521.2341358347
 21
709.1709028809
 31
0.0
  0
LINE
  5
128
330
1F
100
AcDbEntity
  8
0
  6
Continuous
 62
     7
370
    25
100
AcDbLine
 10
521.2341358347
 20
710.2129385068
 30
0.0
 11
521.2341358347
 21
709.1709028809
 31
0.0
  0
LINE
  5
129
330
1F
100
AcDbEntity
  8
0
  6
Continuous
 62
     7
370
    25
100
AcDbLine
 10
521.2341358347
 20
355.2129385068
 30
0.0
 11
921.2341358347
 21
355.2129385068
 31
0.0
  0
LINE
  5
12A
330
1F
100
AcDbEntity
  8
0
  6
Continuous
 62
     7
370
    25
100
AcDbLine
 10
921.2341358347
 20
355.2129385068
 30
0.0
 11
921.2341358347
 21
353.7129385068
 31
0.0
  0
LINE
  5
12B
330
1F
100
AcDbEntity
  8
0
  6
Continuous
 62
     7
370
    25
100
AcDbLine
 10
921.2341358347
 20
353.7129385068
 30
0.0
 11
521.2341358347
 21
353.7129385068
 31
0.0
  0
LINE
  5
12C
330
1F
100
AcDbEntity
  8
0
  6
Continuous
 62
     7
370
    25
100
AcDbLine
 10
521.2341358347
 20
355.2129385068
 30
0.0
 11
521.2341358347
 21
353.7129385068
 31
0.0
  0
LINE
  5
12D
330
1F
100
AcDbEntity
  8
0
  6
Continuous
 62
     7
370
    25
100
AcDbLine
 10
972.7341358347
 20
645.2129385068
 30
0.0
 11
972.7341358347
 21
405.2129385068
 31
0.0
  0
LINE
  5
12E
330
1F
100
AcDbEntity
  8
0
  6
Continuous
 62
     7
370
    25
100
AcDbLine
 10
972.7341358347
 20
405.2129385068
 30
0.0
 11
971.2341358347
 21
405.2129385068
 31
0.0
  0
LINE
  5
12F
330
1F
100
AcDbEntity
  8
0
  6
Continuous
 62
     7
370
    25
100
AcDbLine
 10
971.2341358347
 20
405.2129385068
 30
0.0
 11
971.2341358347
 21
645.2129385068
 31
0.0
  0
LINE
  5
130
330
1F
100
AcDbEntity
  8
0
  6
Continuous
 62
     7
370
    25
100
AcDbLine
 10
972.7341358347
 20
645.2129385068
 30
0.0
 11
971.2341358347
 21
645.2129385068
 31
0.0
  0
ARC
  5
131
330
1F
100
AcDbEntity
  8
0
  6
Continuous
 62
     7
370
    25
100
AcDbCircle
 10
921.2341358347
 20
405.2129385068
 30
0.0
 40
50.0
100
AcDbArc
 50
270.0
 51
0.0
  0
ARC
  5
132
330
1F
100
AcDbEntity
  8
0
  6
Continuous
 62
     7
370
    25
100
AcDbCircle
 10
921.2341358347
 20
405.2129385068
 30
0.0
 40
51.50000000000011
100
AcDbArc
 50
270.0
 51
0.0
  0
ARC
  5
133
330
1F
100
AcDbEntity
  8
0
  6
Continuous
 62
     7
370
    25
100
AcDbCircle
 10
521.2341358347
 20
405.2129385068
 30
0.0
 40
63.95796437412235
100
AcDbArc
 50
180.0
 51
270.0
  0
LINE
  5
134
330
1F
100
AcDbEntity
  8
0
  6
Continuous
 62
     7
370
    25
100
AcDbLine
 10
521.2341358347
 20
341.2549741327
 30
0.0
 11
521.2341358347
 21
340.2129385068
 31
0.0
  0
ARC
  5
135
330
1F
100
AcDbEntity
  8
0
  6
Continuous
 62
     7
370
    25
100
AcDbCircle
 10
521.2341358347
 20
405.2129385068
 30
0.0
 40
65.0
100
AcDbArc
 50
180.0
 51
270.0
  0
LINE
  5
136
330
1F
100
AcDbEntity
  8
0
  6
Continuous
 62
     7
370
    25
100
AcDbLine
 10
456.2341358347
 20
405.2129385068
 30
0.0
 11
457.2761714606
 21
405.2129385068
 31
0.0
  0
ARC
  5
137
330
1F
100
AcDbEntity
  8
0
  6
Continuous
 62
     7
370
    25
100
AcDbCircle
 10
521.2341358347
 20
645.2129385068
 30
0.0
 40
50.00000000000011
100
AcDbArc
 50
90.0
 51
180.0
  0
LINE
  5
138
330
1F
100
AcDbEntity
  8
0
  6
Continuous
 62
     7
370
    25
100
AcDbLine
 10
471.2341358347
 20
645.2129385068
 30
0.0
 11
469.7341358347
 21
645.2129385068
 31
0.0
  0
ARC
  5
139
330
1F
100
AcDbEntity
  8
0
  6
Continuous
 62
     7
370
    25
100
AcDbCircle
 10
521.2341358347
 20
645.2129385068
 30
0.0
 40
51.50000000000006
100
AcDbArc
 50
90.0
 51
180.0
  0
LINE
  5
13A
330
1F
100
AcDbEntity
  8
0
  6
Continuous
 62
     7
370
    25
100
AcDbLine
 10
521.2341358347
 20
696.7129385068
 30
0.0
 11
521.2341358347
 21
695.2129385068
 31
0.0
  0
LINE
  5
13B
330
1F
100
AcDbEntity
  8
0
  6
Continuous
 62
     7
370
    25
100
AcDbLine
 10
471.2341358347
 20
645.2129385068
 30
0.0
 11
471.2341358347
 21
405.2129385068
 31
0.0
  0
LINE
  5
13C
330
1F
100
AcDbEntity
  8
0
  6
Continuous
 62
     7
370
    25
100
AcDbLine
 10
471.2341358347
 20
405.2129385068
 30
0.0
 11
469.7341358347
 21
405.2129385068
 31
0.0
  0
LINE
  5
13D
330
1F
100
AcDbEntity
  8
0
  6
Continuous
 62
     7
370
    25
100
AcDbLine
 10
469.7341358347
 20
405.2129385068
 30
0.0
 11
469.7341358347
 21
645.2129385068
 31
0.0
  0
LINE
  5
13E
330
1F
100
AcDbEntity
  8
0
  6
Continuous
 62
     7
370
    25
100
AcDbLine
 10
521.2341358347
 20
696.7129385068
 30
0.0
 11
921.2341358347
 21
696.7129385068
 31
0.0
  0
LINE
  5
13F
330
1F
100
AcDbEntity
  8
0
  6
Continuous
 62
     7
370
    25
100
AcDbLine
 10
921.2341358347
 20
696.7129385068
 30
0.0
 11
921.2341358347
 21
695.2129385068
 31
0.0
  0
LINE
  5
140
330
1F
100
AcDbEntity
  8
0
  6
Continuous
 62
     7
370
    25
100
AcDbLine
 10
921.2341358347
 20
695.2129385068
 30
0.0
 11
521.2341358347
 21
695.2129385068
 31
0.0
  0
ARC
  5
141
330
1F
100
AcDbEntity
  8
0
  6
Continuous
 62
     7
370
    25
100
AcDbCircle
 10
521.2341358347
 20
405.2129385068
 30
0.0
 40
50.0
100
AcDbArc
 50
180.0
 51
270.0
  0
ARC
  5
142
330
1F
100
AcDbEntity
  8
0
  6
Continuous
 62
     7
370
    25
100
AcDbCircle
 10
521.2341358347
 20
405.2129385068
 30
0.0
 40
51.50000000000006
100
AcDbArc
 50
180.0
 51
270.0
  0
ARC
  5
143
330
1F
100
AcDbEntity
  8
0
  6
Continuous
 62
     7
370
    25
100
AcDbCircle
 10
921.2341358347
 20
645.2129385068
 30
0.0
 40
51.50000000000011
100
AcDbArc
 50
0.0
 51
90.0
  0
ARC
  5
144
330
1F
100
AcDbEntity
  8
0
  6
Continuous
 62
     7
370
    25
100
AcDbCircle
 10
921.2341358347
 20
645.2129385068
 30
0.0
 40
50.0
100
AcDbArc
 50
0.0
 51
90.0
  0
LINE
  5
145
330
1F
100
AcDbEntity
  8
0
  6
Continuous
 62
     7
370
    25
100
AcDbLine
 10
985.1921002089
 20
405.2129385068
 30
0.0
 11
985.1921002089
 21
645.2129385068
 31
0.0
  0
LINE
  5
146
330
1F
100
AcDbEntity
  8
0
  6
Continuous
 62
     7
370
    25
100
AcDbLine
 10
986.2341358347
 20
645.2129385068
 30
0.0
 11
986.2341358347
 21
405.2129385068
 31
0.0
  0
LINE
  5
147
330
1F
100
AcDbEntity
  8
0
  6
Continuous
 62
     7
370
    25
100
AcDbLine
 10
985.1921002089
 20
405.2129385068
 30
0.0
 11
986.2341358347
 21
405.2129385068
 31
0.0
  0
ARC
  5
148
330
1F
100
AcDbEntity
  8
0
  6
Continuous
 62
     7
370
    25
100
AcDbCircle
 10
921.2341358347
 20
405.2129385068
 30
0.0
 40
63.95796437412235
100
AcDbArc
 50
270.0
 51
0.0
  0
ARC
  5
149
330
1F
100
AcDbEntity
  8
0
  6
Continuous
 62
     7
370
    25
100
AcDbCircle
 10
921.2341358347
 20
405.2129385068
 30
0.0
 40
65.0
100
AcDbArc
 50
270.0
 51
0.0
  0
LINE
  5
14A
330
1F
100
AcDbEntity
  8
0
  6
Continuous
 62
     7
370
    25
100
AcDbLine
 10
921.2341358347
 20
341.2549741327
 30
0.0
 11
921.2341358347
 21
340.2129385068
 31
0.0
  0
LINE
  5
14B
330
1F
100
AcDbEntity
  8
0
  6
Continuous
 62
     7
370
    25
100
AcDbLine
 10
456.2341358347
 20
405.2129385068
 30
0.0
 11
456.2341358347
 21
645.2129385068
 31
0.0
  0
LINE
  5
14C
330
1F
100
AcDbEntity
  8
0
  6
Continuous
 62
     7
370
    25
100
AcDbLine
 10
456.2341358347
 20
645.2129385068
 30
0.0
 11
457.2761714606
 21
645.2129385068
 31
0.0
  0
LINE
  5
14D
330
1F
100
AcDbEntity
  8
0
  6
Continuous
 62
     7
370
    25
100
AcDbLine
 10
457.2761714606
 20
645.2129385068
 30
0.0
 11
457.2761714606
 21
405.2129385068
 31
0.0
  0
LINE
  5
14E
330
1F
100
AcDbEntity
  8
0
  6
Continuous
 62
     7
370
    25
100
AcDbLine
 10
521.2341358347
 20
341.2549741327
 30
0.0
 11
921.2341358347
 21
341.2549741327
 31
0.0
  0
ARC
  5
14F
330
1F
100
AcDbEntity
  8
0
  6
Continuous
 62
     7
370
    25
100
AcDbCircle
 10
521.2341358347
 20
645.2129385068
 30
0.0
 40
63.9579643741223
100
AcDbArc
 50
90.0
 51
180.0
  0
LINE
  5
150
330
1F
100
AcDbEntity
  8
0
  6
Continuous
 62
     7
370
    25
100
AcDbLine
 10
921.2341358347
 20
340.2129385068
 30
0.0
 11
521.2341358347
 21
340.2129385068
 31
0.0
  0
ARC
  5
151
330
1F
100
AcDbEntity
  8
0
  6
Continuous
 62
     7
370
    25
100
AcDbCircle
 10
521.2341358347
 20
645.2129385068
 30
0.0
 40
65.0
100
AcDbArc
 50
90.0
 51
180.0
  0
LINE
  5
152
330
1F
100
AcDbEntity
  8
0
  6
Continuous
 62
     7
370
    25
100
AcDbLine
 10
921.2341358347
 20
355.2129385068
 30
0.0
 11
921.2341358347
 21
363.7967761577
 31
0.0
  0
SPLINE
  5
153
330
1F
100
AcDbEntity
  8
0
  6
Continuous
 62
     7
370
    25
100
AcDbSpline
210
0.0
220
0.0
230
1.0
 70
     8
 71
     3
 72
    24
 73
    20
 74
     0
 42
0.000000001
 43
0.00000001
 40
0.0
 40
0.0
 40
0.0
 40
0.0
 40
0.0521041870350362
 40
0.1045626098667229
 40
0.1581371325679106
 40
0.2120970423089328
 40
0.2643657511742686
 40
0.3169921634902279
 40
0.3701722106843524
 40
0.4241101895931064
 40
0.5286911050943051
 40
0.5817536661568714
 40
0.6355691046447274
 40
0.7401236692349572
 40
0.7931723772304499
 40
0.8469732659581061
 40
0.8850301176466566
 40
0.9615246339120321
 40
1.0
 40
1.0
 40
1.0
 40
1.0
 10
962.6570222202755
 20
405.2129385067743
 30
0.0
 10
962.6318942622596
 20
404.0826852093898
 30
0.0
 10
962.5814675111619
 20
401.8144944686818
 30
0.0
 10
962.1484041909649
 20
398.4067125639126
 30
0.0
 10
961.4449037107698
 20
395.0059230902093
 30
0.0
 10
960.4521297194625
 20
391.6809581705809
 30
0.0
 10
959.194325430051
 20
388.469801396364
 30
0.0
 10
957.683174797102
 20
385.3884511203632
 30
0.0
 10
955.9022286893903
 20
382.4120357571182
 30
0.0
 10
953.2195178236025
 20
378.6811849697484
 30
0.0
 10
950.0809436943509
 20
375.3003377353682
 30
0.0
 10
946.5652988830589
 20
372.3491450013955
 30
0.0
 10
942.8150392006157
 20
369.7032501850786
 30
0.0
 10
938.747100604367
 20
367.5352254859848
 30
0.0
 10
934.461813361606
 20
365.8954286644376
 30
0.0
 10
931.4389442611034
 20
365.0203700842848
 30
0.0
 10
927.8663581194853
 20
364.2645686520946
 30
0.0
 10
924.5618314996084
 20
363.8521110595676
 30
0.0
 10
922.0685331864665
 20
363.8106510129334
 30
0.0
 10
921.2341358347339
 20
363.7967761577139
 30
0.0
  0
LINE
  5
154
330
1F
100
AcDbEntity
  8
0
  6
Continuous
 62
     7
370
    25
100
AcDbLine
 10
971.2341358347
 20
405.2129385068
 30
0.0
 11
962.6570222203
 21
405.2129385068
 31
0.0
  0
LINE
  5
155
330
1F
100
AcDbEntity
  8
0
  6
Continuous
 62
     7
370
    25
100
AcDbLine
 10
471.2341358347
 20
645.2129385068
 30
0.0
 11
480.557051116
 21
645.2129385068
 31
0.0
  0
SPLINE
  5
156
330
1F
100
AcDbEntity
  8
0
  6
Continuous
 62
     7
370
    25
100
AcDbSpline
210
0.0
220
0.0
230
1.0
 70
     8
 71
     3
 72
    11
 73
     7
 74
     0
 42
0.000000001
 43
0.00000001
 40
0.0
 40
0.0
 40
0.0
 40
0.0
 40
0.2497427515823357
 40
0.4995800743627982
 40
0.749731850635621
 40
0.9999999999999999
 40
0.9999999999999999
 40
0.9999999999999999
 40
0.9999999999999999
 10
479.8112494491921
 20
405.2129385067742
 30
0.0
 10
479.9752599916878
 20
425.1718276826829
 30
0.0
 10
480.3033431832807
 20
465.0971639558041
 30
0.0
 10
480.5845235878509
 20
525.081634831437
 30
0.0
 10
480.6985099139895
 20
585.1331448657793
 30
0.0
 10
480.6042113584153
 20
625.1832360651923
 30
0.0
 10
480.5570511160225
 20
645.2129385067743
 30
0.0
  0
LINE
  5
157
330
1F
100
AcDbEntity
  8
0
  6
Continuous
 62
     7
370
    25
100
AcDbLine
 10
471.2341358347
 20
405.2129385068
 30
0.0
 11
479.8112494492
 21
405.2129385068
 31
0.0
  0
SPLINE
  5
158
330
1F
100
AcDbEntity
  8
0
  6
Continuous
 62
     7
370
    25
100
AcDbSpline
210
0.0
220
0.0
230
1.0
 70
     8
 71
     3
 72
    24
 73
    20
 74
     0
 42
0.000000001
 43
0.00000001
 40
0.0
 40
0.0
 40
0.0
 40
0.0
 40
0.0521696152823487
 40
0.10469478481596
 40
0.1583403506555242
 40
0.2123728236470857
 40
0.3172953054477375
 40
0.3705362944546075
 40
0.4245378232641144
 40
0.5291832686947088
 40
0.5822795496306697
 40
0.6361301678669127
 40
0.688262810163239
 40
0.7407503613211541
 40
0.7937870960539604
 40
0.84757553703841
 40
0.885480938906316
 40
0.9616745166180288
 40
1.0
 40
1.0
 40
1.0
 40
1.0
 10
521.2341358347339
 20
363.7967761577139
 30
0.0
 10
520.1024683325785
 20
363.8217894177587
 30
0.0
 10
517.8314206167742
 20
363.8719864120009
 30
0.0
 10
514.4193458918928
 20
364.305554943597
 30
0.0
 10
511.013948810823
 20
365.0104720158881
 30
0.0
 10
506.5919334761806
 20
366.3313649107171
 30
0.0
 10
502.3583697558567
 20
368.1968360589011
 30
0.0
 10
498.4077207844629
 20
370.5638873288127
 30
0.0
 10
494.6748316103287
 20
373.2512575231514
 30
0.0
 10
491.2936482573052
 20
376.394704012752
 30
0.0
 10
488.3434201968579
 20
379.9145439390064
 30
0.0
 10
486.354596602767
 20
382.7388336932612
 30
0.0
 10
484.6150554101002
 20
385.7070468261794
 30
0.0
 10
483.1329193300681
 20
388.7924670672718
 30
0.0
 10
481.8992597308395
 20
392.0236559507381
 30
0.0
 10
481.0277889441928
 20
395.0433694598134
 30
0.0
 10
480.2763984465626
 20
398.6066614617648
 30
0.0
 10
479.8666683949631
 20
401.8982436500269
 30
0.0
 10
479.8251456460924
 20
404.3817849769941
 30
0.0
 10
479.8112494491921
 20
405.2129385067742
 30
0.0
  0
LINE
  5
159
330
1F
100
AcDbEntity
  8
0
  6
Continuous
 62
     7
370
    25
100
AcDbLine
 10
521.2341358347
 20
355.2129385068
 30
0.0
 11
521.2341358347
 21
363.7967761577
 31
0.0
  0
LINE
  5
15A
330
1F
100
AcDbEntity
  8
0
  6
Continuous
 62
     7
370
    25
100
AcDbLine
 10
971.2341358347
 20
645.2129385068
 30
0.0
 11
961.9112205534
 21
645.2129385068
 31
0.0
  0
SPLINE
  5
15B
330
1F
100
AcDbEntity
  8
0
  6
Continuous
 62
     7
370
    25
100
AcDbSpline
210
0.0
220
0.0
230
1.0
 70
     8
 71
     3
 72
    24
 73
    20
 74
     0
 42
0.000000001
 43
0.00000001
 40
0.0
 40
0.0
 40
0.0
 40
0.0
 40
0.0525319039029891
 40
0.1054264347855877
 40
0.1594643557354959
 40
0.2138972944482138
 40
0.2663467621935
 40
0.319157180925194
 40
0.3731055361501621
 40
0.4274469840531204
 40
0.5326982264318548
 40
0.5861101080263501
 40
0.6402890172248314
 40
0.6926421684263778
 40
0.7453543519568545
 40
0.7986222522396728
 40
0.85265097026899
 40
0.9258294903830394
 40
1.0
 40
1.0
 40
1.0
 40
1.0
 10
921.2341358347338
 20
685.8437583265202
 30
0.0
 10
922.3525195723563
 20
685.8188691340562
 30
0.0
 10
924.5970072345101
 20
685.7689189393892
 30
0.0
 10
927.9693026177794
 20
685.3375516455865
 30
0.0
 10
931.3345957108696
 20
684.6363544632715
 30
0.0
 10
934.6185671828075
 20
683.6481809984039
 30
0.0
 10
937.7834606507798
 20
682.399009540988
 30
0.0
 10
940.8249962576496
 20
680.8966792917408
 30
0.0
 10
943.7647608642382
 20
679.1235199588874
 30
0.0
 10
947.4464563818802
 20
676.4514898283873
 30
0.0
 10
950.7709843062427
 20
673.3329103667405
 30
0.0
 10
953.6656604555208
 20
669.8430712213334
 30
0.0
 10
955.612551873772
 20
667.0451684950513
 30
0.0
 10
957.3107335776434
 20
664.1075748906292
 30
0.0
 10
958.7520619413472
 20
661.057297947402
 30
0.0
 10
959.9487153977926
 20
657.864016878816
 30
0.0
 10
960.9828313321202
 20
654.1617164197187
 30
0.0
 10
961.7548761949135
 20
649.9304009571252
 30
0.0
 10
961.8588723913725
 20
646.7924677666821
 30
0.0
 10
961.9112205534453
 20
645.2129385067743
 30
0.0
  0
LINE
  5
15C
330
1F
100
AcDbEntity
  8
0
  6
Continuous
 62
     7
370
    25
100
AcDbLine
 10
921.2341358347
 20
695.2129385068
 30
0.0
 11
921.2341358347
 21
685.8437583265
 31
0.0
  0
LINE
  5
15D
330
1F
100
AcDbEntity
  8
0
  6
Continuous
 62
     7
370
    25
100
AcDbLine
 10
521.2341358347
 20
695.2129385068
 30
0.0
 11
521.2341358347
 21
685.8437583265
 31
0.0
  0
SPLINE
  5
15E
330
1F
100
AcDbEntity
  8
0
  6
Continuous
 62
     7
370
    25
100
AcDbSpline
210
0.0
220
0.0
230
1.0
 70
     8
 71
     3
 72
    24
 73
    20
 74
     0
 42
0.000000001
 43
0.00000001
 40
0.0
 40
0.0
 40
0.0
 40
0.0
 40
0.0521040679694136
 40
0.1045620126352905
 40
0.1581348218798933
 40
0.2120925558970575
 40
0.3169442902948337
 40
0.3701473700573801
 40
0.4241084168848059
 40
0.4762522950415762
 40
0.5287508479914313
 40
0.5823668234960747
 40
0.6363686101831071
 40
0.6886525834844941
 40
0.741294075081813
 40
0.7950622454309044
 40
0.8492194968849816
 40
0.9053942167729832
 40
1.0
 40
1.0
 40
1.0
 40
1.0
 10
480.5570511160225
 20
645.2129385067743
 30
0.0
 10
480.5827810650493
 20
646.3222183152978
 30
0.0
 10
480.6344157139375
 20
648.5483118599132
 30
0.0
 10
481.0624258334706
 20
651.8923994855592
 30
0.0
 10
481.7558940411392
 20
655.2296469833263
 30
0.0
 10
483.0535321482324
 20
659.5643808297882
 30
0.0
 10
484.8846151477179
 20
663.7150591322832
 30
0.0
 10
487.2068247342871
 20
667.5887825248076
 30
0.0
 10
489.1909689325145
 20
670.3435860035202
 30
0.0
 10
491.3877168008663
 20
672.9114647136324
 30
0.0
 10
493.7829332201977
 20
675.2850584037018
 30
0.0
 10
496.3980973530334
 20
677.4762737564234
 30
0.0
 10
499.185431758684
 20
679.4359795495491
 30
0.0
 10
502.1084269672461
 20
681.1456476315918
 30
0.0
 10
505.1579345597559
 20
682.6060009586012
 30
0.0
 10
508.3562854154491
 20
683.8224950929168
 30
0.0
 10
511.7186698783441
 20
684.7770107911855
 30
0.0
 10
516.0055834806326
 20
685.6350502931842
 30
0.0
 10
519.2183292549246
 20
685.7632934103514
 30
0.0
 10
521.2341358347338
 20
685.8437583265202
 30
0.0
  0
SPLINE
  5
15F
330
1F
100
AcDbEntity
  8
0
  6
Continuous
 62
     7
370
    25
100
AcDbSpline
210
0.0
220
0.0
230
1.0
 70
     8
 71
     3
 72
    11
 73
     7
 74
     0
 42
0.000000001
 43
0.00000001
 40
0.0
 40
0.0
 40
0.0
 40
0.0
 40
0.2498499782042111
 40
0.4997755044660255
 40
0.749867531475993
 40
1.0
 40
1.0
 40
1.0
 40
1.0
 10
744.1611921918252
 20
684.5930125361352
 30
0.0
 10
758.9229016064278
 20
684.6381617410791
 30
0.0
 10
788.4507839880464
 20
684.728473802898
 30
0.0
 10
832.7268935619423
 20
685.0187465730183
 30
0.0
 10
876.9960994779248
 20
685.3813276207704
 30
0.0
 10
906.4873289593221
 20
685.6896064501587
 30
0.0
 10
921.2341358347338
 20
685.8437583265202
 30
0.0
  0
SPLINE
  5
160
330
1F
100
AcDbEntity
  8
0
  6
Continuous
 62
     7
370
    25
100
AcDbSpline
210
0.0
220
0.0
230
1.0
 70
     8
 71
     3
 72
    11
 73
     7
 74
     0
 42
0.000000001
 43
0.00000001
 40
0.0
 40
0.0
 40
0.0
 40
0.0
 40
0.2499755009218281
 40
0.4999603884292751
 40
0.7499752097421039
 40
1.0
 40
1.0
 40
1.0
 40
1.0
 10
698.3070794776429
 20
684.5930125361351
 30
0.0
 10
702.1277668264845
 20
684.5862934808488
 30
0.0
 10
709.7692849910625
 20
684.5728551179755
 30
0.0
 10
721.2327769530266
 20
684.5674009073815
 30
0.0
 10
732.6970224088815
 20
684.5728522337017
 30
0.0
 10
740.3397514749036
 20
684.5862923460087
 30
0.0
 10
744.1611921918252
 20
684.5930125361352
 30
0.0
  0
SPLINE
  5
161
330
1F
100
AcDbEntity
  8
0
  6
Continuous
 62
     7
370
    25
100
AcDbSpline
210
0.0
220
0.0
230
1.0
 70
     8
 71
     3
 72
    11
 73
     7
 74
     0
 42
0.000000001
 43
0.00000001
 40
0.0
 40
0.0
 40
0.0
 40
0.0
 40
0.2498854993524956
 40
0.4998100756035832
 40
0.7498734711066669
 40
1.0
 40
1.0
 40
1.0
 40
1.0
 10
521.2341358347337
 20
685.8437583265203
 30
0.0
 10
535.9663785910346
 20
685.6897522267259
 30
0.0
 10
565.4331679202154
 20
685.3817159437838
 30
0.0
 10
609.6860101550187
 20
685.0191576679412
 30
0.0
 10
653.9766672290933
 20
684.7286458778489
 30
0.0
 10
683.5290320397597
 20
684.6382274542091
 30
0.0
 10
698.3070794776429
 20
684.5930125361351
 30
0.0
  0
SPLINE
  5
162
330
1F
100
AcDbEntity
  8
0
  6
Continuous
 62
     7
370
    25
100
AcDbSpline
210
0.0
220
0.0
230
1.0
 70
     8
 71
     3
 72
    17
 73
    13
 74
     0
 42
0.000000001
 43
0.00000001
 40
0.0
 40
0.0
 40
0.0
 40
0.0
 40
0.1073802933874055
 40
0.2147607566167813
 40
0.3221368944420754
 40
0.4295072075045155
 40
0.536873532328753
 40
0.644238223526614
 40
0.7516036621099039
 40
0.8589722343022377
 40
0.966346082313868
 40
1.0
 40
1.0
 40
1.0
 40
1.0
 10
745.7341358347338
 20
695.1565302680935
 30
0.0
 10
745.7120216871492
 20
695.1591443097237
 30
0.0
 10
745.6677933570023
 20
695.1643723971188
 30
0.0
 10
745.3230029148664
 20
695.1706911583068
 30
0.0
 10
744.8152535243503
 20
695.1752175007761
 30
0.0
 10
744.181300161921
 20
695.1776770443396
 30
0.0
 10
743.498074919335
 20
695.1780111832945
 30
0.0
 10
742.841314237771
 20
695.1762092323297
 30
0.0
 10
742.2847299274804
 20
695.1723183138685
 30
0.0
 10
741.893610151665
 20
695.1665029428834
 30
0.0
 10
741.745981417399
 20
695.1608252108076
 30
0.0
 10
741.7364179873684
 20
695.1573577254763
 30
0.0
 10
741.7341358347338
 20
695.1565302680935
 30
0.0
  0
LINE
  5
163
330
1F
100
AcDbEntity
  8
0
  6
Continuous
 62
     7
370
    25
100
AcDbLine
 10
741.7341358347
 20
695.1565302681
 30
0.0
 11
741.7341358347
 21
694.7739117915
 31
0.0
  0
SPLINE
  5
164
330
1F
100
AcDbEntity
  8
0
  6
Continuous
 62
     7
370
    25
100
AcDbSpline
210
0.0
220
0.0
230
1.0
 70
     8
 71
     3
 72
    17
 73
    13
 74
     0
 42
0.000000001
 43
0.00000001
 40
0.0
 40
0.0
 40
0.0
 40
0.0
 40
0.1074493298309448
 40
0.21489940689416
 40
0.3223261097096516
 40
0.4296934144170242
 40
0.5369998767812659
 40
0.644275138185986
 40
0.7515653913041354
 40
0.8589087734002734
 40
0.9663157907311138
 40
1.0
 40
1.0
 40
1.0
 40
1.0
 10
741.7341358347338
 20
694.7739117914888
 30
0.0
 10
741.7562680787024
 20
694.7663976410159
 30
0.0
 10
741.8005327205534
 20
694.7513692878147
 30
0.0
 10
742.1456058996633
 20
694.7307292636568
 30
0.0
 10
742.6537237839158
 20
694.7147675783593
 30
0.0
 10
743.2879061253492
 20
694.7055223122312
 30
0.0
 10
743.9710131723157
 20
694.7042490118796
 30
0.0
 10
744.6273888667216
 20
694.7111067652811
 30
0.0
 10
745.1836145552056
 20
694.7251719500472
 30
0.0
 10
745.574616200489
 20
694.7445624823781
 30
0.0
 10
745.722278540929
 20
694.761810003689
 30
0.0
 10
745.731850596171
 20
694.7715794319628
 30
0.0
 10
745.7341358347338
 20
694.7739117914888
 30
0.0
  0
LINE
  5
165
330
1F
100
AcDbEntity
  8
0
  6
Continuous
 62
     7
370
    25
100
AcDbLine
 10
745.7341358347
 20
694.7739117915
 30
0.0
 11
745.7341358347
 21
695.1565302681
 31
0.0
  0
SPLINE
  5
166
330
1F
100
AcDbEntity
  8
0
  6
Continuous
 62
     7
370
    25
100
AcDbSpline
210
0.0
220
0.0
230
1.0
 70
     8
 71
     3
 72
    17
 73
    13
 74
     0
 42
0.000000001
 43
0.00000001
 40
0.0
 40
0.0
 40
0.0
 40
0.0
 40
0.1073802933874055
 40
0.2147607566167817
 40
0.3221368944420738
 40
0.4295072075045159
 40
0.5368735323287529
 40
0.6442382235266139
 40
0.7516036621099041
 40
0.8589722343022377
 40
0.966346082313868
 40
1.0
 40
1.0
 40
1.0
 40
1.0
 10
737.7341358347338
 20
695.1565302680935
 30
0.0
 10
737.7120216871492
 20
695.1591443097237
 30
0.0
 10
737.6677933570023
 20
695.1643723971187
 30
0.0
 10
737.3230029148664
 20
695.1706911583069
 30
0.0
 10
736.8152535243503
 20
695.1752175007761
 30
0.0
 10
736.181300161921
 20
695.1776770443396
 30
0.0
 10
735.498074919335
 20
695.1780111832945
 30
0.0
 10
734.841314237771
 20
695.1762092323297
 30
0.0
 10
734.2847299274804
 20
695.1723183138683
 30
0.0
 10
733.893610151665
 20
695.1665029428835
 30
0.0
 10
733.745981417399
 20
695.1608252108075
 30
0.0
 10
733.7364179873684
 20
695.1573577254763
 30
0.0
 10
733.7341358347338
 20
695.1565302680935
 30
0.0
  0
LINE
  5
167
330
1F
100
AcDbEntity
  8
0
  6
Continuous
 62
     7
370
    25
100
AcDbLine
 10
733.7341358347
 20
695.1565302681
 30
0.0
 11
733.7341358347
 21
694.7739117915
 31
0.0
  0
SPLINE
  5
168
330
1F
100
AcDbEntity
  8
0
  6
Continuous
 62
     7
370
    25
100
AcDbSpline
210
0.0
220
0.0
230
1.0
 70
     8
 71
     3
 72
    17
 73
    13
 74
     0
 42
0.000000001
 43
0.00000001
 40
0.0
 40
0.0
 40
0.0
 40
0.0
 40
0.1074493298309447
 40
0.2148994068941601
 40
0.3223261097096518
 40
0.4296934144170237
 40
0.5369998767812669
 40
0.6442751381859864
 40
0.7515653913041357
 40
0.8589087734002736
 40
0.9663157907311138
 40
1.0
 40
1.0
 40
1.0
 40
1.0
 10
733.7341358347338
 20
694.7739117914888
 30
0.0
 10
733.7562680787024
 20
694.7663976410159
 30
0.0
 10
733.8005327205533
 20
694.7513692878148
 30
0.0
 10
734.1456058996633
 20
694.7307292636568
 30
0.0
 10
734.6537237839158
 20
694.7147675783593
 30
0.0
 10
735.2879061253492
 20
694.7055223122314
 30
0.0
 10
735.9710131723157
 20
694.7042490118796
 30
0.0
 10
736.6273888667216
 20
694.7111067652811
 30
0.0
 10
737.1836145552056
 20
694.7251719500472
 30
0.0
 10
737.574616200489
 20
694.7445624823781
 30
0.0
 10
737.722278540929
 20
694.761810003689
 30
0.0
 10
737.731850596171
 20
694.7715794319628
 30
0.0
 10
737.7341358347338
 20
694.7739117914888
 30
0.0
  0
LINE
  5
169
330
1F
100
AcDbEntity
  8
0
  6
Continuous
 62
     7
370
    25
100
AcDbLine
 10
737.7341358347
 20
694.7739117915
 30
0.0
 11
737.7341358347
 21
695.1565302681
 31
0.0
  0
SPLINE
  5
16A
330
1F
100
AcDbEntity
  8
0
  6
Continuous
 62
     7
370
    25
100
AcDbSpline
210
0.0
220
0.0
230
1.0
 70
     8
 71
     3
 72
    17
 73
    13
 74
     0
 42
0.000000001
 43
0.00000001
 40
0.0
 40
0.0
 40
0.0
 40
0.0
 40
0.1073802933874057
 40
0.2147607566167821
 40
0.3221368944420754
 40
0.429507207504516
 40
0.5368735323287527
 40
0.644238223526614
 40
0.7516036621099039
 40
0.8589722343022375
 40
0.966346082313868
 40
1.0
 40
1.0
 40
1.0
 40
1.0
 10
729.7341358347338
 20
695.1565302680935
 30
0.0
 10
729.7120216871491
 20
695.1591443097236
 30
0.0
 10
729.6677933570023
 20
695.1643723971187
 30
0.0
 10
729.3230029148664
 20
695.1706911583068
 30
0.0
 10
728.8152535243503
 20
695.1752175007761
 30
0.0
 10
728.181300161921
 20
695.1776770443395
 30
0.0
 10
727.498074919335
 20
695.1780111832945
 30
0.0
 10
726.841314237771
 20
695.1762092323297
 30
0.0
 10
726.2847299274804
 20
695.1723183138685
 30
0.0
 10
725.8936101516649
 20
695.1665029428834
 30
0.0
 10
725.745981417399
 20
695.1608252108077
 30
0.0
 10
725.7364179873684
 20
695.1573577254763
 30
0.0
 10
725.7341358347338
 20
695.1565302680935
 30
0.0
  0
LINE
  5
16B
330
1F
100
AcDbEntity
  8
0
  6
Continuous
 62
     7
370
    25
100
AcDbLine
 10
725.7341358347
 20
695.1565302681
 30
0.0
 11
725.7341358347
 21
694.7739117915
 31
0.0
  0
SPLINE
  5
16C
330
1F
100
AcDbEntity
  8
0
  6
Continuous
 62
     7
370
    25
100
AcDbSpline
210
0.0
220
0.0
230
1.0
 70
     8
 71
     3
 72
    17
 73
    13
 74
     0
 42
0.000000001
 43
0.00000001
 40
0.0
 40
0.0
 40
0.0
 40
0.0
 40
0.1074493298309446
 40
0.2148994068941599
 40
0.3223261097096511
 40
0.4296934144170234
 40
0.5369998767812671
 40
0.6442751381859863
 40
0.7515653913041367
 40
0.8589087734002736
 40
0.9663157907311137
 40
1.0
 40
1.0
 40
1.0
 40
1.0
 10
725.7341358347338
 20
694.7739117914889
 30
0.0
 10
725.7562680787024
 20
694.766397641016
 30
0.0
 10
725.8005327205533
 20
694.7513692878148
 30
0.0
 10
726.1456058996633
 20
694.7307292636568
 30
0.0
 10
726.6537237839158
 20
694.7147675783593
 30
0.0
 10
727.2879061253492
 20
694.7055223122312
 30
0.0
 10
727.9710131723157
 20
694.7042490118796
 30
0.0
 10
728.6273888667216
 20
694.7111067652811
 30
0.0
 10
729.1836145552056
 20
694.7251719500473
 30
0.0
 10
729.574616200489
 20
694.7445624823782
 30
0.0
 10
729.7222785409289
 20
694.761810003689
 30
0.0
 10
729.731850596171
 20
694.7715794319628
 30
0.0
 10
729.7341358347338
 20
694.7739117914888
 30
0.0
  0
LINE
  5
16D
330
1F
100
AcDbEntity
  8
0
  6
Continuous
 62
     7
370
    25
100
AcDbLine
 10
729.7341358347
 20
694.7739117915
 30
0.0
 11
729.7341358347
 21
695.1565302681
 31
0.0
  0
SPLINE
  5
16E
330
1F
100
AcDbEntity
  8
0
  6
Continuous
 62
     7
370
    25
100
AcDbSpline
210
0.0
220
0.0
230
1.0
 70
     8
 71
     3
 72
    17
 73
    13
 74
     0
 42
0.000000001
 43
0.00000001
 40
0.0
 40
0.0
 40
0.0
 40
0.0
 40
0.1073802933874058
 40
0.2147607566167819
 40
0.3221368944420751
 40
0.4295072075045162
 40
0.5368735323287531
 40
0.6442382235266141
 40
0.7516036621099039
 40
0.8589722343022376
 40
0.9663460823138679
 40
0.9999999999999999
 40
0.9999999999999999
 40
0.9999999999999999
 40
0.9999999999999999
 10
700.7341358347338
 20
695.1565302680935
 30
0.0
 10
700.7120216871492
 20
695.1591443097237
 30
0.0
 10
700.6677933570022
 20
695.1643723971187
 30
0.0
 10
700.3230029148664
 20
695.1706911583069
 30
0.0
 10
699.8152535243503
 20
695.175217500776
 30
0.0
 10
699.181300161921
 20
695.1776770443396
 30
0.0
 10
698.4980749193351
 20
695.1780111832945
 30
0.0
 10
697.841314237771
 20
695.1762092323297
 30
0.0
 10
697.2847299274805
 20
695.1723183138685
 30
0.0
 10
696.8936101516649
 20
695.1665029428835
 30
0.0
 10
696.7459814173991
 20
695.1608252108076
 30
0.0
 10
696.7364179873686
 20
695.1573577254763
 30
0.0
 10
696.7341358347337
 20
695.1565302680935
 30
0.0
  0
LINE
  5
16F
330
1F
100
AcDbEntity
  8
0
  6
Continuous
 62
     7
370
    25
100
AcDbLine
 10
696.7341358347
 20
695.1565302681
 30
0.0
 11
696.7341358347
 21
694.7739117915
 31
0.0
  0
SPLINE
  5
170
330
1F
100
AcDbEntity
  8
0
  6
Continuous
 62
     7
370
    25
100
AcDbSpline
210
0.0
220
0.0
230
1.0
 70
     8
 71
     3
 72
    17
 73
    13
 74
     0
 42
0.000000001
 43
0.00000001
 40
0.0
 40
0.0
 40
0.0
 40
0.0
 40
0.1074493298309444
 40
0.2148994068941596
 40
0.3223261097096513
 40
0.4296934144170238
 40
0.536999876781266
 40
0.6442751381859856
 40
0.7515653913041354
 40
0.8589087734002734
 40
0.9663157907311136
 40
0.9999999999999999
 40
0.9999999999999999
 40
0.9999999999999999
 40
0.9999999999999999
 10
696.7341358347338
 20
694.7739117914888
 30
0.0
 10
696.7562680787024
 20
694.7663976410159
 30
0.0
 10
696.8005327205533
 20
694.7513692878148
 30
0.0
 10
697.1456058996633
 20
694.7307292636568
 30
0.0
 10
697.6537237839158
 20
694.7147675783593
 30
0.0
 10
698.2879061253493
 20
694.7055223122314
 30
0.0
 10
698.9710131723158
 20
694.7042490118796
 30
0.0
 10
699.6273888667216
 20
694.7111067652811
 30
0.0
 10
700.1836145552056
 20
694.7251719500473
 30
0.0
 10
700.574616200489
 20
694.7445624823781
 30
0.0
 10
700.722278540929
 20
694.7618100036891
 30
0.0
 10
700.731850596171
 20
694.7715794319628
 30
0.0
 10
700.7341358347338
 20
694.7739117914888
 30
0.0
  0
LINE
  5
171
330
1F
100
AcDbEntity
  8
0
  6
Continuous
 62
     7
370
    25
100
AcDbLine
 10
700.7341358347
 20
694.7739117915
 30
0.0
 11
700.7341358347
 21
695.1565302681
 31
0.0
  0
SPLINE
  5
172
330
1F
100
AcDbEntity
  8
0
  6
Continuous
 62
     7
370
    25
100
AcDbSpline
210
0.0
220
0.0
230
1.0
 70
     8
 71
     3
 72
    17
 73
    13
 74
     0
 42
0.000000001
 43
0.00000001
 40
0.0
 40
0.0
 40
0.0
 40
0.0
 40
0.1074493298309444
 40
0.2148994068941596
 40
0.3223261097096511
 40
0.4296934144170234
 40
0.5369998767812669
 40
0.644275138185986
 40
0.7515653913041365
 40
0.8589087734002734
 40
0.9663157907311136
 40
1.0
 40
1.0
 40
1.0
 40
1.0
 10
704.7341358347339
 20
694.7739117914888
 30
0.0
 10
704.7562680787024
 20
694.7663976410159
 30
0.0
 10
704.8005327205533
 20
694.7513692878149
 30
0.0
 10
705.1456058996633
 20
694.7307292636567
 30
0.0
 10
705.6537237839158
 20
694.7147675783594
 30
0.0
 10
706.2879061253493
 20
694.7055223122312
 30
0.0
 10
706.9710131723158
 20
694.7042490118796
 30
0.0
 10
707.6273888667216
 20
694.7111067652811
 30
0.0
 10
708.1836145552056
 20
694.7251719500473
 30
0.0
 10
708.574616200489
 20
694.7445624823782
 30
0.0
 10
708.722278540929
 20
694.761810003689
 30
0.0
 10
708.731850596171
 20
694.7715794319628
 30
0.0
 10
708.7341358347338
 20
694.7739117914888
 30
0.0
  0
LINE
  5
173
330
1F
100
AcDbEntity
  8
0
  6
Continuous
 62
     7
370
    25
100
AcDbLine
 10
708.7341358347
 20
694.7739117915
 30
0.0
 11
708.7341358347
 21
695.1565302681
 31
0.0
  0
SPLINE
  5
174
330
1F
100
AcDbEntity
  8
0
  6
Continuous
 62
     7
370
    25
100
AcDbSpline
210
0.0
220
0.0
230
1.0
 70
     8
 71
     3
 72
    17
 73
    13
 74
     0
 42
0.000000001
 43
0.00000001
 40
0.0
 40
0.0
 40
0.0
 40
0.0
 40
0.1073802933874059
 40
0.214760756616782
 40
0.3221368944420753
 40
0.429507207504516
 40
0.5368735323287528
 40
0.6442382235266141
 40
0.7516036621099039
 40
0.8589722343022376
 40
0.9663460823138679
 40
1.0
 40
1.0
 40
1.0
 40
1.0
 10
708.7341358347339
 20
695.1565302680935
 30
0.0
 10
708.7120216871492
 20
695.1591443097237
 30
0.0
 10
708.6677933570022
 20
695.1643723971188
 30
0.0
 10
708.3230029148664
 20
695.1706911583067
 30
0.0
 10
707.8152535243503
 20
695.1752175007761
 30
0.0
 10
707.181300161921
 20
695.1776770443396
 30
0.0
 10
706.4980749193351
 20
695.1780111832945
 30
0.0
 10
705.841314237771
 20
695.1762092323297
 30
0.0
 10
705.2847299274805
 20
695.1723183138685
 30
0.0
 10
704.8936101516649
 20
695.1665029428834
 30
0.0
 10
704.7459814173991
 20
695.1608252108077
 30
0.0
 10
704.7364179873686
 20
695.1573577254763
 30
0.0
 10
704.7341358347339
 20
695.1565302680935
 30
0.0
  0
LINE
  5
175
330
1F
100
AcDbEntity
  8
0
  6
Continuous
 62
     7
370
    25
100
AcDbLine
 10
704.7341358347
 20
695.1565302681
 30
0.0
 11
704.7341358347
 21
694.7739117915
 31
0.0
  0
SPLINE
  5
176
330
1F
100
AcDbEntity
  8
0
  6
Continuous
 62
     7
370
    25
100
AcDbSpline
210
0.0
220
0.0
230
1.0
 70
     8
 71
     3
 72
    17
 73
    13
 74
     0
 42
0.000000001
 43
0.00000001
 40
0.0
 40
0.0
 40
0.0
 40
0.0
 40
0.1073802933874058
 40
0.2147607566167819
 40
0.3221368944420752
 40
0.429507207504516
 40
0.5368735323287527
 40
0.6442382235266142
 40
0.7516036621099041
 40
0.8589722343022377
 40
0.9663460823138691
 40
1.0
 40
1.0
 40
1.0
 40
1.0
 10
716.7341358347339
 20
695.1565302680935
 30
0.0
 10
716.7120216871492
 20
695.1591443097237
 30
0.0
 10
716.6677933570023
 20
695.1643723971187
 30
0.0
 10
716.3230029148664
 20
695.1706911583069
 30
0.0
 10
715.8152535243504
 20
695.1752175007761
 30
0.0
 10
715.181300161921
 20
695.1776770443396
 30
0.0
 10
714.4980749193351
 20
695.1780111832945
 30
0.0
 10
713.841314237771
 20
695.1762092323297
 30
0.0
 10
713.2847299274805
 20
695.1723183138685
 30
0.0
 10
712.8936101516649
 20
695.1665029428835
 30
0.0
 10
712.7459814173991
 20
695.1608252108076
 30
0.0
 10
712.7364179873686
 20
695.1573577254763
 30
0.0
 10
712.7341358347339
 20
695.1565302680935
 30
0.0
  0
LINE
  5
177
330
1F
100
AcDbEntity
  8
0
  6
Continuous
 62
     7
370
    25
100
AcDbLine
 10
712.7341358347
 20
695.1565302681
 30
0.0
 11
712.7341358347
 21
694.7739117915
 31
0.0
  0
SPLINE
  5
178
330
1F
100
AcDbEntity
  8
0
  6
Continuous
 62
     7
370
    25
100
AcDbSpline
210
0.0
220
0.0
230
1.0
 70
     8
 71
     3
 72
    17
 73
    13
 74
     0
 42
0.000000001
 43
0.00000001
 40
0.0
 40
0.0
 40
0.0
 40
0.0
 40
0.1074493298309445
 40
0.2148994068941598
 40
0.3223261097096512
 40
0.4296934144170233
 40
0.5369998767812671
 40
0.644275138185986
 40
0.7515653913041367
 40
0.8589087734002735
 40
0.9663157907311137
 40
1.0
 40
1.0
 40
1.0
 40
1.0
 10
712.7341358347338
 20
694.7739117914889
 30
0.0
 10
712.7562680787024
 20
694.766397641016
 30
0.0
 10
712.8005327205533
 20
694.7513692878148
 30
0.0
 10
713.1456058996633
 20
694.7307292636567
 30
0.0
 10
713.6537237839158
 20
694.7147675783594
 30
0.0
 10
714.2879061253493
 20
694.7055223122313
 30
0.0
 10
714.9710131723158
 20
694.7042490118796
 30
0.0
 10
715.6273888667216
 20
694.7111067652811
 30
0.0
 10
716.1836145552056
 20
694.7251719500473
 30
0.0
 10
716.574616200489
 20
694.7445624823781
 30
0.0
 10
716.722278540929
 20
694.761810003689
 30
0.0
 10
716.731850596171
 20
694.7715794319628
 30
0.0
 10
716.7341358347338
 20
694.7739117914888
 30
0.0
  0
LINE
  5
179
330
1F
100
AcDbEntity
  8
0
  6
Continuous
 62
     7
370
    25
100
AcDbLine
 10
716.7341358347
 20
694.7739117915
 30
0.0
 11
716.7341358347
 21
695.1565302681
 31
0.0
  0
SPLINE
  5
17A
330
1F
100
AcDbEntity
  8
0
  6
Continuous
 62
     7
370
    25
100
AcDbSpline
210
0.0
220
0.0
230
1.0
 70
     8
 71
     3
 72
    17
 73
    13
 74
     0
 42
0.000000001
 43
0.00000001
 40
0.0
 40
0.0
 40
0.0
 40
0.0
 40
0.1074260594320191
 40
0.2148526997280482
 40
0.3222642737223149
 40
0.4296539555188763
 40
0.5370276521416723
 40
0.644394523182502
 40
0.7517645488537401
 40
0.859147378884128
 40
0.9665505465172817
 40
1.0
 40
1.0
 40
1.0
 40
1.0
 10
724.3341358347338
 20
695.0104128713788
 30
0.0
 10
724.2998522537431
 20
695.0181224373775
 30
0.0
 10
724.2312849063866
 20
695.0335416110615
 30
0.0
 10
723.6967415717962
 20
695.0525259077564
 30
0.0
 10
722.9095436824431
 20
695.066289816117
 30
0.0
 10
721.9269211583625
 20
695.0738482578149
 30
0.0
 10
720.8676372203997
 20
695.0748781290406
 30
0.0
 10
719.8510543153275
 20
695.0693225179654
 30
0.0
 10
718.9838170172155
 20
695.057459511805
 30
0.0
 10
718.3951002436686
 20
695.0398685580161
 30
0.0
 10
718.1162859113066
 20
695.0231964128676
 30
0.0
 10
718.1611829289085
 20
695.0127926438025
 30
0.0
 10
718.1718450002984
 20
695.0103219734905
 30
0.0
  0
SPLINE
  5
17B
330
1F
100
AcDbEntity
  8
0
  6
Continuous
 62
     7
370
    25
100
AcDbSpline
210
0.0
220
0.0
230
1.0
 70
     8
 71
     3
 72
    17
 73
    13
 74
     0
 42
0.000000001
 43
0.00000001
 40
0.0
 40
0.0
 40
0.0
 40
0.0
 40
0.0856119386371478
 40
0.1712237512461519
 40
0.2568771165400896
 40
0.3425302961375875
 40
0.4283258997920663
 40
0.5141214032612469
 40
0.599971424277514
 40
0.6858215772529254
 40
0.8428776942331127
 40
1.0
 40
1.0
 40
1.0
 40
1.0
 10
921.2341358347339
 20
363.7967761577139
 30
0.0
 10
909.833847920352
 20
363.9052688084186
 30
0.0
 10
887.0332888737938
 20
364.1222539501177
 30
0.0
 10
852.7996833733185
 20
364.3865286833632
 30
0.0
 10
818.5446382034997
 20
364.599795606277
 30
0.0
 10
784.250589285551
 20
364.7533306939142
 30
0.0
 10
749.9279280368452
 20
364.8430782725268
 30
0.0
 10
715.5743754990086
 20
364.8661218425354
 30
0.0
 10
681.2142934111567
 20
364.8209053930198
 30
0.0
 10
637.3543327741613
 20
364.6776177856945
 30
0.0
 10
584.0047345102346
 20
364.3744647861259
 30
0.0
 10
542.1606071969999
 20
363.9893660771006
 30
0.0
 10
521.2341358347338
 20
363.7967761577138
 30
0.0
  0
SPLINE
  5
17C
330
1F
100
AcDbEntity
  8
0
  6
Continuous
 62
     7
370
    25
100
AcDbSpline
210
0.0
220
0.0
230
1.0
 70
     8
 71
     3
 72
    12
 73
     8
 74
     0
 42
0.000000001
 43
0.00000001
 40
0.0
 40
0.0
 40
0.0
 40
0.0
 40
0.223761870097418
 40
0.4476070636213412
 40
0.6716939816783754
 40
0.8958553448307353
 40
1.0
 40
1.0
 40
1.0
 40
1.0
 10
961.9112205534453
 20
645.2129385067743
 30
0.0
 10
961.867429672571
 20
627.30493182562
 30
0.0
 10
961.7798316041734
 20
591.48224996131
 30
0.0
 10
961.8500379012419
 20
537.7169938087559
 30
0.0
 10
962.0669462180282
 20
483.9399579200035
 30
0.0
 10
962.3599218959775
 20
439.766751225133
 30
0.0
 10
962.5854732258551
 20
413.5343382199201
 30
0.0
 10
962.6570222202755
 20
405.2129385067743
 30
0.0
  0
LWPOLYLINE
  5
17D
330
1F
100
AcDbEntity
  8
0
  6
Continuous
 62
     7
370
    25
100
AcDbPolyline
 90
       14
 70
   128
 43
0.0
 10
521.2341358347
 20
363.7967761577
 10
520.997000948
 20
364.522502855
 10
520.7624794028
 20
365.6218100301
 10
520.5331557407
 20
367.0825827839
 10
520.3115572198
 20
368.8887226909
 10
520.1001259635
 20
371.0203252119
 10
519.9011920468
 20
373.4538990516
 10
519.7169478183
 20
376.1626250439
 10
519.5494237387
 20
379.1166517124
 10
519.400466005
 20
382.2834242482
 10
519.2717162036
 20
385.6280432794
 10
519.1645932199
 20
389.1136494794
 10
519.0802776013
 20
392.7018297745
 10
519.0196985468
 20
396.3530406746
  0
SPLINE
  5
17E
330
1F
100
AcDbEntity
  8
0
  6
Continuous
 62
     7
370
    25
100
AcDbSpline
210
0.0
220
0.0
230
1.0
 70
     8
 71
     3
 72
    17
 73
    13
 74
     0
 42
0.000000001
 43
0.00000001
 40
0.0
 40
0.0
 40
0.0
 40
0.0
 40
0.1570084402521132
 40
0.3140153854817547
 40
0.3996487907617376
 40
0.4852820899461565
 40
0.5709638436427557
 40
0.656645677053035
 40
0.742464184605889
 40
0.8282828488455903
 40
0.9141413681158498
 40
1.0
 40
1.0
 40
1.0
 40
1.0
 10
519.019698546795
 20
396.3530406746099
 30
0.0
 10
540.16464115787
 20
396.5137186816615
 30
0.0
 10
582.4543250394786
 20
396.8350731658007
 30
0.0
 10
636.3424851227057
 20
397.0587799949468
 30
0.0
 10
680.6205041205311
 20
397.1568796883926
 30
0.0
 10
715.2845528534853
 20
397.1860840082026
 30
0.0
 10
749.955838727556
 20
397.1720135440731
 30
0.0
 10
784.6479737375078
 20
397.1120943525441
 30
0.0
 10
819.349841278287
 20
397.0031058378515
 30
0.0
 10
854.0622529410315
 20
396.8410380668024
 30
0.0
 10
888.7653675200909
 20
396.6288676489078
 30
0.0
 10
911.8874995339007
 20
396.4449830395737
 30
0.0
 10
923.4485731226727
 20
396.35304067461
 30
0.0
  0
LWPOLYLINE
  5
17F
330
1F
100
AcDbEntity
  8
0
  6
Continuous
 62
     7
370
    25
100
AcDbPolyline
 90
       14
 70
   128
 43
0.0
 10
921.2341358347
 20
363.7967761577
 10
921.4712707215
 20
364.522502855
 10
921.7057922666
 20
365.6218100301
 10
921.9351159287
 20
367.0825827839
 10
922.1567144496
 20
368.8887226909
 10
922.368145706
 20
371.0203252119
 10
922.5670796227
 20
373.4538990516
 10
922.7513238512
 20
376.1626250439
 10
922.9188479307
 20
379.1166517124
 10
923.0678056645
 20
382.2834242482
 10
923.1965554659
 20
385.6280432794
 10
923.3036784495
 20
389.1136494794
 10
923.3879940682
 20
392.7018297745
 10
923.4485731227
 20
396.3530406746
  0
LWPOLYLINE
  5
180
330
1F
100
AcDbEntity
  8
0
  6
Continuous
 62
     7
370
    25
100
AcDbPolyline
 90
       14
 70
   128
 43
0.0
 10
480.557051116
 20
645.2129385068
 10
481.2949662192
 20
645.2874177419
 10
482.3971672906
 20
645.3610955482
 10
483.8517941682
 20
645.4331791204
 10
485.6431944354
 20
645.502892808
 10
487.7520918476
 20
645.5694864614
 10
490.155793753
 20
645.632243504
 10
492.8284352757
 20
645.6904886428
 10
495.7412576325
 20
645.7435951349
 10
498.8629175905
 20
645.7909915312
 10
502.1598247332
 20
645.8321678261
 10
505.5965029084
 20
645.8666809446
 10
509.1359719671
 20
645.8941595107
 10
512.7401456856
 20
645.9143078431
  0
SPLINE
  5
181
330
1F
100
AcDbEntity
  8
0
  6
Continuous
 62
     7
370
    25
100
AcDbSpline
210
0.0
220
0.0
230
1.0
 70
     8
 71
     3
 72
    12
 73
     8
 74
     0
 42
0.000000001
 43
0.00000001
 40
0.0
 40
0.0
 40
0.0
 40
0.0
 40
0.2238858069532434
 40
0.4478466648128288
 40
0.6720258794602219
 40
0.896272805927266
 40
1.0
 40
1.0
 40
1.0
 40
1.0
 10
512.7401456856473
 20
645.9143078431025
 30
0.0
 10
512.7714612659868
 20
627.7959577653336
 30
0.0
 10
512.8341029242614
 20
591.5531839840787
 30
0.0
 10
512.7851053079836
 20
537.160527248068
 30
0.0
 10
512.6262261240518
 20
482.7570354080229
 30
0.0
 10
512.395094799745
 20
438.1056532866897
 30
0.0
 10
512.2067183224259
 20
411.6026822340602
 30
0.0
 10
512.1471411722853
 20
403.2206830160861
 30
0.0
  0
LWPOLYLINE
  5
182
330
1F
100
AcDbEntity
  8
0
  6
Continuous
 62
     7
370
    25
100
AcDbPolyline
 90
       14
 70
   128
 43
0.0
 10
479.8112494492
 20
405.2129385068
 10
480.5327553751
 20
405.0002953618
 10
481.6244457362
 20
404.7899740353
 10
483.0744005296
 20
404.5842709943
 10
484.8667879171
 20
404.3854322792
 10
486.9820370905
 20
404.1956289802
 10
489.3970519622
 20
404.0169335308
 10
492.0854633484
 20
403.8512970798
 10
495.0179168894
 20
403.7005281866
 10
498.1623935664
 20
403.5662730742
 10
501.4845593115
 20
403.4499976539
 10
504.9481398969
 20
403.3529715196
 10
508.5153170072
 20
403.2762540849
 10
512.1471411723
 20
403.2206830161
  0
LWPOLYLINE
  5
183
330
1F
100
AcDbEntity
  8
0
  6
Continuous
 62
     7
370
    25
100
AcDbPolyline
 90
       14
 70
   128
 43
0.0
 10
962.6570222203
 20
405.2129385068
 10
961.9355162943
 20
405.0002953618
 10
960.8438259333
 20
404.7899740353
 10
959.3938711399
 20
404.5842709943
 10
957.6014837524
 20
404.3854322792
 10
955.486234579
 20
404.1956289802
 10
953.0712197072
 20
404.0169335308
 10
950.3828083211
 20
403.8512970798
 10
947.45035478
 20
403.7005281866
 10
944.3058781031
 20
403.5662730742
 10
940.9837123579
 20
403.4499976539
 10
937.5201317726
 20
403.3529715196
 10
933.9529546623
 20
403.2762540849
 10
930.3211304972
 20
403.2206830161
  0
SPLINE
  5
184
330
1F
100
AcDbEntity
  8
0
  6
Continuous
 62
     7
370
    25
100
AcDbSpline
210
0.0
220
0.0
230
1.0
 70
     8
 71
     3
 72
    12
 73
     8
 74
     0
 42
0.000000001
 43
0.00000001
 40
0.0
 40
0.0
 40
0.0
 40
0.0
 40
0.1040297787613533
 40
0.3278495938598318
 40
0.5517343033207893
 40
0.7758293911748791
 40
1.0
 40
1.0
 40
1.0
 40
1.0
 10
930.3211304971825
 20
403.2206830160862
 30
0.0
 10
930.2613863913775
 20
411.6271366080727
 30
0.0
 10
930.0731029877513
 20
438.1200545854985
 30
0.0
 10
929.8421934505066
 20
482.7375567419788
 30
0.0
 10
929.683300288679
 20
537.0934849449721
 30
0.0
 10
929.6341113331407
 20
591.4962154112073
 30
0.0
 10
929.6967842473483
 20
627.7729064766038
 30
0.0
 10
929.7281259838205
 20
645.9143078431025
 30
0.0
  0
LWPOLYLINE
  5
185
330
1F
100
AcDbEntity
  8
0
  6
Continuous
 62
     7
370
    25
100
AcDbPolyline
 90
       14
 70
   128
 43
0.0
 10
929.7281259838
 20
645.9143078431
 10
933.3322997023
 20
645.8941595107
 10
936.871768761
 20
645.8666809446
 10
940.3084469363
 20
645.8321678261
 10
943.605354079
 20
645.7909915312
 10
946.7270140369
 20
645.7435951349
 10
949.6398363938
 20
645.6904886428
 10
952.3124779165
 20
645.632243504
 10
954.7161798219
 20
645.5694864614
 10
956.8250772341
 20
645.502892808
 10
958.6164775012
 20
645.4331791204
 10
960.0711043789
 20
645.3610955482
 10
961.1733054503
 20
645.2874177419
 10
961.9112205534
 20
645.2129385068
  0
SPLINE
  5
186
330
1F
100
AcDbEntity
  8
0
  6
Continuous
 62
     7
370
    25
100
AcDbSpline
210
0.0
220
0.0
230
1.0
 70
     8
 71
     3
 72
    12
 73
     8
 74
     0
 42
0.000000001
 43
0.00000001
 40
0.0
 40
0.0
 40
0.0
 40
0.0
 40
0.1531258908843761
 40
0.3645189297789158
 40
0.5761029281503364
 40
0.7881138935534361
 40
1.0
 40
1.0
 40
1.0
 40
1.0
 10
923.4485731226727
 20
396.35304067461
 30
0.0
 10
923.9987975856268
 20
396.3879041738527
 30
0.0
 10
925.3086167887401
 20
396.4708973591257
 30
0.0
 10
927.2528450740875
 20
397.3286540501853
 30
0.0
 10
928.9602442822685
 20
398.8815173774091
 30
0.0
 10
930.1135535850892
 20
400.9286061673664
 30
0.0
 10
930.2519517815557
 20
402.4568074438305
 30
0.0
 10
930.3211304971825
 20
403.2206830160862
 30
0.0
  0
SPLINE
  5
187
330
1F
100
AcDbEntity
  8
0
  6
Continuous
 62
     7
370
    25
100
AcDbSpline
210
0.0
220
0.0
230
1.0
 70
     8
 71
     3
 72
    12
 73
     8
 74
     0
 42
0.000000001
 43
0.00000001
 40
0.0
 40
0.0
 40
0.0
 40
0.0
 40
0.1526060911920677
 40
0.3640140285428005
 40
0.5757385106956682
 40
0.7879428999212776
 40
1.0
 40
1.0
 40
1.0
 40
1.0
 10
512.1471411722853
 20
403.2206830160861
 30
0.0
 10
512.1822758184607
 20
402.6721592138318
 30
0.0
 10
512.2660831160316
 20
401.3637556144049
 30
0.0
 10
513.123528001842
 20
399.4202564544703
 30
0.0
 10
514.6775597217558
 20
397.7120146396562
 30
0.0
 10
516.7263829727592
 20
396.5588034011935
 30
0.0
 10
518.255436967282
 20
396.4216123741195
 30
0.0
 10
519.019698546795
 20
396.3530406746099
 30
0.0
  0
SPLINE
  5
188
330
1F
100
AcDbEntity
  8
0
  6
Continuous
 62
     7
370
    25
100
AcDbSpline
210
0.0
220
0.0
230
1.0
 70
     8
 71
     3
 72
    11
 73
     7
 74
     0
 42
0.000000001
 43
0.00000001
 40
0.0
 40
0.0
 40
0.0
 40
0.0
 40
0.2498609148226822
 40
0.4997912272172099
 40
0.7498766657737849
 40
1.0
 40
1.0
 40
1.0
 40
1.0
 10
697.8999029864713
 20
651.2092533840693
 30
0.0
 10
682.9770166876887
 20
651.199803908028
 30
0.0
 10
653.1270993359316
 20
651.1809023314025
 30
0.0
 10
608.3660180833235
 20
651.3418374686581
 30
0.0
 10
563.611270754122
 20
651.6239371297298
 30
0.0
 10
533.7947175834246
 20
651.8941390268266
 30
0.0
 10
518.8853115514227
 20
652.0292502105831
 30
0.0
  0
LWPOLYLINE
  5
189
330
1F
100
AcDbEntity
  8
0
  6
Continuous
 62
     7
370
    25
100
AcDbPolyline
 90
       14
 70
   128
 43
0.0
 10
518.8853115514
 20
652.0292502106
 10
518.9433427131
 20
655.7743373171
 10
519.0277567054
 20
659.4673602438
 10
519.137581341
 20
663.0657868226
 10
519.2715517807
 20
666.5281743417
 10
519.4281251007
 20
669.8146468374
 10
519.605498062
 20
672.8873543415
 10
519.8016278783
 20
675.7109087952
 10
520.0142557426
 20
678.2527916099
 10
520.2409328414
 20
680.4837281806
 10
520.4790485577
 20
682.3780250387
 10
520.7258605372
 20
683.9138657604
 10
520.9785262713
 20
685.073562225
 10
521.2341358347
 20
685.8437583265
  0
LWPOLYLINE
  5
18A
330
1F
100
AcDbEntity
  8
0
  6
Continuous
 62
     7
370
    25
100
AcDbPolyline
 90
       14
 70
   128
 43
0.0
 10
697.8999029865
 20
651.2092533841
 10
697.9107121308
 20
654.895238186
 10
697.9259499156
 20
658.5271720956
 10
697.9454460881
 20
662.064475257
 10
697.9689828163
 20
665.4676251304
 10
697.9962971224
 20
668.6985980801
 10
698.027083822
 20
671.7212942157
 10
698.0609989329
 20
674.5019407381
 10
698.0976635192
 20
677.0094692861
 10
698.136667925
 20
679.2158630647
 10
698.1775763511
 20
681.0964698795
 10
698.2199317249
 20
682.6302775767
 10
698.2632608067
 20
683.8001488137
 10
698.3070794776
 20
684.5930125361
  0
SPLINE
  5
18B
330
1F
100
AcDbEntity
  8
0
  6
Continuous
 62
     7
370
    25
100
AcDbSpline
210
0.0
220
0.0
230
1.0
 70
     8
 71
     3
 72
    11
 73
     7
 74
     0
 42
0.000000001
 43
0.00000001
 40
0.0
 40
0.0
 40
0.0
 40
0.0
 40
0.2498926436891053
 40
0.4998217715595133
 40
0.7498812818633707
 40
0.9999999999999999
 40
0.9999999999999999
 40
0.9999999999999999
 40
0.9999999999999999
 10
923.582960118045
 20
652.029250210583
 30
0.0
 10
908.6873084412714
 20
651.8942564782318
 30
0.0
 10
878.8938303312035
 20
651.6242493045228
 30
0.0
 10
834.1545017490243
 20
651.3421119477138
 30
0.0
 10
789.3796802515576
 20
651.1809094395622
 30
0.0
 10
759.5066512638889
 20
651.1998046570027
 30
0.0
 10
744.5683686829968
 20
651.209253384069
 30
0.0
  0
LWPOLYLINE
  5
18C
330
1F
100
AcDbEntity
  8
0
  6
Continuous
 62
     7
370
    25
100
AcDbPolyline
 90
       14
 70
   128
 43
0.0
 10
744.568368683
 20
651.2092533841
 10
744.5575595387
 20
654.895238186
 10
744.5423217539
 20
658.5271720956
 10
744.5228255813
 20
662.064475257
 10
744.4992888532
 20
665.4676251304
 10
744.471974547
 20
668.6985980801
 10
744.4411878475
 20
671.7212942157
 10
744.4072727366
 20
674.5019407381
 10
744.3706081502
 20
677.0094692861
 10
744.3316037445
 20
679.2158630647
 10
744.2906953184
 20
681.0964698795
 10
744.2483399446
 20
682.6302775767
 10
744.2050108628
 20
683.8001488137
 10
744.1611921918
 20
684.5930125361
  0
LWPOLYLINE
  5
18D
330
1F
100
AcDbEntity
  8
0
  6
Continuous
 62
     7
370
    25
100
AcDbPolyline
 90
       14
 70
   128
 43
0.0
 10
923.582960118
 20
652.0292502106
 10
923.5249289563
 20
655.7743373171
 10
923.440514964
 20
659.4673602438
 10
923.3306903285
 20
663.0657868226
 10
923.1967198887
 20
666.5281743417
 10
923.0401465688
 20
669.8146468374
 10
922.8627736075
 20
672.8873543415
 10
922.6666437911
 20
675.7109087952
 10
922.4540159269
 20
678.2527916099
 10
922.2273388281
 20
680.4837281806
 10
921.9892231117
 20
682.3780250387
 10
921.7424111323
 20
683.9138657604
 10
921.4897453981
 20
685.073562225
 10
921.2341358347
 20
685.8437583265
  0
SPLINE
  5
18E
330
1F
100
AcDbEntity
  8
0
  6
Continuous
 62
     7
370
    25
100
AcDbSpline
210
0.0
220
0.0
230
1.0
 70
     8
 71
     3
 72
    12
 73
     8
 74
     0
 42
0.000000001
 43
0.00000001
 40
0.0
 40
0.0
 40
0.0
 40
0.0
 40
0.1479492916718973
 40
0.3606111568834585
 40
0.5736576938747062
 40
0.7869303801297592
 40
1.0
 40
1.0
 40
1.0
 40
1.0
 10
929.7281259838205
 20
645.9143078431025
 30
0.0
 10
929.6964292339904
 20
646.3889893262661
 30
0.0
 10
929.6191716716426
 20
647.5459765403336
 30
0.0
 10
928.8626458263927
 20
649.2761116380964
 30
0.0
 10
927.4723890623686
 20
650.8109330176181
 30
0.0
 10
925.637746747872
 20
651.8463833587119
 30
0.0
 10
924.2676714728576
 20
651.968313951763
 30
0.0
 10
923.582960118045
 20
652.029250210583
 30
0.0
  0
SPLINE
  5
18F
330
1F
100
AcDbEntity
  8
0
  6
Continuous
 62
     7
370
    25
100
AcDbSpline
210
0.0
220
0.0
230
1.0
 70
     8
 71
     3
 72
    12
 73
     8
 74
     0
 42
0.000000001
 43
0.00000001
 40
0.0
 40
0.0
 40
0.0
 40
0.0
 40
0.1505493425919598
 40
0.3629746241778577
 40
0.5752509340927633
 40
0.7876178804159045
 40
0.9999999999999999
 40
0.9999999999999999
 40
0.9999999999999999
 40
0.9999999999999999
 10
518.8853115514227
 20
652.0292502105831
 30
0.0
 10
518.4030030248603
 20
651.9998209731879
 30
0.0
 10
517.2401566573324
 20
651.92886705071
 30
0.0
 10
515.5064686356392
 20
651.1735876833003
 30
0.0
 10
513.9743632882547
 20
649.7905697968931
 30
0.0
 10
512.9358868372734
 20
647.9645962661434
 30
0.0
 10
512.8053942900459
 20
646.597753593303
 30
0.0
 10
512.7401456856473
 20
645.9143078431025
 30
0.0
  0
LINE
  5
190
330
1F
100
AcDbEntity
  8
0
  6
Continuous
 62
     7
370
    25
100
AcDbLine
 10
744.568368683
 20
651.2092533841
 30
0.0
 11
727.5507479313
 21
651.2525262865
 31
0.0
  0
SPLINE
  5
191
330
1F
100
AcDbEntity
  8
0
  6
Continuous
 62
     7
370
    25
100
AcDbSpline
210
0.0
220
0.0
230
1.0
 70
     8
 71
     3
 72
    11
 73
     7
 74
     0
 42
0.000000001
 43
0.00000001
 40
0.0
 40
0.0
 40
0.0
 40
0.0
 40
0.2487789199336239
 40
0.4980295361054504
 40
0.7487648420133781
 40
0.9999999999999999
 40
0.9999999999999999
 40
0.9999999999999999
 40
0.9999999999999999
 10
714.9175237382154
 20
651.2525262865202
 30
0.0
 10
715.9635913653365
 20
651.3324260785578
 30
0.0
 10
718.0577100117595
 20
651.4923771563022
 30
0.0
 10
721.2154561125783
 20
651.5562023158985
 30
0.0
 10
724.3836250959429
 20
651.4940720789716
 30
0.0
 10
726.4943397171107
 20
651.3330949832541
 30
0.0
 10
727.5507479312505
 20
651.2525262865203
 30
0.0
  0
LINE
  5
192
330
1F
100
AcDbEntity
  8
0
  6
Continuous
 62
     7
370
    25
100
AcDbLine
 10
714.9175237382
 20
651.2525262865
 30
0.0
 11
697.8999029865
 21
651.2092533841
 31
0.0
  0
ARC
  5
193
330
1F
100
AcDbEntity
  8
0
  6
Continuous
 62
     7
370
    25
100
AcDbCircle
 10
721.2341358347
 20
585.2129385068
 30
0.0
 40
70.00000000000009
100
AcDbArc
 50
109.4720015612
 51
70.5279984388
  0
SPLINE
  5
194
330
1F
100
AcDbEntity
  8
0
  6
Continuous
 62
     7
370
    25
100
AcDbSpline
210
0.0
220
0.0
230
1.0
 70
     8
 71
     3
 72
     9
 73
     5
 74
     0
 42
0.000000001
 43
0.00000001
 40
0.0
 40
0.0
 40
0.0
 40
0.0
 40
0.4976838706392819
 40
1.0
 40
1.0
 40
1.0
 40
1.0
 10
727.4867868886695
 20
650.5838195776912
 30
0.0
 10
725.4122585266373
 20
650.7351172907623
 30
0.0
 10
721.2438928543331
 20
651.0391209404623
 30
0.0
 10
717.0753906655152
 20
650.7360546590899
 30
0.0
 10
714.9814847807966
 20
650.583819577691
 30
0.0
  0
LINE
  5
195
330
1F
100
AcDbEntity
  8
0
  6
Continuous
 62
     7
370
    25
100
AcDbLine
 10
714.9175237382
 20
651.2525262865
 30
0.0
 11
714.9814847808
 21
650.5838195777
 31
0.0
  0
LINE
  5
196
330
1F
100
AcDbEntity
  8
0
  6
Continuous
 62
     7
370
    25
100
AcDbLine
 10
727.4867868887
 20
650.5838195777
 30
0.0
 11
727.5507479313
 21
651.2525262865
 31
0.0
  0
ARC
  5
197
330
1F
100
AcDbEntity
  8
0
  6
Continuous
 62
     7
370
    25
100
AcDbCircle
 10
721.2341358347
 20
585.2129385068
 30
0.0
 40
66.34098840458026
100
AcDbArc
 50
95.4636553582
 51
84.5363446418
  0
ARC
  5
198
330
1F
100
AcDbEntity
  8
0
  6
Continuous
 62
     7
370
    25
100
AcDbCircle
 10
721.2341358347
 20
585.2129385068
 30
0.0
 40
65.66922975938013
100
AcDbArc
 50
95.4636553582
 51
84.5363446418
  0
CIRCLE
  5
199
330
1F
100
AcDbEntity
  8
0
  6
Continuous
 62
     7
370
    25
100
AcDbCircle
 10
721.2341358347
 20
585.2129385068
 30
0.0
 40
58.61177143234625
  0
CIRCLE
  5
19A
330
1F
100
AcDbEntity
  8
0
  6
Continuous
 62
     7
370
    25
100
AcDbCircle
 10
721.2341358347
 20
585.2129385068
 30
0.0
 40
57.5
  0
LINE
  5
19B
330
1F
100
AcDbEntity
  8
0
  6
Continuous
 62
     8
370
    25
100
AcDbLine
 10
737.2609229625
 20
597.2582346986
 30
0.0
 11
737.7763849619
 21
596.5399442807
 31
0.0
  0
LWPOLYLINE
  5
19C
330
1F
100
AcDbEntity
  8
0
  6
Continuous
 62
     8
370
    25
100
AcDbPolyline
 90
        3
 70
   128
 43
0.0
 10
740.6966238294
 20
590.0252796258
 10
740.7329452451
 20
589.875930847
 10
741.051112868
 20
588.2517684212
  0
LINE
  5
19D
330
1F
100
AcDbEntity
  8
0
  6
Continuous
 62
     8
370
    25
100
AcDbLine
 10
740.8904903483
 20
581.266447252
 30
0.0
 11
740.459327501
 21
579.5261932705
 31
0.0
  0
LWPOLYLINE
  5
19E
330
1F
100
AcDbEntity
  8
0
  6
Continuous
 62
     8
370
    25
100
AcDbPolyline
 90
        3
 70
   128
 43
0.0
 10
737.2380715987
 20
573.1372974865
 10
736.288239882
 20
571.9720541964
 10
735.9580984837
 20
571.6058818854
  0
LWPOLYLINE
  5
19F
330
1F
100
AcDbEntity
  8
0
  6
Continuous
 62
     8
370
    25
100
AcDbPolyline
 90
        3
 70
   128
 43
0.0
 10
730.2462591243
 20
567.3040384903
 10
729.7667474626
 20
567.070678317
 10
728.6038818218
 20
566.5679952225
  0
LINE
  5
1A0
330
1F
100
AcDbEntity
  8
0
  6
Continuous
 62
     8
370
    25
100
AcDbLine
 10
721.7609520914
 20
565.1712437027
 30
0.0
 11
719.9764409599
 21
565.2038088508
 31
0.0
  0
LINE
  5
1A1
330
1F
100
AcDbEntity
  8
0
  6
Continuous
 62
     8
370
    25
100
AcDbLine
 10
713.0192644428
 20
566.9246101523
 30
0.0
 11
711.4107704964
 21
567.7358518097
 31
0.0
  0
LINE
  5
1A2
330
1F
100
AcDbEntity
  8
0
  6
Continuous
 62
     8
370
    25
100
AcDbLine
 10
705.8994803099
 20
572.298008932
 30
0.0
 11
705.2073487141
 21
573.1676423055
 31
0.0
  0
LINE
  5
1A3
330
1F
100
AcDbEntity
  8
0
  6
Continuous
 62
     8
370
    25
100
AcDbLine
 10
705.207348712
 20
573.1676423083
 30
0.0
 11
704.6918867076
 21
573.8859327329
 31
0.0
  0
LWPOLYLINE
  5
1A4
330
1F
100
AcDbEntity
  8
0
  6
Continuous
 62
     8
370
    25
100
AcDbPolyline
 90
        3
 70
   128
 43
0.0
 10
701.8134528636
 20
580.2345714127
 10
701.7353264257
 20
580.5499461611
 10
701.4171588014
 20
582.1741085923
  0
LINE
  5
1A5
330
1F
100
AcDbEntity
  8
0
  6
Continuous
 62
     8
370
    25
100
AcDbLine
 10
701.5777813212
 20
589.1594297616
 30
0.0
 11
702.0113793008
 21
590.9079097291
 31
0.0
  0
LWPOLYLINE
  5
1A6
330
1F
100
AcDbEntity
  8
0
  6
Continuous
 62
     8
370
    25
100
AcDbPolyline
 90
        3
 70
   128
 43
0.0
 10
705.2302000708
 20
597.2885795271
 10
706.1800317877
 20
598.4538228175
 10
706.5101731857
 20
598.8199951282
  0
LWPOLYLINE
  5
1A7
330
1F
100
AcDbEntity
  8
0
  6
Continuous
 62
     8
370
    25
100
AcDbPolyline
 90
        3
 70
   128
 43
0.0
 10
712.0566264087
 20
603.0376513157
 10
712.7015242097
 20
603.3551986979
 10
713.8643898477
 20
603.857881791
  0
LINE
  5
1A8
330
1F
100
AcDbEntity
  8
0
  6
Continuous
 62
     8
370
    25
100
AcDbLine
 10
720.707319578
 20
605.2546333108
 30
0.0
 11
722.491830709
 21
605.2220681628
 31
0.0
  0
LINE
  5
1A9
330
1F
100
AcDbEntity
  8
0
  6
Continuous
 62
     8
370
    25
100
AcDbLine
 10
729.4490072267
 20
603.5012668612
 30
0.0
 11
731.0575011731
 21
602.6900252038
 31
0.0
  0
LINE
  5
1AA
330
1F
100
AcDbEntity
  8
0
  6
Continuous
 62
     8
370
    25
100
AcDbLine
 10
736.5687913596
 20
598.1278680815
 30
0.0
 11
737.2609229625
 21
597.2582346986
 31
0.0
  0
LINE
  5
1AB
330
1F
100
AcDbEntity
  8
0
  6
Continuous
 62
     8
370
    25
100
AcDbLine
 10
704.720742557
 20
572.8019223906
 30
0.0
 11
705.4344260213
 21
571.9052471821
 31
0.0
  0
LINE
  5
1AC
330
1F
100
AcDbEntity
  8
0
  6
Continuous
 62
     8
370
    25
100
AcDbLine
 10
710.9457990351
 20
567.2999375165
 30
0.0
 11
712.7646493218
 21
566.3716732417
 31
0.0
  0
LWPOLYLINE
  5
1AD
330
1F
100
AcDbEntity
  8
0
  6
Continuous
 62
     8
370
    25
100
AcDbPolyline
 90
        3
 70
   128
 43
0.0
 10
719.7439467336
 20
564.6094238788
 10
721.0277400374
 20
564.556634884
 10
721.7774140795
 20
564.5627489839
  0
LWPOLYLINE
  5
1AE
330
1F
100
AcDbEntity
  8
0
  6
Continuous
 62
     8
370
    25
100
AcDbPolyline
 90
        3
 70
   128
 43
0.0
 10
728.826194578
 20
566.001324243
 10
728.9482761523
 20
566.0500181202
 10
730.6903104902
 20
566.8470396868
  0
LWPOLYLINE
  5
1AF
330
1F
100
AcDbEntity
  8
0
  6
Continuous
 62
     8
370
    25
100
AcDbPolyline
 90
        3
 70
   128
 43
0.0
 10
736.4061028959
 20
571.1937768316
 10
737.4962375114
 20
572.4744328001
 10
737.7230556799
 20
572.7694261038
  0
LWPOLYLINE
  5
1B0
330
1F
100
AcDbEntity
  8
0
  6
Continuous
 62
     8
370
    25
100
AcDbPolyline
 90
        3
 70
   128
 43
0.0
 10
740.9883515005
 20
579.1717099884
 10
741.1331738164
 20
579.6673306967
 10
741.4871788982
 20
581.1460324037
  0
LINE
  5
1B1
330
1F
100
AcDbEntity
  8
0
  6
Continuous
 62
     8
370
    25
100
AcDbLine
 10
741.65263092
 20
588.3451161891
 30
0.0
 11
741.2449744558
 21
590.3404931153
 31
0.0
  0
LINE
  5
1B2
330
1F
100
AcDbEntity
  8
0
  6
Continuous
 62
     8
370
    25
100
AcDbLine
 10
738.2773722036
 20
596.8857090715
 30
0.0
 11
737.7475291125
 21
597.623954623
 31
0.0
  0
LINE
  5
1B3
330
1F
100
AcDbEntity
  8
0
  6
Continuous
 62
     8
370
    25
100
AcDbLine
 10
737.7475291125
 20
597.623954623
 30
0.0
 11
737.0338456482
 21
598.5206298314
 31
0.0
  0
LINE
  5
1B4
330
1F
100
AcDbEntity
  8
0
  6
Continuous
 62
     8
370
    25
100
AcDbLine
 10
731.5224726344
 20
603.1259394971
 30
0.0
 11
729.7036223476
 21
604.0542037719
 31
0.0
  0
LWPOLYLINE
  5
1B5
330
1F
100
AcDbEntity
  8
0
  6
Continuous
 62
     8
370
    25
100
AcDbPolyline
 90
        3
 70
   128
 43
0.0
 10
722.7243249359
 20
605.8164531347
 10
721.4405316321
 20
605.8692421295
 10
720.6908575899
 20
605.8631280296
  0
LWPOLYLINE
  5
1B6
330
1F
100
AcDbEntity
  8
0
  6
Continuous
 62
     8
370
    25
100
AcDbPolyline
 90
        3
 70
   128
 43
0.0
 10
713.6420770914
 20
604.4245527705
 10
713.5199955172
 20
604.3758588933
 10
711.7779611792
 20
603.5788373268
  0
LWPOLYLINE
  5
1B7
330
1F
100
AcDbEntity
  8
0
  6
Continuous
 62
     8
370
    25
100
AcDbPolyline
 90
        3
 70
   128
 43
0.0
 10
706.0621687735
 20
599.232100182
 10
704.9720341581
 20
597.9514442135
 10
704.7452159896
 20
597.6564509097
  0
LWPOLYLINE
  5
1B8
330
1F
100
AcDbEntity
  8
0
  6
Continuous
 62
     8
370
    25
100
AcDbPolyline
 90
        3
 70
   128
 43
0.0
 10
701.479920169
 20
591.2541670252
 10
701.335097853
 20
590.7585463169
 10
700.9810927713
 20
589.2798446098
  0
LINE
  5
1B9
330
1F
100
AcDbEntity
  8
0
  6
Continuous
 62
     8
370
    25
100
AcDbLine
 10
700.8156407495
 20
582.0807608244
 30
0.0
 11
701.2232972137
 21
580.0853838983
 31
0.0
  0
LINE
  5
1BA
330
1F
100
AcDbEntity
  8
0
  6
Continuous
 62
     8
370
    25
100
AcDbLine
 10
704.1908994659
 20
573.5401679421
 30
0.0
 11
704.720742557
 21
572.8019223906
 31
0.0
  0
LINE
  5
1BB
330
1F
100
AcDbEntity
  8
0
  6
Continuous
 62
     8
370
    25
100
AcDbLine
 10
703.6113597276
 20
571.9681405006
 30
0.0
 11
704.3712723137
 21
571.0132643619
 31
0.0
  0
LINE
  5
1BC
330
1F
100
AcDbEntity
  8
0
  6
Continuous
 62
     8
370
    25
100
AcDbLine
 10
710.2553619639
 20
566.0961020467
 30
0.0
 11
712.1968000528
 21
565.1053908216
 31
0.0
  0
LWPOLYLINE
  5
1BD
330
1F
100
AcDbEntity
  8
0
  6
Continuous
 62
     8
370
    25
100
AcDbPolyline
 90
        3
 70
   128
 43
0.0
 10
719.6432535485
 20
563.2253054941
 10
721.0138742045
 20
563.1689280558
 10
721.8107138783
 20
563.1753690013
  0
LWPOLYLINE
  5
1BE
330
1F
100
AcDbEntity
  8
0
  6
Continuous
 62
     8
370
    25
100
AcDbPolyline
 90
        3
 70
   128
 43
0.0
 10
729.3430948367
 20
564.7133849542
 10
729.4665182037
 20
564.7626379594
 10
731.318974309
 20
565.6098024083
  0
LWPOLYLINE
  5
1BF
330
1F
100
AcDbEntity
  8
0
  6
Continuous
 62
     8
370
    25
100
AcDbPolyline
 90
        3
 70
   128
 43
0.0
 10
737.4289868435
 20
570.2558762033
 10
738.5887383723
 20
571.6186499005
 10
738.8293268944
 20
571.9315167635
  0
LWPOLYLINE
  5
1C0
330
1F
100
AcDbEntity
  8
0
  6
Continuous
 62
     8
370
    25
100
AcDbPolyline
 90
        3
 70
   128
 43
0.0
 10
742.3140173178
 20
578.7611551404
 10
742.470006938
 20
579.2947723692
 10
742.8495037266
 20
580.8813357033
  0
LINE
  5
1C1
330
1F
100
AcDbEntity
  8
0
  6
Continuous
 62
     8
370
    25
100
AcDbLine
 10
743.0250048584
 20
588.5513421885
 30
0.0
 11
742.5905665926
 21
590.6800929067
 31
0.0
  0
LINE
  5
1C2
330
1F
100
AcDbEntity
  8
0
  6
Continuous
 62
     8
370
    25
100
AcDbLine
 10
739.4185371144
 20
597.6754608056
 30
0.0
 11
738.8569119497
 21
598.4577365025
 31
0.0
  0
LINE
  5
1C3
330
1F
100
AcDbEntity
  8
0
  6
Continuous
 62
     8
370
    25
100
AcDbLine
 10
738.8569119497
 20
598.4577365025
 30
0.0
 11
738.0969993557
 21
599.4126126516
 31
0.0
  0
LINE
  5
1C4
330
1F
100
AcDbEntity
  8
0
  6
Continuous
 62
     8
370
    25
100
AcDbLine
 10
732.2129097057
 20
604.3297749668
 30
0.0
 11
730.2714716166
 21
605.320486192
 31
0.0
  0
LWPOLYLINE
  5
1C5
330
1F
100
AcDbEntity
  8
0
  6
Continuous
 62
     8
370
    25
100
AcDbPolyline
 90
        3
 70
   128
 43
0.0
 10
722.8250181211
 20
607.2005715194
 10
721.4543974715
 20
607.2569489577
 10
720.6575577912
 20
607.2505080122
  0
LWPOLYLINE
  5
1C6
330
1F
100
AcDbEntity
  8
0
  6
Continuous
 62
     8
370
    25
100
AcDbPolyline
 90
        3
 70
   128
 43
0.0
 10
713.1251768328
 20
605.7124920593
 10
713.0017534693
 20
605.6632390556
 10
711.1492973605
 20
604.8160746053
  0
LWPOLYLINE
  5
1C7
330
1F
100
AcDbEntity
  8
0
  6
Continuous
 62
     8
370
    25
100
AcDbPolyline
 90
        3
 70
   128
 43
0.0
 10
705.0392848259
 20
600.1700008102
 10
703.8795332972
 20
598.8072271132
 10
703.6389447751
 20
598.4943602501
  0
LWPOLYLINE
  5
1C8
330
1F
100
AcDbEntity
  8
0
  6
Continuous
 62
     8
370
    25
100
AcDbPolyline
 90
        3
 70
   128
 43
0.0
 10
700.1542543517
 20
591.6647218732
 10
699.9982647307
 20
591.1311046418
 10
699.6187679429
 20
589.5445413102
  0
LINE
  5
1C9
330
1F
100
AcDbEntity
  8
0
  6
Continuous
 62
     8
370
    25
100
AcDbLine
 10
699.4432668111
 20
581.8745348251
 30
0.0
 11
699.8777050769
 21
579.7457841067
 31
0.0
  0
LINE
  5
1CA
330
1F
100
AcDbEntity
  8
0
  6
Continuous
 62
     8
370
    25
100
AcDbLine
 10
703.0497345551
 20
572.7504162079
 30
0.0
 11
703.6113597252
 21
571.9681405038
 31
0.0
  0
LINE
  5
1CB
330
1F
100
AcDbEntity
  8
0
  6
Continuous
 62
     8
370
    25
100
AcDbLine
 10
742.5535981457
 20
601.236065061
 30
0.0
 11
743.2321165419
 21
600.2910319741
 31
0.0
  0
LWPOLYLINE
  5
1CC
330
1F
100
AcDbEntity
  8
0
  6
Continuous
 62
     8
370
    25
100
AcDbPolyline
 90
        3
 70
   128
 43
0.0
 10
747.0695506807
 20
591.8304454044
 10
747.4770692917
 20
589.9635701882
 10
747.5957128637
 20
589.2536456661
  0
LWPOLYLINE
  5
1CD
330
1F
100
AcDbEntity
  8
0
  6
Continuous
 62
     8
370
    25
100
AcDbPolyline
 90
        3
 70
   128
 43
0.0
 10
747.382152857
 20
579.9649614104
 10
746.8177573538
 20
577.6804510179
 10
746.7385254065
 20
577.4163898876
  0
LINE
  5
1CE
330
1F
100
AcDbEntity
  8
0
  6
Continuous
 62
     8
370
    25
100
AcDbLine
 10
742.5151943725
 20
569.1388411663
 30
0.0
 11
740.830851401
 21
567.1234720466
 31
0.0
  0
LWPOLYLINE
  5
1CF
330
1F
100
AcDbEntity
  8
0
  6
Continuous
 62
     8
370
    25
100
AcDbPolyline
 90
        3
 70
   128
 43
0.0
 10
733.4325723568
 20
561.4967372043
 10
733.3117493137
 20
561.4349800062
 10
731.0430802707
 20
560.4128444172
  0
LWPOLYLINE
  5
1D0
330
1F
100
AcDbEntity
  8
0
  6
Continuous
 62
     8
370
    25
100
AcDbPolyline
 90
        3
 70
   128
 43
0.0
 10
721.9334155076
 20
558.5526484532
 10
721.3555571749
 20
558.5437556423
 10
719.3134583269
 20
558.6127306935
  0
LWPOLYLINE
  5
1D1
330
1F
100
AcDbEntity
  8
0
  6
Continuous
 62
     8
370
    25
100
AcDbPolyline
 90
        3
 70
   128
 43
0.0
 10
710.295679561
 20
560.8898993844
 10
709.3735345013
 20
561.3259924104
 10
707.9637272605
 20
562.0794927178
  0
LINE
  5
1D2
330
1F
100
AcDbEntity
  8
0
  6
Continuous
 62
     8
370
    25
100
AcDbLine
 10
700.8262262063
 20
568.0438592537
 30
0.0
 11
699.9146735238
 21
569.1898119525
 31
0.0
  0
LINE
  5
1D3
330
1F
100
AcDbEntity
  8
0
  6
Continuous
 62
     8
370
    25
100
AcDbLine
 10
699.9146735238
 20
569.1898119525
 30
0.0
 11
699.2361551276
 21
570.1348450395
 31
0.0
  0
LWPOLYLINE
  5
1D4
330
1F
100
AcDbEntity
  8
0
  6
Continuous
 62
     8
370
    25
100
AcDbPolyline
 90
        3
 70
   128
 43
0.0
 10
695.3987209888
 20
578.5954316091
 10
694.9912023777
 20
580.4623068253
 10
694.8725588058
 20
581.1722313475
  0
LWPOLYLINE
  5
1D5
330
1F
100
AcDbEntity
  8
0
  6
Continuous
 62
     8
370
    25
100
AcDbPolyline
 90
        3
 70
   128
 43
0.0
 10
695.0861188125
 20
590.4609156032
 10
695.6505143157
 20
592.7454259956
 10
695.7297462629
 20
593.0094871259
  0
LINE
  5
1D6
330
1F
100
AcDbEntity
  8
0
  6
Continuous
 62
     8
370
    25
100
AcDbLine
 10
699.9530772969
 20
601.2870358473
 30
0.0
 11
701.6374202685
 21
603.302404967
 31
0.0
  0
LWPOLYLINE
  5
1D7
330
1F
100
AcDbEntity
  8
0
  6
Continuous
 62
     8
370
    25
100
AcDbPolyline
 90
        3
 70
   128
 43
0.0
 10
709.0356993127
 20
608.9291398092
 10
709.1565223557
 20
608.9908970073
 10
711.4251913988
 20
610.0130325964
  0
LWPOLYLINE
  5
1D8
330
1F
100
AcDbEntity
  8
0
  6
Continuous
 62
     8
370
    25
100
AcDbPolyline
 90
        3
 70
   128
 43
0.0
 10
720.5348561618
 20
611.8732285603
 10
721.1127144946
 20
611.8821213713
 10
723.1548133426
 20
611.8131463201
  0
LWPOLYLINE
  5
1D9
330
1F
100
AcDbEntity
  8
0
  6
Continuous
 62
     8
370
    25
100
AcDbPolyline
 90
        3
 70
   128
 43
0.0
 10
732.1725921084
 20
609.5359776292
 10
733.0947371681
 20
609.0998846032
 10
734.504544409
 20
608.3463842958
  0
LINE
  5
1DA
330
1F
100
AcDbEntity
  8
0
  6
Continuous
 62
     8
370
    25
100
AcDbLine
 10
741.6420454632
 20
602.3820177598
 30
0.0
 11
742.5535981457
 21
601.236065061
 31
0.0
  0
SPLINE
  5
1DB
330
1F
100
AcDbEntity
  8
0
  6
Continuous
 62
     8
370
    25
100
AcDbSpline
210
0.0
220
0.0
230
1.0
 70
    24
 71
     3
 72
     9
 73
     5
 74
     0
 42
0.000000001
 43
0.00000001
 40
0.0
 40
0.0
 40
0.0
 40
0.0
 40
0.6626738305359156
 40
1.0
 40
1.0
 40
1.0
 40
1.0
 10
731.1757747967565
 20
572.1413573550931
 30
0.0
 10
730.1666280518397
 20
573.4682153933428
 30
0.0
 10
728.6437872538247
 20
575.4704946099172
 30
0.0
 10
727.1482715193899
 20
577.4368459691806
 30
0.0
 10
726.6437949253199
 20
578.1001477410214
 30
0.0
  0
SPLINE
  5
1DC
330
1F
100
AcDbEntity
  8
0
  6
Continuous
 62
     8
370
    25
100
AcDbSpline
210
0.0
220
0.0
230
1.0
 70
    24
 71
     3
 72
     9
 73
     5
 74
     0
 42
0.000000001
 43
0.00000001
 40
0.0
 40
0.0
 40
0.0
 40
0.0
 40
0.4794751474916518
 40
1.0
 40
1.0
 40
1.0
 40
1.0
 10
715.8244767441464
 20
592.3257292725287
 30
0.0
 10
715.1060581715731
 20
593.2703287201795
 30
0.0
 10
713.6077144590118
 20
595.2403983944728
 30
0.0
 10
712.0850707597118
 20
597.2424184594266
 30
0.0
 10
711.2924968727109
 20
598.2845196584555
 30
0.0
  0
SPLINE
  5
1DD
330
1F
100
AcDbEntity
  8
0
  6
Continuous
 62
     8
370
    25
100
AcDbSpline
210
0.0
220
0.0
230
1.0
 70
    24
 71
     3
 72
    12
 73
     8
 74
     0
 42
0.000000001
 43
0.00000001
 40
0.0
 40
0.0
 40
0.0
 40
0.0
 40
0.3049383554741685
 40
0.5250515614435086
 40
0.7557967405179119
 40
0.9865419196212004
 40
1.0
 40
1.0
 40
1.0
 40
1.0
 10
728.6965772733421
 20
581.8141199190925
 30
0.0
 10
728.796854882733
 20
581.7684478149254
 30
0.0
 10
728.969515731863
 20
581.6898082827809
 30
0.0
 10
729.1828786964886
 20
581.5926307014145
 30
0.0
 10
729.3236538901971
 20
581.5285137031108
 30
0.0
 10
729.3989417483759
 20
581.4942233473457
 30
0.0
 10
729.4052805976786
 20
581.4913362762697
 30
0.0
 10
729.4056299326694
 20
581.4911771693245
 30
0.0
  0
LWPOLYLINE
  5
1DE
330
1F
100
AcDbEntity
  8
0
  6
Continuous
 62
     8
370
    25
100
AcDbPolyline
 90
        3
 70
   128
 43
0.0
 10
719.032330996
 20
554.6110701368
 10
721.3309841003
 20
554.5321152992
 10
722.0297299168
 20
554.5422795257
  0
LWPOLYLINE
  5
1DF
330
1F
100
AcDbEntity
  8
0
  6
Continuous
 62
     8
370
    25
100
AcDbPolyline
 90
        3
 70
   128
 43
0.0
 10
732.52810895
 20
556.6863112342
 10
734.2045762318
 20
557.4084430395
 10
735.2569352972
 20
557.9240508872
  0
LWPOLYLINE
  5
1E0
330
1F
100
AcDbEntity
  8
0
  6
Continuous
 62
     8
370
    25
100
AcDbPolyline
 90
        3
 70
   128
 43
0.0
 10
743.7859665104
 20
564.4106014877
 10
744.6805933425
 20
565.4244084295
 10
745.708188072
 20
566.7104235597
  0
LWPOLYLINE
  5
1E1
330
1F
100
AcDbEntity
  8
0
  6
Continuous
 62
     8
370
    25
100
AcDbPolyline
 90
        3
 70
   128
 43
0.0
 10
750.5777813443
 20
576.2534317968
 10
750.8225524624
 20
577.0982669949
 10
751.3127196303
 20
579.1630551086
  0
LWPOLYLINE
  5
1E2
330
1F
100
AcDbEntity
  8
0
  6
Continuous
 62
     8
370
    25
100
AcDbPolyline
 90
        3
 70
   128
 43
0.0
 10
751.559606318
 20
589.8699903905
 10
751.4951176036
 20
590.2721157783
 10
750.9579871302
 20
592.8165532029
  0
LINE
  5
1E3
330
1F
100
AcDbEntity
  8
0
  6
Continuous
 62
     8
370
    25
100
AcDbLine
 10
746.5370245271
 20
602.5647717269
 30
0.0
 11
744.7131921443
 21
604.9627791921
 31
0.0
  0
LWPOLYLINE
  5
1E4
330
1F
100
AcDbEntity
  8
0
  6
Continuous
 62
     8
370
    25
100
AcDbPolyline
 90
        3
 70
   128
 43
0.0
 10
736.5036005089
 20
611.824322177
 10
734.0287820212
 20
613.0987650364
 10
733.8180251071
 20
613.1945042789
  0
LWPOLYLINE
  5
1E5
330
1F
100
AcDbEntity
  8
0
  6
Continuous
 62
     8
370
    25
100
AcDbPolyline
 90
        3
 70
   128
 43
0.0
 10
723.4448443929
 20
615.814164952
 10
721.1372875692
 20
615.8937617143
 10
720.4318530972
 20
615.883423255
  0
LWPOLYLINE
  5
1E6
330
1F
100
AcDbEntity
  8
0
  6
Continuous
 62
     8
370
    25
100
AcDbPolyline
 90
        3
 70
   128
 43
0.0
 10
709.9462084545
 20
613.7419586045
 10
708.2636954377
 20
613.017433974
 10
707.2055684131
 20
612.4988614044
  0
LWPOLYLINE
  5
1E7
330
1F
100
AcDbEntity
  8
0
  6
Continuous
 62
     8
370
    25
100
AcDbPolyline
 90
        3
 70
   128
 43
0.0
 10
698.6828898335
 20
606.015909354
 10
697.787678327
 20
605.001468584
 10
696.7573789702
 20
603.7118753864
  0
LWPOLYLINE
  5
1E8
330
1F
100
AcDbEntity
  8
0
  6
Continuous
 62
     8
370
    25
100
AcDbPolyline
 90
        3
 70
   128
 43
0.0
 10
691.889468371
 20
594.1690974896
 10
691.645719207
 20
593.3276100186
 10
691.1554172531
 20
591.2621517422
  0
LWPOLYLINE
  5
1E9
330
1F
100
AcDbEntity
  8
0
  6
Continuous
 62
     8
370
    25
100
AcDbPolyline
 90
        3
 70
   128
 43
0.0
 10
690.9095854134
 20
580.5498993662
 10
690.9731540659
 20
580.1537612352
 10
691.5090716616
 20
577.6140667364
  0
LINE
  5
1EA
330
1F
100
AcDbEntity
  8
0
  6
Continuous
 62
     8
370
    25
100
AcDbLine
 10
695.9351042439
 20
567.855482102
 30
0.0
 11
697.7495281608
 21
565.4696992923
 31
0.0
  0
LWPOLYLINE
  5
1EB
330
1F
100
AcDbEntity
  8
0
  6
Continuous
 62
     8
370
    25
100
AcDbPolyline
 90
        3
 70
   128
 43
0.0
 10
705.9696908885
 20
558.5986751737
 10
708.4394896483
 20
557.3271119771
 10
708.642817063
 20
557.2347151202
  0
ENDSEC
  0
SECTION
  2
OBJECTS
  0
DICTIONARY
  5
C
330
0
100
AcDbDictionary
281
     1
  3
ACAD_GROUP
350
D
  3
ACAD_LAYOUT
350
1A
  3
ACAD_MLINESTYLE
350
17
  3
ACAD_PLOTSETTINGS
350
19
  3
ACAD_PLOTSTYLENAME
350
E
  3
ACAD_SCALELIST
350
47
  0
DICTIONARY
  5
D
102
{ACAD_REACTORS
330
C
102
}
330
C
100
AcDbDictionary
281
     1
  0
DICTIONARY
  5
1A
102
{ACAD_REACTORS
330
C
102
}
330
C
100
AcDbDictionary
281
     1
  3
Layout1
350
1E
  3
Layout2
350
26
  3
Model
350
22
  0
DICTIONARY
  5
17
102
{ACAD_REACTORS
330
C
102
}
330
C
100
AcDbDictionary
281
     1
  3
Standard
350
18
  0
DICTIONARY
  5
19
102
{ACAD_REACTORS
330
C
102
}
330
C
100
AcDbDictionary
281
     1
  0
ACDBDICTIONARYWDFLT
  5
E
102
{ACAD_REACTORS
330
C
102
}
330
C
100
AcDbDictionary
281
     1
  3
Normal
350
F
100
AcDbDictionaryWithDefault
340
F
  0
DICTIONARY
  5
47
102
{ACAD_REACTORS
330
C
102
}
330
C
100
AcDbDictionary
281
     1
  3
A0
350
48
  3
A1
350
49
  3
A2
350
4A
  3
A3
350
4B
  3
A4
350
4C
  3
A5
350
4D
  3
A6
350
4E
  3
A7
350
4F
  3
A8
350
50
  3
A9
350
51
  3
B0
350
52
  3
B1
350
53
  3
B2
350
54
  3
B3
350
55
  3
B4
350
56
  3
B5
350
57
  3
B6
350
58
  3
B7
350
59
  3
B8
350
5A
  3
B9
350
5B
  3
C0
350
5C
  3
C1
350
5D
  3
C2
350
5E
  3
C3
350
5F
  3
C4
350
60
  3
C5
350
61
  3
C6
350
62
  3
C7
350
63
  3
C8
350
64
  3
C9
350
65
  3
D0
350
66
  3
D1
350
67
  3
D2
350
68
  0
LAYOUT
  5
1E
102
{ACAD_REACTORS
330
1A
102
}
330
1A
100
AcDbPlotSettings
  1

  2
none_device
  4

  6

 40
0.0
 41
0.0
 42
0.0
 43
0.0
 44
0.0
 45
0.0
 46
0.0
 47
0.0
 48
0.0
 49
0.0
140
0.0
141
0.0
142
1.0
143
1.0
 70
   688
 72
     1
 73
     0
 74
     5
  7

 75
    16
147
1.0
148
0.0
149
0.0
100
AcDbLayout
  1
Layout1
 70
     1
 71
     1
 10
0.0
 20
0.0
 11
420.0
 21
297.0
 12
0.0
 22
0.0
 32
0.0
 14
1.0000000000E+20
 24
1.0000000000E+20
 34
1.0000000000E+20
 15
-1.0000000000E+20
 25
-1.0000000000E+20
 35
-1.0000000000E+20
146
0.0
 13
0.0
 23
0.0
 33
0.0
 16
1.0
 26
0.0
 36
0.0
 17
0.0
 27
1.0
 37
0.0
 76
     0
330
1B
  0
LAYOUT
  5
26
102
{ACAD_REACTORS
330
1A
102
}
330
1A
100
AcDbPlotSettings
  1

  2
none_device
  4

  6

 40
0.0
 41
0.0
 42
0.0
 43
0.0
 44
0.0
 45
0.0
 46
0.0
 47
0.0
 48
0.0
 49
0.0
140
0.0
141
0.0
142
1.0
143
1.0
 70
   688
 72
     1
 73
     0
 74
     5
  7

 75
    16
147
1.0
148
0.0
149
0.0
100
AcDbLayout
  1
Layout2
 70
     1
 71
     2
 10
0.0
 20
0.0
 11
0.0
 21
0.0
 12
0.0
 22
0.0
 32
0.0
 14
0.0
 24
0.0
 34
0.0
 15
0.0
 25
0.0
 35
0.0
146
0.0
 13
0.0
 23
0.0
 33
0.0
 16
1.0
 26
0.0
 36
0.0
 17
0.0
 27
1.0
 37
0.0
 76
     0
330
23
  0
LAYOUT
  5
22
102
{ACAD_REACTORS
330
1A
102
}
330
1A
100
AcDbPlotSettings
  1

  2
none_device
  4
Letter_(8.50_x_11.00_Inches)
  6

 40
6.35
 41
6.35
 42
6.35000508
 43
6.35000508
 44
215.9
 45
279.4
 46
0.0
 47
0.0
 48
0.0
 49
0.0
140
0.0
141
0.0
142
1.0
143
1.0
 70
  1712
 72
     1
 73
     0
 74
     0
  7

 75
     0
147
1.0
148
0.0
149
0.0
100
AcDbLayout
  1
Model
 70
     1
 71
     0
 10
0.0
 20
0.0
 11
1500.0
 21
1000.0
 12
0.0
 22
0.0
 32
0.0
 14
0.0
 24
0.0
 34
0.0
 15
1500.0
 25
1000.0
 35
0.0
146
0.0
 13
0.0
 23
0.0
 33
0.0
 16
1.0
 26
0.0
 36
0.0
 17
0.0
 27
1.0
 37
0.0
 76
     0
330
1F
331
29
  0
MLINESTYLE
  5
18
102
{ACAD_REACTORS
330
17
102
}
330
17
100
AcDbMlineStyle
  2
Standard
 70
     0
  3

 62
   256
 51
90.0
 52
90.0
 71
     2
 49
0.5
 62
   256
  6
BYLAYER
 49
-0.5
 62
   256
  6
BYLAYER
  0
ACDBPLACEHOLDER
  5
F
102
{ACAD_REACTORS
330
E
102
}
330
E
  0
SCALE
  5
48
102
{ACAD_REACTORS
330
47
102
}
330
47
100
AcDbScale
 70
     0
300
1:1
140
1.0
141
1.0
290
     1
  0
SCALE
  5
49
102
{ACAD_REACTORS
330
47
102
}
330
47
100
AcDbScale
 70
     0
300
1:2
140
1.0
141
2.0
290
     0
  0
SCALE
  5
4A
102
{ACAD_REACTORS
330
47
102
}
330
47
100
AcDbScale
 70
     0
300
1:4
140
1.0
141
4.0
290
     0
  0
SCALE
  5
4B
102
{ACAD_REACTORS
330
47
102
}
330
47
100
AcDbScale
 70
     0
300
1:5
140
1.0
141
5.0
290
     0
  0
SCALE
  5
4C
102
{ACAD_REACTORS
330
47
102
}
330
47
100
AcDbScale
 70
     0
300
1:8
140
1.0
141
8.0
290
     0
  0
SCALE
  5
4D
102
{ACAD_REACTORS
330
47
102
}
330
47
100
AcDbScale
 70
     0
300
1:10
140
1.0
141
10.0
290
     0
  0
SCALE
  5
4E
102
{ACAD_REACTORS
330
47
102
}
330
47
100
AcDbScale
 70
     0
300
1:16
140
1.0
141
16.0
290
     0
  0
SCALE
  5
4F
102
{ACAD_REACTORS
330
47
102
}
330
47
100
AcDbScale
 70
     0
300
1:20
140
1.0
141
20.0
290
     0
  0
SCALE
  5
50
102
{ACAD_REACTORS
330
47
102
}
330
47
100
AcDbScale
 70
     0
300
1:30
140
1.0
141
30.0
290
     0
  0
SCALE
  5
51
102
{ACAD_REACTORS
330
47
102
}
330
47
100
AcDbScale
 70
     0
300
1:40
140
1.0
141
40.0
290
     0
  0
SCALE
  5
52
102
{ACAD_REACTORS
330
47
102
}
330
47
100
AcDbScale
 70
     0
300
1:50
140
1.0
141
50.0
290
     0
  0
SCALE
  5
53
102
{ACAD_REACTORS
330
47
102
}
330
47
100
AcDbScale
 70
     0
300
1:100
140
1.0
141
100.0
290
     0
  0
SCALE
  5
54
102
{ACAD_REACTORS
330
47
102
}
330
47
100
AcDbScale
 70
     0
300
2:1
140
2.0
141
1.0
290
     0
  0
SCALE
  5
55
102
{ACAD_REACTORS
330
47
102
}
330
47
100
AcDbScale
 70
     0
300
4:1
140
4.0
141
1.0
290
     0
  0
SCALE
  5
56
102
{ACAD_REACTORS
330
47
102
}
330
47
100
AcDbScale
 70
     0
300
8:1
140
8.0
141
1.0
290
     0
  0
SCALE
  5
57
102
{ACAD_REACTORS
330
47
102
}
330
47
100
AcDbScale
 70
     0
300
10:1
140
10.0
141
1.0
290
     0
  0
SCALE
  5
58
102
{ACAD_REACTORS
330
47
102
}
330
47
100
AcDbScale
 70
     0
300
100:1
140
100.0
141
1.0
290
     0
  0
SCALE
  5
59
102
{ACAD_REACTORS
330
47
102
}
330
47
100
AcDbScale
 70
     0
300
1/128" = 1'-0"
140
0.0078125
141
12.0
290
     0
  0
SCALE
  5
5A
102
{ACAD_REACTORS
330
47
102
}
330
47
100
AcDbScale
 70
     0
300
1/64" = 1'-0"
140
0.015625
141
12.0
290
     0
  0
SCALE
  5
5B
102
{ACAD_REACTORS
330
47
102
}
330
47
100
AcDbScale
 70
     0
300
1/32" = 1'-0"
140
0.03125
141
12.0
290
     0
  0
SCALE
  5
5C
102
{ACAD_REACTORS
330
47
102
}
330
47
100
AcDbScale
 70
     0
300
1/16" = 1'-0"
140
0.0625
141
12.0
290
     0
  0
SCALE
  5
5D
102
{ACAD_REACTORS
330
47
102
}
330
47
100
AcDbScale
 70
     0
300
3/32" = 1'-0"
140
0.09375
141
12.0
290
     0
  0
SCALE
  5
5E
102
{ACAD_REACTORS
330
47
102
}
330
47
100
AcDbScale
 70
     0
300
1/8" = 1'-0"
140
0.125
141
12.0
290
     0
  0
SCALE
  5
5F
102
{ACAD_REACTORS
330
47
102
}
330
47
100
AcDbScale
 70
     0
300
3/16" = 1'-0"
140
0.1875
141
12.0
290
     0
  0
SCALE
  5
60
102
{ACAD_REACTORS
330
47
102
}
330
47
100
AcDbScale
 70
     0
300
1/4" = 1'-0"
140
0.25
141
12.0
290
     0
  0
SCALE
  5
61
102
{ACAD_REACTORS
330
47
102
}
330
47
100
AcDbScale
 70
     0
300
3/8" = 1'-0"
140
0.375
141
12.0
290
     0
  0
SCALE
  5
62
102
{ACAD_REACTORS
330
47
102
}
330
47
100
AcDbScale
 70
     0
300
1/2" = 1'-0"
140
0.5
141
12.0
290
     0
  0
SCALE
  5
63
102
{ACAD_REACTORS
330
47
102
}
330
47
100
AcDbScale
 70
     0
300
3/4" = 1'-0"
140
0.75
141
12.0
290
     0
  0
SCALE
  5
64
102
{ACAD_REACTORS
330
47
102
}
330
47
100
AcDbScale
 70
     0
300
1" = 1'-0"
140
1.0
141
12.0
290
     0
  0
SCALE
  5
65
102
{ACAD_REACTORS
330
47
102
}
330
47
100
AcDbScale
 70
     0
300
1-1/2" = 1'-0"
140
1.5
141
12.0
290
     0
  0
SCALE
  5
66
102
{ACAD_REACTORS
330
47
102
}
330
47
100
AcDbScale
 70
     0
300
3" = 1'-0"
140
3.0
141
12.0
290
     0
  0
SCALE
  5
67
102
{ACAD_REACTORS
330
47
102
}
330
47
100
AcDbScale
 70
     0
300
6" = 1'-0"
140
6.0
141
12.0
290
     0
  0
SCALE
  5
68
102
{ACAD_REACTORS
330
47
102
}
330
47
100
AcDbScale
 70
     0
300
1'-0" = 1'-0"
140
12.0
141
12.0
290
     0
  0
ENDSEC
  0
EOF
