  0
SECTION
  2
HEADER
  9
$ACADVER
  1
AC1015
  9
$ACADMAINTVER
 70
     6
  9
$DWGCODEPAGE
  3
ANSI_1252
  9
$INSBASE
 10
0.0
 20
0.0
 30
0.0
  9
$EXTMIN
 10
0.0
 20
0.0
 30
0.0
  9
$EXTMAX
 10
1600.0
 20
900.0
 30
0.0
  9
$LIMMIN
 10
0.0
 20
0.0
  9
$LIMMAX
 10
1600.0
 20
900.0
  9
$ORTHOMODE
 70
     0
  9
$REGENMODE
 70
     1
  9
$FILLMODE
 70
     1
  9
$QTEXTMODE
 70
     0
  9
$MIRRTEXT
 70
     1
  9
$LTSCALE
 40
1.0
  9
$ATTMODE
 70
     1
  9
$TEXTSIZE
 40
5.0
  9
$TRACEWID
 40
1.0
  9
$TEXTSTYLE
  7
Standard
  9
$CLAYER
  8
0
  9
$CELTYPE
  6
ByLayer
  9
$CECOLOR
 62
   256
  9
$CELTSCALE
 40
1.0
  9
$DISPSILH
 70
     0
  9
$DIMSCALE
 40
1.0
  9
$DIMASZ
 40
6.0
  9
$DIMEXO
 40
1.0
  9
$DIMDLI
 40
3.75
  9
$DIMRND
 40
0.0
  9
$DIMDLE
 40
0.0
  9
$DIMEXE
 40
1.0
  9
$DIMTP
 40
0.0
  9
$DIMTM
 40
0.0
  9
$DIMTXT
 40
5.0
  9
$DIMCEN
 40
2.5
  9
$DIMTSZ
 40
0.0
  9
$DIMTOL
 70
     0
  9
$DIMLIM
 70
     0
  9
$DIMTIH
 70
     1
  9
$DIMTOH
 70
     1
  9
$DIMSE1
 70
     0
  9
$DIMSE2
 70
     0
  9
$DIMTAD
 70
     1
  9
$DIMZIN
 70
     0
  9
$DIMBLK
  1

  9
$DIMASO
 70
     1
  9
$DIMSHO
 70
     1
  9
$DIMPOST
  1

  9
$DIMAPOST
  1

  9
$DIMALT
 70
     0
  9
$DIMALTD
 70
     3
  9
$DIMALTF
 40
0.0393700787
  9
$DIMLFAC
 40
1.0
  9
$DIMTOFL
 70
     1
  9
$DIMTVP
 40
0.0
  9
$DIMTIX
 70
     0
  9
$DIMSOXD
 70
     0
  9
$DIMSAH
 70
     0
  9
$DIMBLK1
  1

  9
$DIMBLK2
  1

  9
$DIMSTYLE
  2
ISO-25
  9
$DIMCLRD
 70
     0
  9
$DIMCLRE
 70
     0
  9
$DIMCLRT
 70
     0
  9
$DIMTFAC
 40
1.0
  9
$DIMGAP
 40
1.524
  9
$DIMJUST
 70
     0
  9
$DIMSD1
 70
     0
  9
$DIMSD2
 70
     0
  9
$DIMTOLJ
 70
     0
  9
$DIMTZIN
 70
     0
  9
$DIMALTZ
 70
     0
  9
$DIMALTTZ
 70
     0
  9
$DIMUPT
 70
     0
  9
$DIMDEC
 70
     2
  9
$DIMTDEC
 70
     2
  9
$DIMALTU
 70
     2
  9
$DIMALTTD
 70
     3
  9
$DIMTXSTY
  7
Standard
  9
$DIMAUNIT
 70
     0
  9
$DIMADEC
 70
     2
  9
$DIMALTRND
 40
0.0
  9
$DIMAZIN
 70
     0
  9
$DIMDSEP
 70
    44
  9
$DIMATFIT
 70
     3
  9
$DIMFRAC
 70
     0
  9
$DIMLDRBLK
  1

  9
$DIMLUNIT
 70
     2
  9
$DIMLWD
 70
    -2
  9
$DIMLWE
 70
    -2
  9
$DIMTMOVE
 70
     0
  9
$LUNITS
 70
     2
  9
$LUPREC
 70
     2
  9
$SKETCHINC
 40
1.0
  9
$FILLETRAD
 40
10.0
  9
$AUNITS
 70
     0
  9
$AUPREC
 70
     2
  9
$MENU
  1
.
  9
$ELEVATION
 40
0.0
  9
$PELEVATION
 40
0.0
  9
$THICKNESS
 40
0.0
  9
$LIMCHECK
 70
     0
  9
$CHAMFERA
 40
0.0
  9
$CHAMFERB
 40
0.0
  9
$CHAMFERC
 40
0.0
  9
$CHAMFERD
 40
0.0
  9
$SKPOLY
 70
     0
  9
$TDCREATE
 40
2458506.373325012
  9
$TDUCREATE
 40
2458506.289991678
  9
$TDUPDATE
 40
2458506.373325729
  9
$TDUUPDATE
 40
2458506.289992396
  9
$TDINDWG
 40
0.0000000116
  9
$TDUSRTIMER
 40
0.0000000116
  9
$USRTIMER
 70
     1
  9
$ANGBASE
 50
0.0
  9
$ANGDIR
 70
     0
  9
$PDMODE
 70
     0
  9
$PDSIZE
 40
-1.0
  9
$PLINEWID
 40
0.0
  9
$SPLFRAME
 70
     0
  9
$SPLINETYPE
 70
     6
  9
$SPLINESEGS
 70
     8
  9
$HANDSEED
  5
17C
  9
$SURFTAB1
 70
     6
  9
$SURFTAB2
 70
     6
  9
$SURFTYPE
 70
     6
  9
$SURFU
 70
     6
  9
$SURFV
 70
     6
  9
$UCSBASE
  2

  9
$UCSNAME
  2

  9
$UCSORG
 10
0.0
 20
0.0
 30
0.0
  9
$UCSXDIR
 10
1.0
 20
0.0
 30
0.0
  9
$UCSYDIR
 10
0.0
 20
1.0
 30
0.0
  9
$UCSORTHOREF
  2

  9
$UCSORTHOVIEW
 70
     0
  9
$UCSORGTOP
 10
0.0
 20
0.0
 30
0.0
  9
$UCSORGBOTTOM
 10
0.0
 20
0.0
 30
0.0
  9
$UCSORGLEFT
 10
0.0
 20
0.0
 30
0.0
  9
$UCSORGRIGHT
 10
0.0
 20
0.0
 30
0.0
  9
$UCSORGFRONT
 10
0.0
 20
0.0
 30
0.0
  9
$UCSORGBACK
 10
0.0
 20
0.0
 30
0.0
  9
$PUCSBASE
  2

  9
$PUCSNAME
  2

  9
$PUCSORG
 10
0.0
 20
0.0
 30
0.0
  9
$PUCSXDIR
 10
1.0
 20
0.0
 30
0.0
  9
$PUCSYDIR
 10
0.0
 20
1.0
 30
0.0
  9
$PUCSORTHOREF
  2

  9
$PUCSORTHOVIEW
 70
     0
  9
$PUCSORGTOP
 10
0.0
 20
0.0
 30
0.0
  9
$PUCSORGBOTTOM
 10
0.0
 20
0.0
 30
0.0
  9
$PUCSORGLEFT
 10
0.0
 20
0.0
 30
0.0
  9
$PUCSORGRIGHT
 10
0.0
 20
0.0
 30
0.0
  9
$PUCSORGFRONT
 10
0.0
 20
0.0
 30
0.0
  9
$PUCSORGBACK
 10
0.0
 20
0.0
 30
0.0
  9
$USERI1
 70
     0
  9
$USERI2
 70
     0
  9
$USERI3
 70
     0
  9
$USERI4
 70
     0
  9
$USERI5
 70
     0
  9
$USERR1
 40
0.0
  9
$USERR2
 40
0.0
  9
$USERR3
 40
0.0
  9
$USERR4
 40
0.0
  9
$USERR5
 40
0.0
  9
$WORLDVIEW
 70
     1
  9
$SHADEDGE
 70
     3
  9
$SHADEDIF
 70
    70
  9
$TILEMODE
 70
     1
  9
$MAXACTVP
 70
    64
  9
$PINSBASE
 10
0.0
 20
0.0
 30
0.0
  9
$PLIMCHECK
 70
     0
  9
$PEXTMIN
 10
1.0000000000E+20
 20
1.0000000000E+20
 30
1.0000000000E+20
  9
$PEXTMAX
 10
-1.0000000000E+20
 20
-1.0000000000E+20
 30
-1.0000000000E+20
  9
$PLIMMIN
 10
0.0
 20
0.0
  9
$PLIMMAX
 10
420.0
 20
297.0
  9
$UNITMODE
 70
     0
  9
$VISRETAIN
 70
     1
  9
$PLINEGEN
 70
     0
  9
$PSLTSCALE
 70
     1
  9
$TREEDEPTH
 70
  3020
  9
$CMLSTYLE
  2
Standard
  9
$CMLJUST
 70
     0
  9
$CMLSCALE
 40
20.0
  9
$PROXYGRAPHICS
 70
     1
  9
$MEASUREMENT
 70
     1
  9
$CELWEIGHT
370
    -1
  9
$ENDCAPS
280
     0
  9
$JOINSTYLE
280
     0
  9
$LWDISPLAY
290
     1
  9
$INSUNITS
 70
     4
  9
$HYPERLINKBASE
  1

  9
$STYLESHEET
  1

  9
$XEDIT
290
     1
  9
$CEPSNTYPE
380
     0
  9
$PSTYLEMODE
290
     1
  9
$FINGERPRINTGUID
  2
{FF95AC46-07B2-4F0D-8219-842FBEC04E6E}
  9
$VERSIONGUID
  2
{FAEB1C32-E019-11D5-929B-00C0DF256EC4}
  9
$EXTNAMES
290
     1
  9
$PSVPSCALE
 40
0.0
  9
$OLESTARTUP
290
     0
  0
ENDSEC
  0
SECTION
  2
CLASSES
  0
CLASS
  1
ACDBDICTIONARYWDFLT
  2
AcDbDictionaryWithDefault
  3
ObjectDBX Classes
 90
        0
280
     0
281
     0
  0
CLASS
  1
VISUALSTYLE
  2
AcDbVisualStyle
  3
ObjectDBX Classes
 90
     4095
280
     0
281
     0
  0
CLASS
  1
MATERIAL
  2
AcDbMaterial
  3
ObjectDBX Classes
 90
     1153
280
     0
281
     0
  0
CLASS
  1
SCALE
  2
AcDbScale
  3
ObjectDBX Classes
 90
     1153
280
     0
281
     0
  0
CLASS
  1
TABLESTYLE
  2
AcDbTableStyle
  3
ObjectDBX Classes
 90
     4095
280
     0
281
     0
  0
CLASS
  1
MLEADERSTYLE
  2
AcDbMLeaderStyle
  3
ACDB_MLEADERSTYLE_CLASS
 90
     4095
280
     0
281
     0
  0
CLASS
  1
SUN
  2
AcDbSun
  3
SCENEOE
 90
     1153
280
     0
281
     0
  0
CLASS
  1
ACDBPLACEHOLDER
  2
AcDbPlaceHolder
  3
ObjectDBX Classes
 90
        0
280
     0
281
     0
  0
CLASS
  1
LAYOUT
  2
AcDbLayout
  3
ObjectDBX Classes
 90
        0
280
     0
281
     0
  0
ENDSEC
  0
SECTION
  2
TABLES
  0
TABLE
  2
VPORT
  5
8
330
0
100
AcDbSymbolTable
 70
     1
  0
VPORT
  5
29
330
8
100
AcDbSymbolTableRecord
100
AcDbViewportTableRecord
  2
*Active
 70
     0
 10
0.0
 20
0.0
 11
1.0
 21
1.0
 12
800.0
 22
450.0
 13
0.0
 23
0.0
 14
10.0
 24
10.0
 15
10.0
 25
10.0
 16
0.0
 26
0.0
 36
1.0
 17
0.0
 27
0.0
 37
0.0
 40
900.0
 41
1.7777777778
 42
50.0
 43
0.0
 44
0.0
 50
0.0
 51
0.0
 71
     0
 72
  2000
 73
     1
 74
     3
 75
     0
 76
     0
 77
     0
 78
     0
281
     0
 65
     1
110
0.0
120
0.0
130
0.0
111
1.0
121
0.0
131
0.0
112
0.0
122
1.0
132
0.0
 79
     0
146
0.0
  0
ENDTAB
  0
TABLE
  2
LTYPE
  5
5
330
0
100
AcDbSymbolTable
 70
     6
  0
LTYPE
  5
14
330
5
100
AcDbSymbolTableRecord
100
AcDbLinetypeTableRecord
  2
ByBlock
 70
     0
  3

 72
    65
 73
     0
 40
0.0
  0
LTYPE
  5
15
330
5
100
AcDbSymbolTableRecord
100
AcDbLinetypeTableRecord
  2
ByLayer
 70
     0
  3

 72
    65
 73
     0
 40
0.0
  0
LTYPE
  5
16
330
5
100
AcDbSymbolTableRecord
100
AcDbLinetypeTableRecord
  2
Continuous
 70
     0
  3
Solid line
 72
    65
 73
     0
 40
0.0
  0
LTYPE
  5
6E
330
5
100
AcDbSymbolTableRecord
100
AcDbLinetypeTableRecord
  2
HIDDEN
 70
     0
  3
Hidden __ __ __ __ __ __ __ __ __ __ __ __ __ __
 72
    65
 73
     2
 40
1.905
 49
1.27
 74
     0
 49
-0.635
 74
     0
  0
LTYPE
  5
6F
330
5
100
AcDbSymbolTableRecord
100
AcDbLinetypeTableRecord
  2
PHANTOM
 70
     0
  3
Phantom ______  __  __  ______  __  __  ______
 72
    65
 73
     6
 40
12.7
 49
6.35
 74
     0
 49
-1.27
 74
     0
 49
1.27
 74
     0
 49
-1.27
 74
     0
 49
1.27
 74
     0
 49
-1.27
 74
     0
  0
LTYPE
  5
70
330
5
100
AcDbSymbolTableRecord
100
AcDbLinetypeTableRecord
  2
CENTER
 70
     0
  3
Center ____ _ ____ _ ____ _ ____ _ ____ _ ____
 72
    65
 73
     4
 40
10.16
 49
6.35
 74
     0
 49
-1.27
 74
     0
 49
1.27
 74
     0
 49
-1.27
 74
     0
  0
LTYPE
  5
71
330
5
100
AcDbSymbolTableRecord
100
AcDbLinetypeTableRecord
  2
CENTERX2
 70
     0
  3
Center (2x) ________  __  ________  __  _____
 72
    65
 73
     4
 40
20.32
 49
12.7
 74
     0
 49
-2.54
 74
     0
 49
2.54
 74
     0
 49
-2.54
 74
     0
  0
LTYPE
  5
72
330
5
100
AcDbSymbolTableRecord
100
AcDbLinetypeTableRecord
  2
DOT2
 70
     0
  3
Dot (.5x) ........................................
 72
    65
 73
     2
 40
0.635
 49
0.0
 74
     0
 49
-0.635
 74
     0
  0
ENDTAB
  0
TABLE
  2
LAYER
  5
2
330
0
100
AcDbSymbolTable
 70
     2
  0
LAYER
  5
10
330
2
100
AcDbSymbolTableRecord
100
AcDbLayerTableRecord
  2
0
 70
     0
 62
     7
  6
Continuous
370
    -3
390
F
  0
LAYER
  5
73
330
2
100
AcDbSymbolTableRecord
100
AcDbLayerTableRecord
  2
TABLE_BL1
 70
     0
 62
   179
  6
Continuous
370
    -3
390
F
  0
ENDTAB
  0
TABLE
  2
STYLE
  5
3
330
0
100
AcDbSymbolTable
 70
     1
  0
STYLE
  5
11
330
3
100
AcDbSymbolTableRecord
100
AcDbTextStyleTableRecord
  2
Standard
 70
     0
 40
0.0
 41
1.0
 50
0.0
 71
     0
 42
5.0
  3
txt
  4

  0
ENDTAB
  0
TABLE
  2
VIEW
  5
6
330
0
100
AcDbSymbolTable
 70
     0
  0
ENDTAB
  0
TABLE
  2
UCS
  5
7
330
0
100
AcDbSymbolTable
 70
     0
  0
ENDTAB
  0
TABLE
  2
APPID
  5
9
330
0
100
AcDbSymbolTable
 70
     1
  0
APPID
  5
12
330
9
100
AcDbSymbolTableRecord
100
AcDbRegAppTableRecord
  2
ACAD
 70
     0
  0
ENDTAB
  0
TABLE
  2
DIMSTYLE
  5
A
330
0
100
AcDbSymbolTable
 70
     1
100
AcDbDimStyleTable
  0
DIMSTYLE
105
27
330
A
100
AcDbSymbolTableRecord
100
AcDbDimStyleTableRecord
  2
ISO-25
 70
     0
 41
2.5
 42
0.625
 43
3.75
 44
1.25
 73
     0
 74
     0
 77
     1
 78
     8
140
2.5
141
2.5
143
0.0393700787
147
0.625
171
     3
172
     1
178
     0
271
     2
272
     2
274
     3
278
    44
283
     0
284
     8
340
11
  0
ENDTAB
  0
TABLE
  2
BLOCK_RECORD
  5
1
330
0
100
AcDbSymbolTable
 70
     1
  0
BLOCK_RECORD
  5
1F
330
1
100
AcDbSymbolTableRecord
100
AcDbBlockTableRecord
  2
*Model_Space
340
22
  0
BLOCK_RECORD
  5
1B
330
1
100
AcDbSymbolTableRecord
100
AcDbBlockTableRecord
  2
*Paper_Space
340
1E
  0
BLOCK_RECORD
  5
23
330
1
100
AcDbSymbolTableRecord
100
AcDbBlockTableRecord
  2
*Paper_Space0
340
26
  0
ENDTAB
  0
ENDSEC
  0
SECTION
  2
BLOCKS
  0
BLOCK
  5
20
330
1F
100
AcDbEntity
  8
0
100
AcDbBlockBegin
  2
*Model_Space
 70
     0
 10
0.0
 20
0.0
 30
0.0
  3
*Model_Space
  1

  0
ENDBLK
  5
21
330
1F
100
AcDbEntity
  8
0
100
AcDbBlockEnd
  0
BLOCK
  5
1C
330
1B
100
AcDbEntity
 67
     1
  8
0
100
AcDbBlockBegin
  2
*Paper_Space
 70
     0
 10
0.0
 20
0.0
 30
0.0
  3
*Paper_Space
  1

  0
ENDBLK
  5
1D
330
1B
100
AcDbEntity
 67
     1
  8
0
100
AcDbBlockEnd
  0
BLOCK
  5
24
330
23
100
AcDbEntity
  8
0
100
AcDbBlockBegin
  2
*Paper_Space0
 70
     0
 10
0.0
 20
0.0
 30
0.0
  3
*Paper_Space0
  1

  0
ENDBLK
  5
25
330
23
100
AcDbEntity
  8
0
100
AcDbBlockEnd
  0
ENDSEC
  0
SECTION
  2
ENTITIES
  0
ARC
  5
74
330
1F
100
AcDbEntity
  8
0
  6
Continuous
 62
     7
370
    25
100
AcDbCircle
 10
670.826781148
 20
638.6823868174
 30
0.0
 40
59.99999999999989
100
AcDbArc
 50
0.0
 51
90.0
  0
LINE
  5
75
330
1F
100
AcDbEntity
  8
0
  6
Continuous
 62
     7
370
    25
100
AcDbLine
 10
670.8267802539
 20
701.6823803801
 30
0.0
 11
670.8267802539
 21
698.6823892016
 31
0.0
  0
ARC
  5
76
330
1F
100
AcDbEntity
  8
0
  6
Continuous
 62
     7
370
    25
100
AcDbCircle
 10
670.826781148
 20
638.6823868174
 30
0.0
 40
62.99999999999989
100
AcDbArc
 50
0.0
 51
90.0
  0
LINE
  5
77
330
1F
100
AcDbEntity
  8
0
  6
Continuous
 62
     7
370
    25
100
AcDbLine
 10
730.8267807754
 20
638.6823868174
 30
0.0
 11
733.8267812672
 21
638.6823868174
 31
0.0
  0
LINE
  5
78
330
1F
100
AcDbEntity
  8
0
  6
Continuous
 62
     7
370
    25
100
AcDbLine
 10
450.8267739954
 20
701.6823803801
 30
0.0
 11
670.8267802539
 21
701.6823803801
 31
0.0
  0
LINE
  5
79
330
1F
100
AcDbEntity
  8
0
  6
Continuous
 62
     7
370
    25
100
AcDbLine
 10
670.8267802539
 20
698.6823892016
 30
0.0
 11
450.8267739954
 21
698.6823892016
 31
0.0
  0
LINE
  5
7A
330
1F
100
AcDbEntity
  8
0
  6
Continuous
 62
     7
370
    25
100
AcDbLine
 10
450.8267739954
 20
701.6823803801
 30
0.0
 11
450.8267739954
 21
698.6823892016
 31
0.0
  0
LINE
  5
7B
330
1F
100
AcDbEntity
  8
0
  6
Continuous
 62
     7
370
    25
100
AcDbLine
 10
730.8267807754
 20
358.6823856253
 30
0.0
 11
730.8267807754
 21
638.6823868174
 31
0.0
  0
LINE
  5
7C
330
1F
100
AcDbEntity
  8
0
  6
Continuous
 62
     7
370
    25
100
AcDbLine
 10
733.8267812672
 20
638.6823868174
 30
0.0
 11
733.8267812672
 21
358.6823856253
 31
0.0
  0
LINE
  5
7D
330
1F
100
AcDbEntity
  8
0
  6
Continuous
 62
     7
370
    25
100
AcDbLine
 10
730.8267807754
 20
358.6823856253
 30
0.0
 11
733.8267812672
 21
358.6823856253
 31
0.0
  0
ARC
  5
7E
330
1F
100
AcDbEntity
  8
0
  6
Continuous
 62
     7
370
    25
100
AcDbCircle
 10
450.826781148
 20
638.6823868174
 30
0.0
 40
59.99999999999989
100
AcDbArc
 50
90.0
 51
180.0
  0
LINE
  5
7F
330
1F
100
AcDbEntity
  8
0
  6
Continuous
 62
     7
370
    25
100
AcDbLine
 10
387.8267804327
 20
638.6823868174
 30
0.0
 11
390.8267716112
 21
638.6823868174
 31
0.0
  0
ARC
  5
80
330
1F
100
AcDbEntity
  8
0
  6
Continuous
 62
     7
370
    25
100
AcDbCircle
 10
450.826781148
 20
638.6823868174
 30
0.0
 40
62.99999999999994
100
AcDbArc
 50
90.0
 51
180.0
  0
LINE
  5
81
330
1F
100
AcDbEntity
  8
0
  6
Continuous
 62
     7
370
    25
100
AcDbLine
 10
390.8267716112
 20
638.6823868174
 30
0.0
 11
390.8267716112
 21
358.6823856253
 31
0.0
  0
LINE
  5
82
330
1F
100
AcDbEntity
  8
0
  6
Continuous
 62
     7
370
    25
100
AcDbLine
 10
387.8267804327
 20
358.6823856253
 30
0.0
 11
390.8267716112
 21
358.6823856253
 31
0.0
  0
LINE
  5
83
330
1F
100
AcDbEntity
  8
0
  6
Continuous
 62
     7
370
    25
100
AcDbLine
 10
387.8267804327
 20
358.6823856253
 30
0.0
 11
387.8267804327
 21
638.6823868174
 31
0.0
  0
ARC
  5
84
330
1F
100
AcDbEntity
  8
0
  6
Continuous
 62
     7
370
    25
100
AcDbCircle
 10
450.826781148
 20
358.6823868174
 30
0.0
 40
59.99999999999994
100
AcDbArc
 50
180.0
 51
270.0
  0
LINE
  5
85
330
1F
100
AcDbEntity
  8
0
  6
Continuous
 62
     7
370
    25
100
AcDbLine
 10
450.8267739954
 20
298.6823832412
 30
0.0
 11
450.8267739954
 21
295.6823920627
 31
0.0
  0
ARC
  5
86
330
1F
100
AcDbEntity
  8
0
  6
Continuous
 62
     7
370
    25
100
AcDbCircle
 10
450.826781148
 20
358.6823868174
 30
0.0
 40
63.00000000000006
100
AcDbArc
 50
180.0
 51
270.0
  0
LINE
  5
87
330
1F
100
AcDbEntity
  8
0
  6
Continuous
 62
     7
370
    25
100
AcDbLine
 10
450.8267739954
 20
298.6823832412
 30
0.0
 11
670.8267802539
 21
298.6823832412
 31
0.0
  0
LINE
  5
88
330
1F
100
AcDbEntity
  8
0
  6
Continuous
 62
     7
370
    25
100
AcDbLine
 10
670.8267802539
 20
298.6823832412
 30
0.0
 11
670.8267802539
 21
295.6823920627
 31
0.0
  0
LINE
  5
89
330
1F
100
AcDbEntity
  8
0
  6
Continuous
 62
     7
370
    25
100
AcDbLine
 10
670.8267802539
 20
295.6823920627
 30
0.0
 11
450.8267739954
 21
295.6823920627
 31
0.0
  0
ARC
  5
8A
330
1F
100
AcDbEntity
  8
0
  6
Continuous
 62
     7
370
    25
100
AcDbCircle
 10
670.826781148
 20
358.6823868174
 30
0.0
 40
59.99999999999994
100
AcDbArc
 50
270.0
 51
0.0
  0
ARC
  5
8B
330
1F
100
AcDbEntity
  8
0
  6
Continuous
 62
     7
370
    25
100
AcDbCircle
 10
670.826781148
 20
358.6823868174
 30
0.0
 40
62.99999999999994
100
AcDbArc
 50
270.0
 51
0.0
  0
LINE
  5
8C
330
1F
100
AcDbEntity
  8
0
  6
Continuous
 62
     7
370
    25
100
AcDbLine
 10
390.8267716112
 20
638.6823868174
 30
0.0
 11
398.5033432188
 21
638.6823868174
 31
0.0
  0
SPLINE
  5
8D
330
1F
100
AcDbEntity
  8
0
  6
Continuous
 62
     7
370
    25
100
AcDbSpline
210
0.0
220
0.0
230
1.0
 70
     8
 71
     3
 72
    13
 73
     9
 74
     0
 42
0.000000001
 43
0.00000001
 40
0.0
 40
0.0
 40
0.0
 40
0.0
 40
0.1395973522792789
 40
0.2792043671747141
 40
0.4188036590577101
 40
0.6286495297793173
 40
0.8384937719824175
 40
1.0
 40
1.0
 40
1.0
 40
1.0
 10
398.5033432188002
 20
358.6823856253496
 30
0.0
 10
398.5955918520844
 20
371.7011385499306
 30
0.0
 10
398.7800955038965
 20
397.7395455280202
 30
0.0
 10
398.9482930435001
 20
436.831385394059
 30
0.0
 10
399.0540574102166
 20
482.4937058571745
 30
0.0
 10
399.0329980677721
 20
534.7227770404488
 30
0.0
 10
398.8501146356904
 20
588.9859707835035
 30
0.0
 10
398.6084479190158
 20
623.6196490754369
 30
0.0
 10
398.5033432188002
 20
638.6823868174425
 30
0.0
  0
LINE
  5
8E
330
1F
100
AcDbEntity
  8
0
  6
Continuous
 62
     7
370
    25
100
AcDbLine
 10
390.8267716112
 20
358.6823856253
 30
0.0
 11
398.5033432188
 21
358.6823856253
 31
0.0
  0
LINE
  5
8F
330
1F
100
AcDbEntity
  8
0
  6
Continuous
 62
     7
370
    25
100
AcDbLine
 10
450.8267739954
 20
698.6823892016
 30
0.0
 11
450.8267739954
 21
690.9766262193
 31
0.0
  0
SPLINE
  5
90
330
1F
100
AcDbEntity
  8
0
  6
Continuous
 62
     7
370
    25
100
AcDbSpline
210
0.0
220
0.0
230
1.0
 70
     8
 71
     3
 72
    21
 73
    17
 74
     0
 42
0.000000001
 43
0.00000001
 40
0.0
 40
0.0
 40
0.0
 40
0.0
 40
0.0706534514959158
 40
0.1415283975515338
 40
0.2121817357613159
 40
0.2828267040196688
 40
0.353693607249865
 40
0.4243385257671474
 40
0.494851216026551
 40
0.5655842961005306
 40
0.636096955027252
 40
0.706604896363952
 40
0.7773327091547735
 40
0.8478406419291366
 40
0.9239205879613965
 40
1.0
 40
1.0
 40
1.0
 40
1.0
 10
398.5033432188002
 20
638.6823868174425
 30
0.0
 10
398.5621744251997
 20
640.6188734345714
 30
0.0
 10
398.6800212704911
 20
644.4979174444468
 30
0.0
 10
399.6722240822888
 20
650.2433234811833
 30
0.0
 10
401.2428740329168
 20
655.8495367350577
 30
0.0
 10
403.4544722409449
 20
661.2392649652714
 30
0.0
 10
406.2415334118781
 20
666.3525846915891
 30
0.0
 10
409.5732163104857
 20
671.1261491754105
 30
0.0
 10
413.4237959944176
 20
675.4868081556957
 30
0.0
 10
417.7264591096828
 20
679.395422289268
 30
0.0
 10
422.4325565588271
 20
682.8087880134153
 30
0.0
 10
427.4958499606954
 20
685.6639230028468
 30
0.0
 10
432.8409136862537
 20
687.9495536558969
 30
0.0
 10
438.55119262719
 20
689.6646766584591
 30
0.0
 10
444.5711434636966
 20
690.7771627690481
 30
0.0
 10
448.7415686967778
 20
690.9101385580792
 30
0.0
 10
450.8267739953963
 20
690.9766262192599
 30
0.0
  0
LINE
  5
91
330
1F
100
AcDbEntity
  8
0
  6
Continuous
 62
     7
370
    25
100
AcDbLine
 10
670.8267802539
 20
698.6823892016
 30
0.0
 11
670.8267802539
 21
690.2641122956
 31
0.0
  0
SPLINE
  5
92
330
1F
100
AcDbEntity
  8
0
  6
Continuous
 62
     7
370
    25
100
AcDbSpline
210
0.0
220
0.0
230
1.0
 70
     8
 71
     3
 72
    11
 73
     7
 74
     0
 42
0.000000001
 43
0.00000001
 40
0.0
 40
0.0
 40
0.0
 40
0.0
 40
0.2497649946192105
 40
0.4995336605007505
 40
0.7497666653715552
 40
1.0
 40
1.0
 40
1.0
 40
1.0
 10
450.8267739953963
 20
690.9766262192599
 30
0.0
 10
469.1203032403392
 20
690.8219923083516
 30
0.0
 10
505.7076306243706
 20
690.512722213592
 30
0.0
 10
560.7011451720349
 20
690.269854848914
 30
0.0
 10
615.7477709200085
 20
690.1662128525826
 30
0.0
 10
652.4671024111273
 20
690.2314791336028
 30
0.0
 10
670.826780253884
 20
690.2641122956148
 30
0.0
  0
LINE
  5
93
330
1F
100
AcDbEntity
  8
0
  6
Continuous
 62
     7
370
    25
100
AcDbLine
 10
730.8267807754
 20
358.6823856253
 30
0.0
 11
722.3305279555
 21
358.6823856253
 31
0.0
  0
SPLINE
  5
94
330
1F
100
AcDbEntity
  8
0
  6
Continuous
 62
     7
370
    25
100
AcDbSpline
210
0.0
220
0.0
230
1.0
 70
     8
 71
     3
 72
    15
 73
    11
 74
     0
 42
0.000000001
 43
0.00000001
 40
0.0
 40
0.0
 40
0.0
 40
0.0
 40
0.1385973678673691
 40
0.2771961491050264
 40
0.4159017043627072
 40
0.5546090619944678
 40
0.6659298363616332
 40
0.777249385634582
 40
0.8886249270280391
 40
1.0
 40
1.0
 40
1.0
 40
1.0
 10
722.3305279555289
 20
638.6823868174425
 30
0.0
 10
722.2485675665274
 20
625.7545043478796
 30
0.0
 10
722.0846459527195
 20
599.8986075744681
 30
0.0
 10
721.9593697263825
 20
561.0756289316431
 30
0.0
 10
721.9082545354784
 20
522.2370351149638
 30
0.0
 10
721.9082478851717
 20
485.9437557081531
 30
0.0
 10
721.934203178783
 20
452.2077448930538
 30
0.0
 10
722.0042379936768
 20
421.0264334227921
 30
0.0
 10
722.1282045917367
 20
389.8467173651678
 30
0.0
 10
722.2630869288126
 20
369.0704816418643
 30
0.0
 10
722.3305279555289
 20
358.6823856253496
 30
0.0
  0
LINE
  5
95
330
1F
100
AcDbEntity
  8
0
  6
Continuous
 62
     7
370
    25
100
AcDbLine
 10
730.8267807754
 20
638.6823868174
 30
0.0
 11
722.3305279555
 21
638.6823868174
 31
0.0
  0
SPLINE
  5
96
330
1F
100
AcDbEntity
  8
0
  6
Continuous
 62
     7
370
    25
100
AcDbSpline
210
0.0
220
0.0
230
1.0
 70
     8
 71
     3
 72
    21
 73
    17
 74
     0
 42
0.000000001
 43
0.00000001
 40
0.0
 40
0.0
 40
0.0
 40
0.0
 40
0.0709468372088293
 40
0.1421171469090788
 40
0.2130639004441819
 40
0.2840105690305923
 40
0.3551808407897005
 40
0.4261275342730082
 40
0.4970934148902244
 40
0.5682831286824702
 40
0.6392491435408488
 40
0.7103181156097437
 40
0.7816116051825611
 40
0.8526805128107153
 40
0.9263402145836832
 40
1.0
 40
1.0
 40
1.0
 40
1.0
 10
670.826780253884
 20
690.2641122956148
 30
0.0
 10
672.7422616013077
 20
690.2023732535989
 30
0.0
 10
676.5792577911753
 20
690.0787007003265
 30
0.0
 10
682.2603036698666
 20
689.0846049245389
 30
0.0
 10
687.8019986722097
 20
687.5172291868156
 30
0.0
 10
693.1273001881991
 20
685.3145993591114
 30
0.0
 10
698.1769058204713
 20
682.5421219138772
 30
0.0
 10
702.8910438248773
 20
679.2282088446568
 30
0.0
 10
707.1962336649993
 20
675.397492048319
 30
0.0
 10
711.0524611513603
 20
671.1156153151169
 30
0.0
 10
714.4153553947904
 20
666.4318184967091
 30
0.0
 10
717.2211446551161
 20
661.3919177375727
 30
0.0
 10
719.4578095856175
 20
656.0712656687822
 30
0.0
 10
721.0991979193177
 20
650.4684559920427
 30
0.0
 10
722.1423738718349
 20
644.6483486262457
 30
0.0
 10
722.2678099038912
 20
640.6710415064399
 30
0.0
 10
722.3305279555289
 20
638.6823868174425
 30
0.0
  0
SPLINE
  5
97
330
1F
100
AcDbEntity
  8
0
  6
Continuous
 62
     7
370
    25
100
AcDbSpline
210
0.0
220
0.0
230
1.0
 70
     8
 71
     3
 72
    21
 73
    17
 74
     0
 42
0.000000001
 43
0.00000001
 40
0.0
 40
0.0
 40
0.0
 40
0.0
 40
0.070800206646049
 40
0.1418228877850778
 40
0.2126231865366794
 40
0.2834023766559197
 40
0.3544048753027402
 40
0.4251842790272905
 40
0.495776783358251
 40
0.5665906057355377
 40
0.6371831845818109
 40
0.7076713100500295
 40
0.7783796629174621
 40
0.8488678859382119
 40
0.9244338492034981
 40
1.0
 40
1.0
 40
1.0
 40
1.0
 10
450.8267739953963
 20
306.3881462235323
 30
0.0
 10
448.8863854005314
 20
306.4461608302944
 30
0.0
 10
444.999510955027
 20
306.5623723423013
 30
0.0
 10
439.2423289947041
 20
307.5553923941526
 30
0.0
 10
433.6251166417916
 20
309.1290390159907
 30
0.0
 10
428.2255908607183
 20
311.3461209319098
 30
0.0
 10
423.1038669992258
 20
314.1404822166896
 30
0.0
 10
418.3246271242534
 20
317.4806115978189
 30
0.0
 10
413.9609962027045
 20
321.3400050342427
 30
0.0
 10
410.0518336783804
 20
325.6511858831402
 30
0.0
 10
406.6410424371429
 20
330.3641498377839
 30
0.0
 10
403.7908130521384
 20
335.4317682092003
 30
0.0
 10
401.5114714138516
 20
340.7781038794049
 30
0.0
 10
399.8065935630624
 20
346.4760739482876
 30
0.0
 10
398.703450574607
 20
352.4686319937983
 30
0.0
 10
398.5700457259139
 20
356.6111327014349
 30
0.0
 10
398.5033432188002
 20
358.6823856253496
 30
0.0
  0
LINE
  5
98
330
1F
100
AcDbEntity
  8
0
  6
Continuous
 62
     7
370
    25
100
AcDbLine
 10
450.8267739954
 20
298.6823832412
 30
0.0
 11
450.8267739954
 21
306.3881462235
 31
0.0
  0
SPLINE
  5
99
330
1F
100
AcDbEntity
  8
0
  6
Continuous
 62
     7
370
    25
100
AcDbSpline
210
0.0
220
0.0
230
1.0
 70
     8
 71
     3
 72
    12
 73
     8
 74
     0
 42
0.000000001
 43
0.00000001
 40
0.0
 40
0.0
 40
0.0
 40
0.0
 40
0.1872443772448738
 40
0.3744889775018884
 40
0.5619043455968693
 40
0.7493184261938242
 40
1.0
 40
1.0
 40
1.0
 40
1.0
 10
670.826780253884
 20
307.1006601471773
 30
0.0
 10
657.0890543928958
 20
307.1276586456557
 30
0.0
 10
629.6135863089878
 20
307.1816556747683
 30
0.0
 10
588.3828414375432
 20
307.1519101092747
 30
0.0
 10
547.1482970413539
 20
307.0387457352175
 30
0.0
 10
501.2746825935033
 20
306.8155330977264
 30
0.0
 10
469.1873710137991
 20
306.5436943599387
 30
0.0
 10
450.8267739953963
 20
306.3881462235323
 30
0.0
  0
LINE
  5
9A
330
1F
100
AcDbEntity
  8
0
  6
Continuous
 62
     7
370
    25
100
AcDbLine
 10
670.8267802539
 20
298.6823832412
 30
0.0
 11
670.8267802539
 21
307.1006601472
 31
0.0
  0
SPLINE
  5
9B
330
1F
100
AcDbEntity
  8
0
  6
Continuous
 62
     7
370
    25
100
AcDbSpline
210
0.0
220
0.0
230
1.0
 70
     8
 71
     3
 72
    21
 73
    17
 74
     0
 42
0.000000001
 43
0.00000001
 40
0.0
 40
0.0
 40
0.0
 40
0.0
 40
0.0712589740346636
 40
0.142744267255648
 40
0.2140032551443982
 40
0.2852015677482693
 40
0.3566256966854957
 40
0.4278239955042207
 40
0.498908870058368
 40
0.5702185796846312
 40
0.6413032883961199
 40
0.7122859714318014
 40
0.7834926285998678
 40
0.854475270404373
 40
0.9272375624207266
 40
1.0
 40
1.0
 40
1.0
 40
1.0
 10
722.3305279555289
 20
358.6823856253496
 30
0.0
 10
722.2710785447865
 20
356.7585890215752
 30
0.0
 10
722.151990911402
 20
352.9048858175257
 30
0.0
 10
721.1578299105097
 20
347.1985102399946
 30
0.0
 10
719.585914252475
 20
341.6339013554814
 30
0.0
 10
717.374238318539
 20
336.2888104317808
 30
0.0
 10
714.5894731429312
 20
331.2229221776734
 30
0.0
 10
711.2617899790381
 20
326.497988102867
 30
0.0
 10
707.4171613929334
 20
322.1874755674493
 30
0.0
 10
703.1227557618105
 20
318.330557684541
 30
0.0
 10
698.4301703362503
 20
314.9724057464368
 30
0.0
 10
693.3868180742526
 20
312.1752005809788
 30
0.0
 10
688.0689573070928
 20
309.9489403598145
 30
0.0
 10
682.4911373577734
 20
308.3230772324982
 30
0.0
 10
676.7203538581787
 20
307.2927899670181
 30
0.0
 10
672.7913060986752
 20
307.1647034631642
 30
0.0
 10
670.826780253884
 20
307.1006601471773
 30
0.0
  0
SPLINE
  5
9C
330
1F
100
AcDbEntity
  8
0
  6
Continuous
 62
     7
370
    25
100
AcDbSpline
210
0.0
220
0.0
230
1.0
 70
     8
 71
     3
 72
    13
 73
     9
 74
     0
 42
0.000000001
 43
0.00000001
 40
0.0
 40
0.0
 40
0.0
 40
0.0
 40
0.1616186418216879
 40
0.3710089088683519
 40
0.5804004813362881
 40
0.7202651165140361
 40
0.8601370005577181
 40
1.0
 40
1.0
 40
1.0
 40
1.0
 10
430.7168523015944
 20
640.5106549877993
 30
0.0
 10
430.8416858370225
 20
625.2397536270951
 30
0.0
 10
431.1282515032559
 20
590.1841413078064
 30
0.0
 10
431.3703821663473
 20
535.2890945146979
 30
0.0
 10
431.4024624736494
 20
482.4407851795292
 30
0.0
 10
431.2606438943834
 20
436.1762017301961
 30
0.0
 10
431.0449804100402
 20
396.4989009414721
 30
0.0
 10
430.8262260218055
 20
370.068765469809
 30
0.0
 10
430.7168523015944
 20
356.8541174549928
 30
0.0
  0
LWPOLYLINE
  5
9D
330
1F
100
AcDbEntity
  8
0
  6
Continuous
 62
     7
370
    25
100
AcDbPolyline
 90
       14
 70
   128
 43
0.0
 10
430.7168523016
 20
356.854117455
 10
427.0784357729
 20
356.9046025891
 10
423.506836051
 20
356.9746082444
 10
420.0412133875
 20
357.0633446593
 10
416.7195955458
 20
357.1698432584
 10
413.5784307661
 20
357.2929268498
 10
410.6521705332
 20
357.4312692304
 10
407.9729119482
 20
357.5833206792
 10
405.5700699034
 20
357.7474420686
 10
403.470019454
 20
357.9218154569
 10
401.6957381906
 20
358.1045334954
 10
400.2667764368
 20
358.2935994286
 10
399.1987208071
 20
358.4869121928
 10
398.5033432188
 20
358.6823856253
  0
LWPOLYLINE
  5
9E
330
1F
100
AcDbEntity
  8
0
  6
Continuous
 62
     7
370
    25
100
AcDbPolyline
 90
       14
 70
   128
 43
0.0
 10
430.7168523016
 20
640.5106549878
 10
427.0784357729
 20
640.4601698537
 10
423.506836051
 20
640.3901641984
 10
420.0412133875
 20
640.3014277835
 10
416.7195955458
 20
640.1949291844
 10
413.5784307661
 20
640.071845593
 10
410.6521705332
 20
639.9335032124
 10
407.9729119482
 20
639.7814517636
 10
405.5700699034
 20
639.6173303742
 10
403.470019454
 20
639.4429569859
 10
401.6957381906
 20
639.2602389474
 10
400.2667764368
 20
639.0711730142
 10
399.1987208071
 20
638.87786025
 10
398.5033432188
 20
638.6823868174
  0
LWPOLYLINE
  5
9F
330
1F
100
AcDbEntity
  8
0
  6
Continuous
 62
     7
370
    25
100
AcDbPolyline
 90
       14
 70
   128
 43
0.0
 10
670.8267802539
 20
690.2641122956
 10
670.8899388256
 20
689.5374273677
 10
670.9523970427
 20
688.4329533
 10
671.0134545507
 20
686.9629835505
 10
671.0724333467
 20
685.1439093966
 10
671.1286777797
 20
682.9959964175
 10
671.1815545502
 20
680.5431907792
 10
671.2304750624
 20
677.8128063102
 10
671.2749028745
 20
674.8352711816
 10
671.314331347
 20
671.6437553782
 10
671.3483357968
 20
668.2738428731
 10
671.3765213432
 20
664.7630696912
 10
671.3985825124
 20
661.1505513806
 10
671.4142734351
 20
657.476550879
  0
SPLINE
  5
A0
330
1F
100
AcDbEntity
  8
0
  6
Continuous
 62
     7
370
    25
100
AcDbSpline
210
0.0
220
0.0
230
1.0
 70
     8
 71
     3
 72
    12
 73
     8
 74
     0
 42
0.000000001
 43
0.00000001
 40
0.0
 40
0.0
 40
0.0
 40
0.0
 40
0.1870734192393102
 40
0.3741469399626103
 40
0.5613808394598349
 40
0.7486136278623944
 40
1.0
 40
1.0
 40
1.0
 40
1.0
 10
671.4142734351126
 20
657.4765508789889
 30
0.0
 10
657.5147293335159
 20
657.4364926096464
 30
0.0
 10
629.7156335900683
 20
657.3563760492307
 30
0.0
 10
588.0002715064411
 20
657.4004361457116
 30
0.0
 10
546.2813579568982
 20
657.567997267942
 30
0.0
 10
499.7984339453746
 20
657.86902202114
 30
0.0
 10
467.260476712596
 20
658.1858485182117
 30
0.0
 10
448.6119548025099
 20
658.3674317021242
 30
0.0
  0
LWPOLYLINE
  5
A1
330
1F
100
AcDbEntity
  8
0
  6
Continuous
 62
     7
370
    25
100
AcDbPolyline
 90
       14
 70
   128
 43
0.0
 10
448.6119548025
 20
658.3674317021
 10
448.6710230055
 20
662.0403742213
 10
448.754082078
 20
665.6494652648
 10
448.860297555
 20
669.154441895
 10
448.9884177389
 20
672.5162183661
 10
449.137071723
 20
675.6973182578
 10
449.3045309725
 20
678.662247004
 10
449.4889775457
 20
681.3779687304
 10
449.6883550825
 20
683.814159574
 10
449.9004284086
 20
685.9436845202
 10
450.1228133383
 20
687.7427911181
 10
450.353066081
 20
689.1913926024
 10
450.5885938349
 20
690.2733659167
 10
450.8267739954
 20
690.9766262193
  0
LWPOLYLINE
  5
A2
330
1F
100
AcDbEntity
  8
0
  6
Continuous
 62
     7
370
    25
100
AcDbPolyline
 90
       14
 70
   128
 43
0.0
 10
448.6119548025
 20
338.9973407407
 10
448.6710230055
 20
335.3243982215
 10
448.754082078
 20
331.715307178
 10
448.860297555
 20
328.2103305478
 10
448.9884177389
 20
324.8485540767
 10
449.137071723
 20
321.667454185
 10
449.3045309725
 20
318.7025254388
 10
449.4889775457
 20
315.9868186135
 10
449.6883550825
 20
313.5506128688
 10
449.9004284086
 20
311.4210879226
 10
450.1228133383
 20
309.6219813247
 10
450.353066081
 20
308.1733798404
 10
450.5885938349
 20
307.0914065261
 10
450.8267739954
 20
306.3881462235
  0
SPLINE
  5
A3
330
1F
100
AcDbEntity
  8
0
  6
Continuous
 62
     7
370
    25
100
AcDbSpline
210
0.0
220
0.0
230
1.0
 70
     8
 71
     3
 72
    12
 73
     8
 74
     0
 42
0.000000001
 43
0.00000001
 40
0.0
 40
0.0
 40
0.0
 40
0.0
 40
0.2510432986462143
 40
0.4381989717546444
 40
0.6253555732373722
 40
0.8126778519270036
 40
0.9999999999999999
 40
0.9999999999999999
 40
0.9999999999999999
 40
0.9999999999999999
 10
448.6119548025099
 20
338.9973407406679
 30
0.0
 10
467.2350151216759
 20
339.1786961351651
 30
0.0
 10
499.741781591008
 20
339.4952540668821
 30
0.0
 10
546.1877029414193
 20
339.7962660795615
 30
0.0
 10
587.9135979804795
 20
339.9641202565558
 30
0.0
 10
629.6601845340693
 20
340.0085015294554
 30
0.0
 10
657.4962470363681
 20
339.9283148763685
 30
0.0
 10
671.4142734351126
 20
339.8882215638033
 30
0.0
  0
LWPOLYLINE
  5
A4
330
1F
100
AcDbEntity
  8
0
  6
Continuous
 62
     7
370
    25
100
AcDbPolyline
 90
       14
 70
   128
 43
0.0
 10
670.8267802539
 20
307.1006601472
 10
670.8899388256
 20
307.8273450751
 10
670.9523970427
 20
308.9318191428
 10
671.0134545507
 20
310.4017888923
 10
671.0724333467
 20
312.2208630462
 10
671.1286777797
 20
314.3687760253
 10
671.1815545502
 20
316.8215816636
 10
671.2304750624
 20
319.5519661326
 10
671.2749028745
 20
322.5295012612
 10
671.314331347
 20
325.7210170646
 10
671.3483357968
 20
329.0909295697
 10
671.3765213432
 20
332.6017027516
 10
671.3985825124
 20
336.2142210622
 10
671.4142734351
 20
339.8882215638
  0
SPLINE
  5
A5
330
1F
100
AcDbEntity
  8
0
  6
Continuous
 62
     7
370
    25
100
AcDbSpline
210
0.0
220
0.0
230
1.0
 70
     8
 71
     3
 72
    16
 73
    12
 74
     0
 42
0.000000001
 43
0.00000001
 40
0.0
 40
0.0
 40
0.0
 40
0.0
 40
0.1510144721424801
 40
0.2568612552144929
 40
0.3627065845309518
 40
0.4686943533043596
 40
0.5746825010219238
 40
0.6809758050399359
 40
0.7872711071608082
 40
0.8936347331292767
 40
1.0
 40
1.0
 40
1.0
 40
1.0
 10
430.7168523015944
 20
356.8541174549928
 30
0.0
 10
430.8002407921202
 20
355.4345986152385
 30
0.0
 10
430.9420766840252
 20
353.0201320690394
 30
0.0
 10
432.0437725911715
 20
349.7745995635764
 30
0.0
 10
433.4229786004436
 20
347.1224247029
 30
0.0
 10
435.2482468590388
 20
344.7459542542385
 30
0.0
 10
437.4397347596254
 20
342.6997544976156
 30
0.0
 10
439.9528808561822
 20
341.0566596908146
 30
0.0
 10
442.7037979390172
 20
339.8590149372355
 30
0.0
 10
445.620437733346
 20
339.1146288382697
 30
0.0
 10
447.6147773182864
 20
339.0364369742483
 30
0.0
 10
448.6119548025099
 20
338.9973407406679
 30
0.0
  0
SPLINE
  5
A6
330
1F
100
AcDbEntity
  8
0
  6
Continuous
 62
     7
370
    25
100
AcDbSpline
210
0.0
220
0.0
230
1.0
 70
     8
 71
     3
 72
    16
 73
    12
 74
     0
 42
0.000000001
 43
0.00000001
 40
0.0
 40
0.0
 40
0.0
 40
0.0
 40
0.1520669914624486
 40
0.2579661748461535
 40
0.3638629727957636
 40
0.4697355089471791
 40
0.5756068735239329
 40
0.6816797552696559
 40
0.7877544910903094
 40
0.8938759250439152
 40
1.0
 40
1.0
 40
1.0
 40
1.0
 10
448.6119548025099
 20
658.3674317021242
 30
0.0
 10
447.1832995613867
 20
658.2854251739462
 30
0.0
 10
444.759731341998
 20
658.1463094448651
 30
0.0
 10
441.5049637429492
 20
657.0436567585065
 30
0.0
 10
438.8528883924528
 20
655.667037169016
 30
0.0
 10
436.4764740458349
 20
653.845453663005
 30
0.0
 10
434.4305513655992
 20
651.6593973425194
 30
0.0
 10
432.7864487023033
 20
649.15228439824
 30
0.0
 10
431.5866509537582
 20
646.4078492670873
 30
0.0
 10
430.8388471525665
 20
643.4971227810378
 30
0.0
 10
430.7575175892503
 20
641.5061525101919
 30
0.0
 10
430.7168523015944
 20
640.5106549877993
 30
0.0
  0
LWPOLYLINE
  5
A7
330
1F
100
AcDbEntity
  8
0
  6
Continuous
 62
     7
370
    25
100
AcDbPolyline
 90
       15
 70
   128
 43
0.0
 10
722.3305279555
 20
358.6823856253
 10
721.6482708397
 20
358.5193222184
 10
720.6253135743
 20
358.3578979392
 10
719.2719193342
 20
358.1997221131
 10
717.6016705277
 20
358.0464040656
 10
715.6313346865
 20
357.8994637151
 10
713.3806819262
 20
357.7603762765
 10
710.8723061326
 20
357.630542459
 10
708.1313828173
 20
357.5112735648
 10
705.1854157987
 20
357.4037616868
 10
702.0639801564
 20
357.3090648074
 10
698.7983981314
 20
357.2281664033
 10
695.4214485528
 20
357.161856236
 10
691.9670278373
 20
357.1108197589
 10
688.4697998109
 20
357.0755487103
  0
SPLINE
  5
A8
330
1F
100
AcDbEntity
  8
0
  6
Continuous
 62
     7
370
    25
100
AcDbSpline
210
0.0
220
0.0
230
1.0
 70
     8
 71
     3
 72
    15
 73
    11
 74
     0
 42
0.000000001
 43
0.00000001
 40
0.0
 40
0.0
 40
0.0
 40
0.0
 40
0.1113973519744106
 40
0.2227951466115548
 40
0.3342535551314653
 40
0.4457129225440496
 40
0.5842471856943096
 40
0.7227806225847141
 40
0.8613909516169751
 40
1.0
 40
1.0
 40
1.0
 40
1.0
 10
688.4697998108832
 20
357.0755487103334
 30
0.0
 10
688.3839369358096
 20
367.5855459839165
 30
0.0
 10
688.2122108444671
 20
388.605582294949
 30
0.0
 10
688.0012074362636
 20
420.1603401690494
 30
0.0
 10
687.7985864931209
 20
451.7270645283731
 30
0.0
 10
687.6278737620764
 20
485.8593889786854
 30
0.0
 10
687.6694636183348
 20
522.5494883825386
 30
0.0
 10
687.9025211278865
 20
561.8012902981362
 30
0.0
 10
688.1528264982398
 20
601.055105086186
 30
0.0
 10
688.364142365402
 20
627.2112343949678
 30
0.0
 10
688.4697998108832
 20
640.2892386336199
 30
0.0
  0
LWPOLYLINE
  5
A9
330
1F
100
AcDbEntity
  8
0
  6
Continuous
 62
     7
370
    25
100
AcDbPolyline
 90
       15
 70
   128
 43
0.0
 10
722.3305279555
 20
638.6823868174
 10
721.6482708397
 20
638.8454502244
 10
720.6253135743
 20
639.0068745036
 10
719.2719193342
 20
639.1650503297
 10
717.6016705277
 20
639.3183683772
 10
715.6313346865
 20
639.4653087277
 10
713.3806819262
 20
639.6043961663
 10
710.8723061326
 20
639.7342299838
 10
708.1313828173
 20
639.853498878
 10
705.1854157987
 20
639.961010756
 10
702.0639801564
 20
640.0557076354
 10
698.7983981314
 20
640.1366060395
 10
695.4214485528
 20
640.2029162068
 10
691.9670278373
 20
640.2539526839
 10
688.4697998109
 20
640.2892386336
  0
SPLINE
  5
AA
330
1F
100
AcDbEntity
  8
0
  6
Continuous
 62
     7
370
    25
100
AcDbSpline
210
0.0
220
0.0
230
1.0
 70
     8
 71
     3
 72
    16
 73
    12
 74
     0
 42
0.000000001
 43
0.00000001
 40
0.0
 40
0.0
 40
0.0
 40
0.0
 40
0.1453386677761667
 40
0.2518850558193378
 40
0.3584310570623708
 40
0.4651606612850046
 40
0.5718914661660062
 40
0.6788495564647131
 40
0.7858099983298292
 40
0.8929038564467974
 40
1.0
 40
1.0
 40
1.0
 40
1.0
 10
671.4142734351126
 20
339.8882215638033
 30
0.0
 10
672.7218569901261
 20
339.9686582435454
 30
0.0
 10
674.988017550028
 20
340.1080622843061
 30
0.0
 10
678.0610540929246
 20
341.1389122992697
 30
0.0
 10
680.6194047751834
 20
342.4603430250909
 30
0.0
 10
682.9120061338867
 20
344.2132491608802
 30
0.0
 10
684.8859807037784
 20
346.3199244080758
 30
0.0
 10
686.4717110943235
 20
348.7367141748064
 30
0.0
 10
687.6291555920623
 20
351.3835149823892
 30
0.0
 10
688.3512693271954
 20
354.191882420647
 30
0.0
 10
688.4302893686024
 20
356.1143197762159
 30
0.0
 10
688.4697998108832
 20
357.0755487103334
 30
0.0
  0
SPLINE
  5
AB
330
1F
100
AcDbEntity
  8
0
  6
Continuous
 62
     7
370
    25
100
AcDbSpline
210
0.0
220
0.0
230
1.0
 70
     8
 71
     3
 72
    16
 73
    12
 74
     0
 42
0.000000001
 43
0.00000001
 40
0.0
 40
0.0
 40
0.0
 40
0.0
 40
0.1473038853040898
 40
0.2540878513550482
 40
0.3608695300217961
 40
0.4674397768383709
 40
0.5740076185748876
 40
0.6805051265595582
 40
0.7870023064463937
 40
0.8935006820020217
 40
1.0
 40
1.0
 40
1.0
 40
1.0
 10
688.4697998108832
 20
640.2892386336199
 30
0.0
 10
688.3945049849677
 20
641.6136774746399
 30
0.0
 10
688.2646272122564
 20
643.8982324181243
 30
0.0
 10
687.2415704816475
 20
646.994165680386
 30
0.0
 10
685.9326525838543
 20
649.5602206014132
 30
0.0
 10
684.1939686011514
 20
651.8615105866903
 30
0.0
 10
682.1044335478709
 20
653.843602055933
 30
0.0
 10
679.7049134646109
 20
655.439639483525
 30
0.0
 10
677.076115006992
 20
656.6087424270097
 30
0.0
 10
674.2839599937081
 20
657.3440364368917
 30
0.0
 10
672.3708384429485
 20
657.4323792679942
 30
0.0
 10
671.4142734351126
 20
657.4765508789889
 30
0.0
  0
CIRCLE
  5
AC
330
1F
100
AcDbEntity
  8
0
  6
Continuous
 62
     7
370
    25
100
AcDbCircle
 10
620.826781148
 20
498.6823868174
 30
0.0
 40
59.16685163393561
  0
CIRCLE
  5
AD
330
1F
100
AcDbEntity
  8
0
  6
Continuous
 62
     7
370
    25
100
AcDbCircle
 10
620.826781148
 20
498.6823868174
 30
0.0
 40
57.682218803821
  0
CIRCLE
  5
AE
330
1F
100
AcDbEntity
  8
0
  6
Continuous
 62
     7
370
    25
100
AcDbCircle
 10
620.826781148
 20
498.6823868174
 30
0.0
 40
57.5731323515945
  0
CIRCLE
  5
AF
330
1F
100
AcDbEntity
  8
0
  6
Continuous
 62
     7
370
    25
100
AcDbCircle
 10
620.826781148
 20
498.6823868174
 30
0.0
 40
56.66409339625056
  0
CIRCLE
  5
B0
330
1F
100
AcDbEntity
  8
0
  6
Continuous
 62
     7
370
    25
100
AcDbCircle
 10
620.826781148
 20
498.6823868174
 30
0.0
 40
45.0
  0
ARC
  5
B1
330
1F
100
AcDbEntity
  8
0
  6
Continuous
 62
     7
370
    25
100
AcDbCircle
 10
840.826781148
 20
638.6823868174
 30
0.0
 40
59.99999999999989
100
AcDbArc
 50
90.0
 51
180.0
  0
LINE
  5
B2
330
1F
100
AcDbEntity
  8
0
  6
Continuous
 62
     7
370
    25
100
AcDbLine
 10
780.8267815205
 20
638.6823868174
 30
0.0
 11
777.8267810287
 21
638.6823868174
 31
0.0
  0
ARC
  5
B3
330
1F
100
AcDbEntity
  8
0
  6
Continuous
 62
     7
370
    25
100
AcDbCircle
 10
840.826781148
 20
638.6823868174
 30
0.0
 40
63.0
100
AcDbArc
 50
90.0
 51
180.0
  0
LINE
  5
B4
330
1F
100
AcDbEntity
  8
0
  6
Continuous
 62
     7
370
    25
100
AcDbLine
 10
840.826782042
 20
698.6823892016
 30
0.0
 11
840.826782042
 21
701.6823803801
 31
0.0
  0
LINE
  5
B5
330
1F
100
AcDbEntity
  8
0
  6
Continuous
 62
     7
370
    25
100
AcDbLine
 10
780.8267815205
 20
638.6823868174
 30
0.0
 11
780.8267815205
 21
358.6823856253
 31
0.0
  0
LINE
  5
B6
330
1F
100
AcDbEntity
  8
0
  6
Continuous
 62
     7
370
    25
100
AcDbLine
 10
780.8267815205
 20
358.6823856253
 30
0.0
 11
777.8267810287
 21
358.6823856253
 31
0.0
  0
LINE
  5
B7
330
1F
100
AcDbEntity
  8
0
  6
Continuous
 62
     7
370
    25
100
AcDbLine
 10
777.8267810287
 20
358.6823856253
 30
0.0
 11
777.8267810287
 21
638.6823868174
 31
0.0
  0
LINE
  5
B8
330
1F
100
AcDbEntity
  8
0
  6
Continuous
 62
     7
370
    25
100
AcDbLine
 10
1060.8267883005
 20
295.6823920627
 30
0.0
 11
1060.8267883005
 21
298.6823832412
 31
0.0
  0
ARC
  5
B9
330
1F
100
AcDbEntity
  8
0
  6
Continuous
 62
     7
370
    25
100
AcDbCircle
 10
1060.826781148
 20
358.6823868174
 30
0.0
 40
60.0
100
AcDbArc
 50
270.0
 51
0.0
  0
LINE
  5
BA
330
1F
100
AcDbEntity
  8
0
  6
Continuous
 62
     7
370
    25
100
AcDbLine
 10
1123.8267818632
 20
358.6823856253
 30
0.0
 11
1120.8267906847
 21
358.6823856253
 31
0.0
  0
ARC
  5
BB
330
1F
100
AcDbEntity
  8
0
  6
Continuous
 62
     7
370
    25
100
AcDbCircle
 10
1060.826781148
 20
358.6823868174
 30
0.0
 40
62.99999999999994
100
AcDbArc
 50
270.0
 51
0.0
  0
LINE
  5
BC
330
1F
100
AcDbEntity
  8
0
  6
Continuous
 62
     7
370
    25
100
AcDbLine
 10
840.826782042
 20
295.6823920627
 30
0.0
 11
840.826782042
 21
298.6823832412
 31
0.0
  0
LINE
  5
BD
330
1F
100
AcDbEntity
  8
0
  6
Continuous
 62
     7
370
    25
100
AcDbLine
 10
840.826782042
 20
298.6823832412
 30
0.0
 11
1060.8267883005
 21
298.6823832412
 31
0.0
  0
LINE
  5
BE
330
1F
100
AcDbEntity
  8
0
  6
Continuous
 62
     7
370
    25
100
AcDbLine
 10
1060.8267883005
 20
295.6823920627
 30
0.0
 11
840.826782042
 21
295.6823920627
 31
0.0
  0
ARC
  5
BF
330
1F
100
AcDbEntity
  8
0
  6
Continuous
 62
     7
370
    25
100
AcDbCircle
 10
840.826781148
 20
358.6823868174
 30
0.0
 40
60.0
100
AcDbArc
 50
180.0
 51
270.0
  0
ARC
  5
C0
330
1F
100
AcDbEntity
  8
0
  6
Continuous
 62
     7
370
    25
100
AcDbCircle
 10
840.826781148
 20
358.6823868174
 30
0.0
 40
63.0
100
AcDbArc
 50
180.0
 51
270.0
  0
LINE
  5
C1
330
1F
100
AcDbEntity
  8
0
  6
Continuous
 62
     7
370
    25
100
AcDbLine
 10
1120.8267906847
 20
358.6823856253
 30
0.0
 11
1120.8267906847
 21
638.6823868174
 31
0.0
  0
LINE
  5
C2
330
1F
100
AcDbEntity
  8
0
  6
Continuous
 62
     7
370
    25
100
AcDbLine
 10
1123.8267818632
 20
638.6823868174
 30
0.0
 11
1120.8267906847
 21
638.6823868174
 31
0.0
  0
LINE
  5
C3
330
1F
100
AcDbEntity
  8
0
  6
Continuous
 62
     7
370
    25
100
AcDbLine
 10
1123.8267818632
 20
638.6823868174
 30
0.0
 11
1123.8267818632
 21
358.6823856253
 31
0.0
  0
ARC
  5
C4
330
1F
100
AcDbEntity
  8
0
  6
Continuous
 62
     7
370
    25
100
AcDbCircle
 10
1060.826781148
 20
638.6823868174
 30
0.0
 40
60.0
100
AcDbArc
 50
0.0
 51
90.0
  0
LINE
  5
C5
330
1F
100
AcDbEntity
  8
0
  6
Continuous
 62
     7
370
    25
100
AcDbLine
 10
1060.8267883005
 20
698.6823892016
 30
0.0
 11
1060.8267883005
 21
701.6823803801
 31
0.0
  0
ARC
  5
C6
330
1F
100
AcDbEntity
  8
0
  6
Continuous
 62
     7
370
    25
100
AcDbCircle
 10
1060.826781148
 20
638.6823868174
 30
0.0
 40
63.0
100
AcDbArc
 50
0.0
 51
90.0
  0
LINE
  5
C7
330
1F
100
AcDbEntity
  8
0
  6
Continuous
 62
     7
370
    25
100
AcDbLine
 10
1060.8267883005
 20
698.6823892016
 30
0.0
 11
840.826782042
 21
698.6823892016
 31
0.0
  0
LINE
  5
C8
330
1F
100
AcDbEntity
  8
0
  6
Continuous
 62
     7
370
    25
100
AcDbLine
 10
840.826782042
 20
701.6823803801
 30
0.0
 11
1060.8267883005
 21
701.6823803801
 31
0.0
  0
LINE
  5
C9
330
1F
100
AcDbEntity
  8
0
  6
Continuous
 62
     7
370
    25
100
AcDbLine
 10
780.9267813506
 20
518.3823867496
 30
0.0
 11
780.8267815205
 21
518.3823867496
 31
0.0
  0
LINE
  5
CA
330
1F
100
AcDbEntity
  8
0
  6
Continuous
 62
     7
370
    25
100
AcDbLine
 10
780.9267813506
 20
511.5023867488
 30
0.0
 11
780.9267813506
 21
518.3823867496
 31
0.0
  0
LINE
  5
CB
330
1F
100
AcDbEntity
  8
0
  6
Continuous
 62
     7
370
    25
100
AcDbLine
 10
780.9267813506
 20
511.5023867488
 30
0.0
 11
780.8267815205
 21
511.5023867488
 31
0.0
  0
LINE
  5
CC
330
1F
100
AcDbEntity
  8
0
  6
Continuous
 62
     7
370
    25
100
AcDbLine
 10
780.9267813506
 20
519.3823869136
 30
0.0
 11
780.8267815205
 21
519.3823869136
 31
0.0
  0
LINE
  5
CD
330
1F
100
AcDbEntity
  8
0
  6
Continuous
 62
     7
370
    25
100
AcDbLine
 10
780.9267813506
 20
519.3823869136
 30
0.0
 11
780.9267813506
 21
518.3823867496
 31
0.0
  0
LINE
  5
CE
330
1F
100
AcDbEntity
  8
0
  6
Continuous
 62
     7
370
    25
100
AcDbLine
 10
780.9267813506
 20
478.9823880215
 30
0.0
 11
780.8267815205
 21
478.9823880215
 31
0.0
  0
LINE
  5
CF
330
1F
100
AcDbEntity
  8
0
  6
Continuous
 62
     7
370
    25
100
AcDbLine
 10
780.9267813506
 20
478.9823880215
 30
0.0
 11
780.9267813506
 21
477.9823859949
 31
0.0
  0
LINE
  5
D0
330
1F
100
AcDbEntity
  8
0
  6
Continuous
 62
     7
370
    25
100
AcDbLine
 10
780.9267813506
 20
477.9823859949
 30
0.0
 11
780.8267815205
 21
477.9823859949
 31
0.0
  0
LINE
  5
D1
330
1F
100
AcDbEntity
  8
0
  6
Continuous
 62
     7
370
    25
100
AcDbLine
 10
780.9267813506
 20
485.8623863925
 30
0.0
 11
780.8267815205
 21
485.8623863925
 31
0.0
  0
LINE
  5
D2
330
1F
100
AcDbEntity
  8
0
  6
Continuous
 62
     7
370
    25
100
AcDbLine
 10
780.9267813506
 20
478.9823880215
 30
0.0
 11
780.9267813506
 21
485.8623863925
 31
0.0
  0
LINE
  5
D3
330
1F
100
AcDbEntity
  8
0
  6
Continuous
 62
     7
370
    25
100
AcDbLine
 10
780.9267813506
 20
494.2423859407
 30
0.0
 11
780.8267815205
 21
494.2423859407
 31
0.0
  0
LINE
  5
D4
330
1F
100
AcDbEntity
  8
0
  6
Continuous
 62
     7
370
    25
100
AcDbLine
 10
780.9267813506
 20
494.2423859407
 30
0.0
 11
780.9267813506
 21
486.3623874057
 31
0.0
  0
LINE
  5
D5
330
1F
100
AcDbEntity
  8
0
  6
Continuous
 62
     7
370
    25
100
AcDbLine
 10
780.9267813506
 20
486.3623874057
 30
0.0
 11
780.8267815205
 21
486.3623874057
 31
0.0
  0
LINE
  5
D6
330
1F
100
AcDbEntity
  8
0
  6
Continuous
 62
     7
370
    25
100
AcDbLine
 10
780.9267813506
 20
502.6223864202
 30
0.0
 11
780.8267815205
 21
502.6223864202
 31
0.0
  0
LINE
  5
D7
330
1F
100
AcDbEntity
  8
0
  6
Continuous
 62
     7
370
    25
100
AcDbLine
 10
780.9267813506
 20
494.7423869539
 30
0.0
 11
780.9267813506
 21
502.6223864202
 31
0.0
  0
LINE
  5
D8
330
1F
100
AcDbEntity
  8
0
  6
Continuous
 62
     7
370
    25
100
AcDbLine
 10
780.9267813506
 20
494.7423869539
 30
0.0
 11
780.8267815205
 21
494.7423869539
 31
0.0
  0
LINE
  5
D9
330
1F
100
AcDbEntity
  8
0
  6
Continuous
 62
     7
370
    25
100
AcDbLine
 10
780.9267813506
 20
503.1223865021
 30
0.0
 11
780.8267815205
 21
503.1223865021
 31
0.0
  0
LINE
  5
DA
330
1F
100
AcDbEntity
  8
0
  6
Continuous
 62
     7
370
    25
100
AcDbLine
 10
780.9267813506
 20
503.1223865021
 30
0.0
 11
780.9267813506
 21
506.952962352
 31
0.0
  0
LINE
  5
DB
330
1F
100
AcDbEntity
  8
0
  6
Continuous
 62
     7
370
    25
100
AcDbLine
 10
780.9267813506
 20
506.952962352
 30
0.0
 11
780.8267815205
 21
506.952962352
 31
0.0
  0
LINE
  5
DC
330
1F
100
AcDbEntity
  8
0
  6
Continuous
 62
     7
370
    25
100
AcDbLine
 10
780.9267813506
 20
485.8649587054
 30
0.0
 11
780.8267815205
 21
485.8649587054
 31
0.0
  0
LINE
  5
DD
330
1F
100
AcDbEntity
  8
0
  6
Continuous
 62
     7
370
    25
100
AcDbLine
 10
780.9267813506
 20
485.8623863925
 30
0.0
 11
780.9267813506
 21
485.8649587054
 31
0.0
  0
LINE
  5
DE
330
1F
100
AcDbEntity
  8
0
  6
Continuous
 62
     7
370
    25
100
AcDbLine
 10
780.9267813506
 20
511.0023868997
 30
0.0
 11
780.8267815205
 21
511.0023868997
 31
0.0
  0
LINE
  5
DF
330
1F
100
AcDbEntity
  8
0
  6
Continuous
 62
     7
370
    25
100
AcDbLine
 10
780.9267813506
 20
506.952962352
 30
0.0
 11
780.9267813506
 21
511.0023868997
 31
0.0
  0
LINE
  5
E0
330
1F
100
AcDbEntity
  8
0
  6
Continuous
 62
     7
370
    25
100
AcDbLine
 10
1060.8267883005
 20
698.6823892016
 30
0.0
 11
1060.8267883005
 21
690.9766262193
 31
0.0
  0
SPLINE
  5
E1
330
1F
100
AcDbEntity
  8
0
  6
Continuous
 62
     7
370
    25
100
AcDbSpline
210
0.0
220
0.0
230
1.0
 70
     8
 71
     3
 72
    12
 73
     8
 74
     0
 42
0.000000001
 43
0.00000001
 40
0.0
 40
0.0
 40
0.0
 40
0.0
 40
0.1872443772448738
 40
0.3744889775018884
 40
0.5619043455968693
 40
0.7493184261938242
 40
1.0
 40
1.0
 40
1.0
 40
1.0
 10
840.8267820420233
 20
690.2641122956148
 30
0.0
 10
854.5645079030116
 20
690.2371137971363
 30
0.0
 10
882.0399759869196
 20
690.1831167680238
 30
0.0
 10
923.270720858364
 20
690.2128623335174
 30
0.0
 10
964.5052652545534
 20
690.3260267075746
 30
0.0
 10
1010.378879702404
 20
690.5492393450656
 30
0.0
 10
1042.466191282108
 20
690.8210780828534
 30
0.0
 10
1060.826788300511
 20
690.9766262192599
 30
0.0
  0
LINE
  5
E2
330
1F
100
AcDbEntity
  8
0
  6
Continuous
 62
     7
370
    25
100
AcDbLine
 10
840.826782042
 20
698.6823892016
 30
0.0
 11
840.826782042
 21
690.2641122956
 31
0.0
  0
LINE
  5
E3
330
1F
100
AcDbEntity
  8
0
  6
Continuous
 62
     7
370
    25
100
AcDbLine
 10
1120.8267906847
 20
638.6823868174
 30
0.0
 11
1113.1502190771
 21
638.6823868174
 31
0.0
  0
SPLINE
  5
E4
330
1F
100
AcDbEntity
  8
0
  6
Continuous
 62
     7
370
    25
100
AcDbSpline
210
0.0
220
0.0
230
1.0
 70
     8
 71
     3
 72
    21
 73
    17
 74
     0
 42
0.000000001
 43
0.00000001
 40
0.0
 40
0.0
 40
0.0
 40
0.0
 40
0.0708002056343781
 40
0.141822885758557
 40
0.2126231834984864
 40
0.283402372606356
 40
0.3544048702386151
 40
0.4251842729517917
 40
0.4957766562568503
 40
0.566590611928566
 40
0.6371831897661351
 40
0.7076713142271421
 40
0.7783796660842163
 40
0.8488678880977532
 40
0.9244338502832701
 40
0.9999999999999999
 40
0.9999999999999999
 40
0.9999999999999999
 40
0.9999999999999999
 10
1060.826788300511
 20
690.9766262192599
 30
0.0
 10
1062.767176896805
 20
690.918611614045
 30
0.0
 10
1066.654051345173
 20
690.802400105138
 30
0.0
 10
1072.411233283994
 20
689.8093800300074
 30
0.0
 10
1078.02844571841
 20
688.2357334964113
 30
0.0
 10
1083.427971194893
 20
686.0186512507195
 30
0.0
 10
1088.549696195471
 20
683.2242911992004
 30
0.0
 10
1093.328929132282
 20
679.8841591180087
 30
0.0
 10
1097.69257647602
 20
676.0247829486983
 30
0.0
 10
1101.601722904836
 20
671.7135861655514
 30
0.0
 10
1105.012520807272
 20
667.0006235082474
 30
0.0
 10
1107.862748988915
 20
661.9330039909007
 30
0.0
 10
1110.142090950015
 20
656.5866686281032
 30
0.0
 10
1111.846968713285
 20
650.8886984758777
 30
0.0
 10
1112.950111726331
 20
644.8961404537845
 30
0.0
 10
1113.08351657167
 20
640.7536397429541
 30
0.0
 10
1113.150219077107
 20
638.6823868174425
 30
0.0
  0
SPLINE
  5
E5
330
1F
100
AcDbEntity
  8
0
  6
Continuous
 62
     7
370
    25
100
AcDbSpline
210
0.0
220
0.0
230
1.0
 70
     8
 71
     3
 72
    21
 73
    17
 74
     0
 42
0.000000001
 43
0.00000001
 40
0.0
 40
0.0
 40
0.0
 40
0.0
 40
0.0712589720057177
 40
0.1427442631913124
 40
0.2140032490511164
 40
0.2852015596277688
 40
0.3566258478125338
 40
0.4278239941934776
 40
0.4989088667236361
 40
0.570218574319509
 40
0.6413033880165939
 40
0.7122859796238389
 40
0.7834926347644491
 40
0.8544752745478764
 40
0.9272375644924805
 40
1.0
 40
1.0
 40
1.0
 40
1.0
 10
789.3230343403784
 20
638.6823868174425
 30
0.0
 10
789.3824837322542
 20
640.6061834323167
 30
0.0
 10
789.5015713278455
 20
644.4598866586012
 30
0.0
 10
790.495732612577
 20
650.1662620691411
 30
0.0
 10
792.0676471949154
 20
655.7308715865187
 30
0.0
 10
794.2793288144711
 20
661.0759641769513
 30
0.0
 10
797.0640797562868
 20
666.1418612137503
 30
0.0
 10
800.3917782839962
 20
670.8667849915499
 30
0.0
 10
804.2363992113561
 20
675.1772987187052
 30
0.0
 10
808.5308121914721
 20
679.0342116973025
 30
0.0
 10
813.223382524959
 20
682.3923865889207
 30
0.0
 10
818.2667494281607
 20
685.1895677349266
 30
0.0
 10
823.5846041940318
 20
687.4158334344311
 30
0.0
 10
829.1624251557287
 20
689.0416948402946
 30
0.0
 10
834.9332083827697
 20
690.0719825692265
 30
0.0
 10
838.8622561789125
 20
690.2000690107786
 30
0.0
 10
840.8267820420233
 20
690.2641122956148
 30
0.0
  0
LINE
  5
E6
330
1F
100
AcDbEntity
  8
0
  6
Continuous
 62
     7
370
    25
100
AcDbLine
 10
780.8267815205
 20
638.6823868174
 30
0.0
 11
789.3230343404
 21
638.6823868174
 31
0.0
  0
SPLINE
  5
E7
330
1F
100
AcDbEntity
  8
0
  6
Continuous
 62
     7
370
    25
100
AcDbSpline
210
0.0
220
0.0
230
1.0
 70
     8
 71
     3
 72
    17
 73
    13
 74
     0
 42
0.000000001
 43
0.00000001
 40
0.0
 40
0.0
 40
0.0
 40
0.0
 40
0.1074251098391114
 40
0.214852206373585
 40
0.3222632941336737
 40
0.4296534577148706
 40
0.5370271041656886
 40
0.6443937955815384
 40
0.7517634687791457
 40
0.8591467955639005
 40
0.966549476329236
 40
1.0
 40
1.0
 40
1.0
 40
1.0
 10
781.0293069275585
 20
501.7823865432611
 30
0.0
 10
781.0215977862943
 20
501.7481022646355
 30
0.0
 10
781.0061793611944
 20
501.6795330733386
 30
0.0
 10
780.9871926867204
 20
501.144996855885
 30
0.0
 10
780.973430618773
 20
500.3577890174974
 30
0.0
 10
780.9658699785873
 20
499.3751763847869
 30
0.0
 10
780.9648431598467
 20
498.3158878502983
 30
0.0
 10
780.9703955815426
 20
497.2993064477332
 30
0.0
 10
780.9822609490731
 20
496.4320627660226
 30
0.0
 10
780.9998496221324
 20
495.8433552774268
 30
0.0
 10
781.0165231707493
 20
495.5645363850533
 30
0.0
 10
781.0269273585907
 20
495.609432901287
 30
0.0
 10
781.0293981971708
 20
495.6200951505771
 30
0.0
  0
LINE
  5
E8
330
1F
100
AcDbEntity
  8
0
  6
Continuous
 62
     7
370
    25
100
AcDbLine
 10
781.2658069822
 20
507.1823866833
 30
0.0
 11
780.9267813506
 21
507.1823866833
 31
0.0
  0
LINE
  5
E9
330
1F
100
AcDbEntity
  8
0
  6
Continuous
 62
     7
370
    25
100
AcDbLine
 10
780.9267813506
 20
503.182386959
 30
0.0
 11
781.2658069822
 21
503.182386959
 31
0.0
  0
SPLINE
  5
EA
330
1F
100
AcDbEntity
  8
0
  6
Continuous
 62
     7
370
    25
100
AcDbSpline
210
0.0
220
0.0
230
1.0
 70
     8
 71
     3
 72
    17
 73
    13
 74
     0
 42
0.000000001
 43
0.00000001
 40
0.0
 40
0.0
 40
0.0
 40
0.0
 40
0.0740631934583723
 40
0.1814967409921747
 40
0.2889119120557014
 40
0.396274220198974
 40
0.5035726510946091
 40
0.6108276611174136
 40
0.7180836018699863
 40
0.8253833967654417
 40
0.9327453296309489
 40
1.0
 40
1.0
 40
1.0
 40
1.0
 10
781.2658069821564
 20
503.1823869590035
 30
0.0
 10
781.2709602511534
 20
503.1930297789368
 30
0.0
 10
781.2835886767551
 20
503.2191107112144
 30
0.0
 10
781.3029445524769
 20
503.4681801777115
 30
0.0
 10
781.3206017315549
 20
503.9262744085086
 30
0.0
 10
781.3321289289674
 20
504.5295027324423
 30
0.0
 10
781.3359616095996
 20
505.2052261598056
 30
0.0
 10
781.3315909195923
 20
505.8781519451136
 30
0.0
 10
781.3196140372928
 20
506.4734498690623
 30
0.0
 10
781.3016465097983
 20
506.9201018286759
 30
0.0
 10
781.2826213830853
 20
507.1506918920185
 30
0.0
 10
781.2704823905879
 20
507.1735736369936
 30
0.0
 10
781.2658069821564
 20
507.182386683332
 30
0.0
  0
LINE
  5
EB
330
1F
100
AcDbEntity
  8
0
  6
Continuous
 62
     7
370
    25
100
AcDbLine
 10
781.2658069822
 20
523.182386512
 30
0.0
 11
780.8831898662
 21
523.182386512
 31
0.0
  0
SPLINE
  5
EC
330
1F
100
AcDbEntity
  8
0
  6
Continuous
 62
     7
370
    25
100
AcDbSpline
210
0.0
220
0.0
230
1.0
 70
     8
 71
     3
 72
    15
 73
    11
 74
     0
 42
0.000000001
 43
0.00000001
 40
0.0
 40
0.0
 40
0.0
 40
0.0
 40
0.125305658244764
 40
0.2506104054246781
 40
0.3759097626923688
 40
0.5012023906396127
 40
0.6264903442643737
 40
0.7517763805295077
 40
0.877064241489873
 40
0.9999999999999999
 40
0.9999999999999999
 40
0.9999999999999999
 40
0.9999999999999999
 10
780.883189866182
 20
523.1823865119687
 30
0.0
 10
780.8805756439835
 20
523.1602718446927
 30
0.0
 10
780.8753472185938
 20
523.1160426709307
 30
0.0
 10
780.869030169194
 20
522.7712669020444
 30
0.0
 10
780.8645011112171
 20
522.2634561501438
 30
0.0
 10
780.8620451396021
 20
521.6297295237351
 30
0.0
 10
780.8617014482379
 20
520.9456593207798
 30
0.0
 10
780.8635315234627
 20
520.2920504218882
 30
0.0
 10
780.8673047917245
 20
519.7272568290169
 30
0.0
 10
780.8713585852491
 20
519.4966150515461
 30
0.0
 10
780.8733662756649
 20
519.382386913555
 30
0.0
  0
LINE
  5
ED
330
1F
100
AcDbEntity
  8
0
  6
Continuous
 62
     7
370
    25
100
AcDbLine
 10
780.9267813506
 20
519.1823867876
 30
0.0
 11
781.2658069822
 21
519.1823867876
 31
0.0
  0
SPLINE
  5
EE
330
1F
100
AcDbEntity
  8
0
  6
Continuous
 62
     7
370
    25
100
AcDbSpline
210
0.0
220
0.0
230
1.0
 70
     8
 71
     3
 72
    17
 73
    13
 74
     0
 42
0.000000001
 43
0.00000001
 40
0.0
 40
0.0
 40
0.0
 40
0.0
 40
0.0740632027372117
 40
0.181496751237201
 40
0.2889118231124514
 40
0.3962741977022798
 40
0.5035726295628867
 40
0.6108277869772389
 40
0.7180835993346147
 40
0.8253833951950541
 40
0.9327453290261044
 40
1.0
 40
1.0
 40
1.0
 40
1.0
 10
781.2658069821564
 20
519.1823867876402
 30
0.0
 10
781.2709602513067
 20
519.1930297869906
 30
0.0
 10
781.2835886764148
 20
519.2191111571464
 30
0.0
 10
781.302944540006
 20
519.4681805074448
 30
0.0
 10
781.3206017468821
 20
519.9262738329242
 30
0.0
 10
781.3321289248078
 20
520.5295025281154
 30
0.0
 10
781.3359616076685
 20
521.2052262315367
 30
0.0
 10
781.3315909335735
 20
521.8781522676317
 30
0.0
 10
781.3196140255233
 20
522.4734498084348
 30
0.0
 10
781.3016465110314
 20
522.9201016759453
 30
0.0
 10
781.2826213829069
 20
523.1506917179598
 30
0.0
 10
781.2704823905382
 20
523.1735734648807
 30
0.0
 10
781.2658069821564
 20
523.1823865119687
 30
0.0
  0
LINE
  5
EF
330
1F
100
AcDbEntity
  8
0
  6
Continuous
 62
     7
370
    25
100
AcDbLine
 10
781.2658069822
 20
486.1823869665
 30
0.0
 11
780.8831898662
 21
486.1823869665
 31
0.0
  0
SPLINE
  5
F0
330
1F
100
AcDbEntity
  8
0
  6
Continuous
 62
     7
370
    25
100
AcDbSpline
210
0.0
220
0.0
230
1.0
 70
     8
 71
     3
 72
     9
 73
     5
 74
     0
 42
0.000000001
 43
0.00000001
 40
0.0
 40
0.0
 40
0.0
 40
0.0
 40
0.6139900873920711
 40
1.0
 40
1.0
 40
1.0
 40
1.0
 10
780.883189866182
 20
486.1823869664541
 30
0.0
 10
780.8805259977353
 20
486.1665802159663
 30
0.0
 10
780.8761873797325
 20
486.1408359070397
 30
0.0
 10
780.8729182744589
 20
485.9417917305748
 30
0.0
 10
780.8716563674179
 20
485.8649587054124
 30
0.0
  0
LINE
  5
F1
330
1F
100
AcDbEntity
  8
0
  6
Continuous
 62
     7
370
    25
100
AcDbLine
 10
780.9267813506
 20
482.1823863108
 30
0.0
 11
781.2658069822
 21
482.1823863108
 31
0.0
  0
SPLINE
  5
F2
330
1F
100
AcDbEntity
  8
0
  6
Continuous
 62
     7
370
    25
100
AcDbSpline
210
0.0
220
0.0
230
1.0
 70
     8
 71
     3
 72
    17
 73
    13
 74
     0
 42
0.000000001
 43
0.00000001
 40
0.0
 40
0.0
 40
0.0
 40
0.0
 40
0.0740631884250063
 40
0.1814967286575793
 40
0.2889119925755287
 40
0.3962742934224134
 40
0.5035725700381711
 40
0.6108277191988348
 40
0.7180835233024717
 40
0.82538340863246
 40
0.9327453342016048
 40
1.0
 40
1.0
 40
1.0
 40
1.0
 10
781.2658069821564
 20
482.182386310803
 30
0.0
 10
781.2709602508925
 20
482.1930291387
 30
0.0
 10
781.2835886758547
 20
482.2191100904934
 30
0.0
 10
781.3029445647522
 20
482.4681794460135
 30
0.0
 10
781.3206017213155
 20
482.9262747019436
 30
0.0
 10
781.3321289261345
 20
483.5295027009062
 30
0.0
 10
781.3359616065376
 20
484.20522607635
 30
0.0
 10
781.3315909349355
 20
484.8781518390286
 30
0.0
 10
781.3196140155715
 20
485.4734493051095
 30
0.0
 10
781.3016465231259
 20
485.9201022290574
 30
0.0
 10
781.2826213821113
 20
486.1506921466158
 30
0.0
 10
781.270482390317
 20
486.1735739121841
 30
0.0
 10
781.2658069821564
 20
486.1823869664541
 30
0.0
  0
SPLINE
  5
F3
330
1F
100
AcDbEntity
  8
0
  6
Continuous
 62
     7
370
    25
100
AcDbSpline
210
0.0
220
0.0
230
1.0
 70
     8
 71
     3
 72
    15
 73
    11
 74
     0
 42
0.000000001
 43
0.00000001
 40
0.0
 40
0.0
 40
0.0
 40
0.0
 40
0.1385973678676415
 40
0.2771961624025187
 40
0.415901714335494
 40
0.5546090681228474
 40
0.6659298496599094
 40
0.7772493856341445
 40
0.8886249270278204
 40
1.0
 40
1.0
 40
1.0
 40
1.0
 10
789.3230343403784
 20
358.6823856253496
 30
0.0
 10
789.4049947305202
 20
371.6102680947611
 30
0.0
 10
789.5689163544723
 20
397.4661661081628
 30
0.0
 10
789.6941925609133
 20
436.2891456855049
 30
0.0
 10
789.7453077628451
 20
475.1277400730741
 30
0.0
 10
789.7453144077971
 20
511.4210194799789
 30
0.0
 10
789.7193591237115
 20
545.1570293644738
 30
0.0
 10
789.6493242947373
 20
576.3383402609796
 30
0.0
 10
789.5253577048104
 20
607.5180550776862
 30
0.0
 10
789.3904753673079
 20
628.2942908009485
 30
0.0
 10
789.3230343403784
 20
638.6823868174425
 30
0.0
  0
LINE
  5
F4
330
1F
100
AcDbEntity
  8
0
  6
Continuous
 62
     7
370
    25
100
AcDbLine
 10
780.8267815205
 20
358.6823856253
 30
0.0
 11
789.3230343404
 21
358.6823856253
 31
0.0
  0
LINE
  5
F5
330
1F
100
AcDbEntity
  8
0
  6
Continuous
 62
     7
370
    25
100
AcDbLine
 10
781.2658069822
 20
478.1823856552
 30
0.0
 11
780.9267813506
 21
478.1823856552
 31
0.0
  0
SPLINE
  5
F6
330
1F
100
AcDbEntity
  8
0
  6
Continuous
 62
     7
370
    25
100
AcDbSpline
210
0.0
220
0.0
230
1.0
 70
     8
 71
     3
 72
    16
 73
    12
 74
     0
 42
0.000000001
 43
0.00000001
 40
0.0
 40
0.0
 40
0.0
 40
0.0
 40
0.0909928029565587
 40
0.2152930164721175
 40
0.3395866830720951
 40
0.4638759708212749
 40
0.588163015579117
 40
0.7124520932751778
 40
0.8367443173287834
 40
0.9610420242103713
 40
1.0
 40
1.0
 40
1.0
 40
1.0
 10
780.8739194812742
 20
477.9823859948984
 30
0.0
 10
780.8723126881185
 20
477.9112123603527
 30
0.0
 10
780.868510944089
 20
477.7428123773129
 30
0.0
 10
780.8645361013223
 20
477.2583943866092
 30
0.0
 10
780.8620344611089
 20
476.6309218660645
 30
0.0
 10
780.8617091665985
 20
475.9459602258113
 30
0.0
 10
780.8635113244444
 20
475.2896611881
 30
0.0
 10
780.867401675178
 20
474.7329557509495
 30
0.0
 10
780.873217133387
 20
474.341868760505
 30
0.0
 10
780.8788921241656
 20
474.1942310266883
 30
0.0
 10
780.8823618739945
 20
474.1846672253598
 30
0.0
 10
780.883189866182
 20
474.1823849995008
 30
0.0
  0
LINE
  5
F7
330
1F
100
AcDbEntity
  8
0
  6
Continuous
 62
     7
370
    25
100
AcDbLine
 10
780.8831898662
 20
474.1823849995
 30
0.0
 11
781.2658069822
 21
474.1823849995
 31
0.0
  0
SPLINE
  5
F8
330
1F
100
AcDbEntity
  8
0
  6
Continuous
 62
     7
370
    25
100
AcDbSpline
210
0.0
220
0.0
230
1.0
 70
     8
 71
     3
 72
    17
 73
    13
 74
     0
 42
0.000000001
 43
0.00000001
 40
0.0
 40
0.0
 40
0.0
 40
0.0
 40
0.074063261189833
 40
0.181496690916207
 40
0.2889117601246343
 40
0.3962743284920414
 40
0.5035723167252215
 40
0.6108274714767208
 40
0.718083539890845
 40
0.8253834308140007
 40
0.932745361979547
 40
0.9999999999999999
 40
0.9999999999999999
 40
0.9999999999999999
 40
0.9999999999999999
 10
781.2658069821564
 20
474.1823849995008
 30
0.0
 10
781.2709602490646
 20
474.19302940953
 30
0.0
 10
781.2835886545145
 20
474.2191142073907
 30
0.0
 10
781.3029445550002
 20
474.4681792813365
 30
0.0
 10
781.3206017619333
 20
474.9262739076271
 30
0.0
 10
781.3321288954716
 20
475.5295023441373
 30
0.0
 10
781.3359616158475
 20
476.2052253598538
 30
0.0
 10
781.331590916484
 20
476.8781508796664
 30
0.0
 10
781.3196140397159
 20
477.4734496960902
 30
0.0
 10
781.3016465196259
 20
477.9201024797075
 30
0.0
 10
781.2826213875426
 20
478.1506935144362
 30
0.0
 10
781.270482390862
 20
478.1735733476576
 30
0.0
 10
781.2658069821564
 20
478.1823856551519
 30
0.0
  0
LINE
  5
F9
330
1F
100
AcDbEntity
  8
0
  6
Continuous
 62
     7
370
    25
100
AcDbLine
 10
781.2658069822
 20
494.1823864151
 30
0.0
 11
780.9267813506
 21
494.1823864151
 31
0.0
  0
LINE
  5
FA
330
1F
100
AcDbEntity
  8
0
  6
Continuous
 62
     7
370
    25
100
AcDbLine
 10
780.9267813506
 20
490.1823876221
 30
0.0
 11
781.2658069822
 21
490.1823876221
 31
0.0
  0
SPLINE
  5
FB
330
1F
100
AcDbEntity
  8
0
  6
Continuous
 62
     7
370
    25
100
AcDbSpline
210
0.0
220
0.0
230
1.0
 70
     8
 71
     3
 72
    17
 73
    13
 74
     0
 42
0.000000001
 43
0.00000001
 40
0.0
 40
0.0
 40
0.0
 40
0.0
 40
0.0740631985747986
 40
0.1814967535303149
 40
0.288911831859982
 40
0.3962741474200472
 40
0.5035724387402113
 40
0.6108276025993711
 40
0.7180836801212334
 40
0.8253833847025943
 40
0.9327453249848684
 40
1.0
 40
1.0
 40
1.0
 40
1.0
 10
781.2658069821564
 20
490.1823876221052
 30
0.0
 10
781.2709602514135
 20
490.1930304340488
 30
0.0
 10
781.2835886776525
 20
490.2191113467475
 30
0.0
 10
781.3029445402212
 20
490.4681809248624
 30
0.0
 10
781.3206017417223
 20
490.9262741279341
 30
0.0
 10
781.3321289215481
 20
491.5295022358846
 30
0.0
 10
781.3359616116524
 20
492.2052255771663
 30
0.0
 10
781.3315909155524
 20
492.8781515339124
 30
0.0
 10
781.3196140589054
 20
493.4734504453562
 30
0.0
 10
781.3016464965001
 20
493.920101443889
 30
0.0
 10
781.2826213840549
 20
494.1506916522221
 30
0.0
 10
781.2704823908574
 20
494.1735733766764
 30
0.0
 10
781.2658069821564
 20
494.1823864151111
 30
0.0
  0
LINE
  5
FC
330
1F
100
AcDbEntity
  8
0
  6
Continuous
 62
     7
370
    25
100
AcDbLine
 10
780.8831898662
 20
511.1823868733
 30
0.0
 11
781.2658069822
 21
511.1823868733
 31
0.0
  0
SPLINE
  5
FD
330
1F
100
AcDbEntity
  8
0
  6
Continuous
 62
     7
370
    25
100
AcDbSpline
210
0.0
220
0.0
230
1.0
 70
     8
 71
     3
 72
    17
 73
    13
 74
     0
 42
0.000000001
 43
0.00000001
 40
0.0
 40
0.0
 40
0.0
 40
0.0
 40
0.074063200490764
 40
0.1814967312188032
 40
0.2889118373938413
 40
0.3962741759867031
 40
0.5035725770325683
 40
0.6108277037386552
 40
0.718083601777647
 40
0.825383400491437
 40
0.9327453310660392
 40
1.0
 40
1.0
 40
1.0
 40
1.0
 10
781.2658069821564
 20
511.1823868733218
 30
0.0
 10
781.2709602510186
 20
511.193029887992
 30
0.0
 10
781.2835886744102
 20
511.2191112936042
 30
0.0
 10
781.3029445467475
 20
511.468180267592
 30
0.0
 10
781.320601740128
 20
511.9262740309221
 30
0.0
 10
781.3321289258347
 20
512.5295024615228
 30
0.0
 10
781.3359616086566
 20
513.2052260562084
 30
0.0
 10
781.3315909270774
 20
513.8781520591908
 30
0.0
 10
781.3196140329106
 20
514.4734499900901
 30
0.0
 10
781.3016465109617
 20
514.9201019880456
 30
0.0
 10
781.2826213829766
 20
515.150692036677
 30
0.0
 10
781.2704823905576
 20
515.17357378345
 30
0.0
 10
781.2658069821564
 20
515.182386830481
 30
0.0
  0
LINE
  5
FE
330
1F
100
AcDbEntity
  8
0
  6
Continuous
 62
     7
370
    25
100
AcDbLine
 10
781.2658069822
 20
515.1823868305
 30
0.0
 11
780.9267813506
 21
515.1823868305
 31
0.0
  0
SPLINE
  5
FF
330
1F
100
AcDbEntity
  8
0
  6
Continuous
 62
     7
370
    25
100
AcDbSpline
210
0.0
220
0.0
230
1.0
 70
     8
 71
     3
 72
    10
 73
     6
 74
     0
 42
0.000000001
 43
0.00000001
 40
0.0
 40
0.0
 40
0.0
 40
0.0
 40
0.200858925335768
 40
0.8092995951886416
 40
1.0
 40
1.0
 40
1.0
 40
1.0
 10
780.8715762736765
 20
511.5023867488226
 30
0.0
 10
780.872188959037
 20
511.4576143962713
 30
0.0
 10
780.8746575872709
 20
511.2772178979081
 30
0.0
 10
780.8789110885999
 20
511.1962809197748
 30
0.0
 10
780.8823655275037
 20
511.1850636658568
 30
0.0
 10
780.883189866182
 20
511.1823868733218
 30
0.0
  0
LINE
  5
100
330
1F
100
AcDbEntity
  8
0
  6
Continuous
 62
     7
370
    25
100
AcDbLine
 10
1060.8267883005
 20
298.6823832412
 30
0.0
 11
1060.8267883005
 21
306.3881462235
 31
0.0
  0
SPLINE
  5
101
330
1F
100
AcDbEntity
  8
0
  6
Continuous
 62
     7
370
    25
100
AcDbSpline
210
0.0
220
0.0
230
1.0
 70
     8
 71
     3
 72
    21
 73
    17
 74
     0
 42
0.000000001
 43
0.00000001
 40
0.0
 40
0.0
 40
0.0
 40
0.0
 40
0.0706534514959158
 40
0.1415283975515338
 40
0.2121817357613159
 40
0.2828267040196688
 40
0.353693607249865
 40
0.4243385257671474
 40
0.494851216026551
 40
0.5655842961005306
 40
0.636096955027252
 40
0.706604896363952
 40
0.7773327091547735
 40
0.8478406419291366
 40
0.9239205879613965
 40
1.0
 40
1.0
 40
1.0
 40
1.0
 10
1113.150219077107
 20
358.6823856253496
 30
0.0
 10
1113.091387870708
 20
356.7458990082208
 30
0.0
 10
1112.973541025416
 20
352.8668549983453
 30
0.0
 10
1111.981338213619
 20
347.1214489616088
 30
0.0
 10
1110.410688262991
 20
341.5152357077345
 30
0.0
 10
1108.199090054962
 20
336.1255074775207
 30
0.0
 10
1105.412028884029
 20
331.012187751203
 30
0.0
 10
1102.080345985422
 20
326.2386232673815
 30
0.0
 10
1098.22976630149
 20
321.8779642870963
 30
0.0
 10
1093.927103186224
 20
317.969350153524
 30
0.0
 10
1089.22100573708
 20
314.5559844293768
 30
0.0
 10
1084.157712335212
 20
311.7008494399453
 30
0.0
 10
1078.812648609654
 20
309.4152187868951
 30
0.0
 10
1073.102369668718
 20
307.700095784333
 30
0.0
 10
1067.082418832211
 20
306.587609673744
 30
0.0
 10
1062.91199359913
 20
306.4546338847128
 30
0.0
 10
1060.826788300511
 20
306.3881462235323
 30
0.0
  0
LINE
  5
102
330
1F
100
AcDbEntity
  8
0
  6
Continuous
 62
     7
370
    25
100
AcDbLine
 10
1120.8267906847
 20
358.6823856253
 30
0.0
 11
1113.1502190771
 21
358.6823856253
 31
0.0
  0
LINE
  5
103
330
1F
100
AcDbEntity
  8
0
  6
Continuous
 62
     7
370
    25
100
AcDbLine
 10
840.826782042
 20
298.6823832412
 30
0.0
 11
840.826782042
 21
307.1006601472
 31
0.0
  0
SPLINE
  5
104
330
1F
100
AcDbEntity
  8
0
  6
Continuous
 62
     7
370
    25
100
AcDbSpline
210
0.0
220
0.0
230
1.0
 70
     8
 71
     3
 72
    11
 73
     7
 74
     0
 42
0.000000001
 43
0.00000001
 40
0.0
 40
0.0
 40
0.0
 40
0.0
 40
0.2497649946192105
 40
0.4995336605007505
 40
0.7497666653715552
 40
1.0
 40
1.0
 40
1.0
 40
1.0
 10
1060.826788300511
 20
306.3881462235323
 30
0.0
 10
1042.533259055568
 20
306.5427801344405
 30
0.0
 10
1005.945931671537
 20
306.8520502292001
 30
0.0
 10
950.9524171238724
 20
307.0949175938781
 30
0.0
 10
895.9057913758987
 20
307.1985595902095
 30
0.0
 10
859.18645988478
 20
307.1332933091894
 30
0.0
 10
840.8267820420233
 20
307.1006601471773
 30
0.0
  0
SPLINE
  5
105
330
1F
100
AcDbEntity
  8
0
  6
Continuous
 62
     7
370
    25
100
AcDbSpline
210
0.0
220
0.0
230
1.0
 70
     8
 71
     3
 72
    21
 73
    17
 74
     0
 42
0.000000001
 43
0.00000001
 40
0.0
 40
0.0
 40
0.0
 40
0.0
 40
0.0709468372088293
 40
0.1421171469090788
 40
0.2130639004441819
 40
0.2840105690305923
 40
0.3551808407897005
 40
0.4261275342730082
 40
0.4970934148902244
 40
0.5682831286824702
 40
0.6392491435408488
 40
0.7103181156097437
 40
0.7816116051825611
 40
0.8526805128107153
 40
0.9263402145836832
 40
1.0
 40
1.0
 40
1.0
 40
1.0
 10
840.8267820420233
 20
307.1006601471773
 30
0.0
 10
838.9113006945995
 20
307.1623991891933
 30
0.0
 10
835.0743045047319
 20
307.2860717424657
 30
0.0
 10
829.3932586260406
 20
308.2801675182532
 30
0.0
 10
823.8515636236976
 20
309.8475432559766
 30
0.0
 10
818.5262621077081
 20
312.0501730836806
 30
0.0
 10
813.476656475436
 20
314.8226505289149
 30
0.0
 10
808.76251847103
 20
318.1365635981352
 30
0.0
 10
804.4573286309079
 20
321.9672803944731
 30
0.0
 10
800.6011011445471
 20
326.2491571276752
 30
0.0
 10
797.2382069011169
 20
330.932953946083
 30
0.0
 10
794.4324176407912
 20
335.9728547052194
 30
0.0
 10
792.1957527102899
 20
341.2935067740099
 30
0.0
 10
790.5543643765897
 20
346.8963164507494
 30
0.0
 10
789.5111884240725
 20
352.7164238165464
 30
0.0
 10
789.385752392016
 20
356.6937309363522
 30
0.0
 10
789.3230343403784
 20
358.6823856253496
 30
0.0
  0
SPLINE
  5
106
330
1F
100
AcDbEntity
  8
0
  6
Continuous
 62
     7
370
    25
100
AcDbSpline
210
0.0
220
0.0
230
1.0
 70
     8
 71
     3
 72
    13
 73
     9
 74
     0
 42
0.000000001
 43
0.00000001
 40
0.0
 40
0.0
 40
0.0
 40
0.0
 40
0.139597352279221
 40
0.2792043671745981
 40
0.418803655733418
 40
0.6286495297794716
 40
0.8384937719824844
 40
1.0
 40
1.0
 40
1.0
 40
1.0
 10
1113.150219077107
 20
638.6823868174425
 30
0.0
 10
1113.057970443784
 20
625.6636338928661
 30
0.0
 10
1112.873466791895
 20
599.6252269147855
 30
0.0
 10
1112.705269254204
 20
560.5333873589573
 30
0.0
 10
1112.599504883846
 20
514.8710668962648
 30
0.0
 10
1112.620564227724
 20
462.6419957126978
 30
0.0
 10
1112.8034476601
 20
408.3788016592958
 30
0.0
 10
1113.045114376856
 20
373.7451233673575
 30
0.0
 10
1113.150219077107
 20
358.6823856253496
 30
0.0
  0
SPLINE
  5
107
330
1F
100
AcDbEntity
  8
0
  6
Continuous
 62
     7
370
    25
100
AcDbSpline
210
0.0
220
0.0
230
1.0
 70
     8
 71
     3
 72
    13
 73
     9
 74
     0
 42
0.000000001
 43
0.00000001
 40
0.0
 40
0.0
 40
0.0
 40
0.0
 40
0.1616186418221841
 40
0.3710089219928145
 40
0.5804004878978161
 40
0.7202651165131773
 40
0.8601370005572887
 40
1.0
 40
1.0
 40
1.0
 40
1.0
 10
1080.936709994313
 20
356.8541174549928
 30
0.0
 10
1080.811876457889
 20
372.1250188156105
 30
0.0
 10
1080.525310779233
 20
407.1806323746875
 30
0.0
 10
1080.283180141754
 20
462.0756797919852
 30
0.0
 10
1080.251099818454
 20
514.9239891260236
 30
0.0
 10
1080.392918406751
 20
561.1885713331064
 30
0.0
 10
1080.608581885404
 20
600.8658715013373
 30
0.0
 10
1080.827336273947
 20
627.2960069729887
 30
0.0
 10
1080.936709994313
 20
640.5106549877993
 30
0.0
  0
LWPOLYLINE
  5
108
330
1F
100
AcDbEntity
  8
0
  6
Continuous
 62
     7
370
    25
100
AcDbPolyline
 90
       14
 70
   128
 43
0.0
 10
1080.9367099943
 20
640.5106549878
 10
1084.575126523
 20
640.4601698537
 10
1088.1467262449
 20
640.3901641984
 10
1091.6123489084
 20
640.3014277835
 10
1094.9339667501
 20
640.1949291844
 10
1098.0751315298
 20
640.071845593
 10
1101.0013917627
 20
639.9335032124
 10
1103.6806503477
 20
639.7814517636
 10
1106.0834923925
 20
639.6173303742
 10
1108.1835428419
 20
639.4429569859
 10
1109.9578241053
 20
639.2602389474
 10
1111.3867858591
 20
639.0711730142
 10
1112.4548414888
 20
638.87786025
 10
1113.1502190771
 20
638.6823868174
  0
LWPOLYLINE
  5
109
330
1F
100
AcDbEntity
  8
0
  6
Continuous
 62
     7
370
    25
100
AcDbPolyline
 90
       14
 70
   128
 43
0.0
 10
1080.9367099943
 20
356.854117455
 10
1084.575126523
 20
356.9046025891
 10
1088.1467262449
 20
356.9746082444
 10
1091.6123489084
 20
357.0633446593
 10
1094.9339667501
 20
357.1698432584
 10
1098.0751315298
 20
357.2929268498
 10
1101.0013917627
 20
357.4312692304
 10
1103.6806503477
 20
357.5833206792
 10
1106.0834923925
 20
357.7474420686
 10
1108.1835428419
 20
357.9218154569
 10
1109.9578241053
 20
358.1045334954
 10
1111.3867858591
 20
358.2935994286
 10
1112.4548414888
 20
358.4869121928
 10
1113.1502190771
 20
358.6823856253
  0
LWPOLYLINE
  5
10A
330
1F
100
AcDbEntity
  8
0
  6
Continuous
 62
     7
370
    25
100
AcDbPolyline
 90
       14
 70
   128
 43
0.0
 10
840.826782042
 20
307.1006601472
 10
840.7636234703
 20
307.8273450751
 10
840.7011652532
 20
308.9318191428
 10
840.6401077452
 20
310.4017888923
 10
840.5811289492
 20
312.2208630462
 10
840.5248845162
 20
314.3687760253
 10
840.4720077457
 20
316.8215816636
 10
840.4230872335
 20
319.5519661326
 10
840.3786594214
 20
322.5295012612
 10
840.3392309489
 20
325.7210170646
 10
840.3052264991
 20
329.0909295697
 10
840.2770409527
 20
332.6017027516
 10
840.2549797835
 20
336.2142210622
 10
840.2392888608
 20
339.8882215638
  0
SPLINE
  5
10B
330
1F
100
AcDbEntity
  8
0
  6
Continuous
 62
     7
370
    25
100
AcDbSpline
210
0.0
220
0.0
230
1.0
 70
     8
 71
     3
 72
    12
 73
     8
 74
     0
 42
0.000000001
 43
0.00000001
 40
0.0
 40
0.0
 40
0.0
 40
0.0
 40
0.1870734192393102
 40
0.3741469399626103
 40
0.5613808394598349
 40
0.7486136278623944
 40
1.0
 40
1.0
 40
1.0
 40
1.0
 10
840.2392888607947
 20
339.8882215638033
 30
0.0
 10
854.1388329623913
 20
339.9282798331457
 30
0.0
 10
881.9379287058391
 20
340.0083963935614
 30
0.0
 10
923.6532907894663
 20
339.9643362970804
 30
0.0
 10
965.372204339009
 20
339.7967751748501
 30
0.0
 10
1011.855128350533
 20
339.495750421652
 30
0.0
 10
1044.393085583311
 20
339.1789239245804
 30
0.0
 10
1063.041607493398
 20
338.9973407406679
 30
0.0
  0
LWPOLYLINE
  5
10C
330
1F
100
AcDbEntity
  8
0
  6
Continuous
 62
     7
370
    25
100
AcDbPolyline
 90
       14
 70
   128
 43
0.0
 10
1063.0416074934
 20
338.9973407407
 10
1062.9825392904
 20
335.3243982215
 10
1062.8994802179
 20
331.715307178
 10
1062.7932647409
 20
328.2103305478
 10
1062.665144557
 20
324.8485540767
 10
1062.5164905729
 20
321.667454185
 10
1062.3490313234
 20
318.7025254388
 10
1062.1645847502
 20
315.9868186135
 10
1061.9652072134
 20
313.5506128688
 10
1061.7531338873
 20
311.4210879226
 10
1061.5307489576
 20
309.6219813247
 10
1061.3004962149
 20
308.1733798404
 10
1061.064968461
 20
307.0914065261
 10
1060.8267883005
 20
306.3881462235
  0
LWPOLYLINE
  5
10D
330
1F
100
AcDbEntity
  8
0
  6
Continuous
 62
     7
370
    25
100
AcDbPolyline
 90
       14
 70
   128
 43
0.0
 10
1063.0416074934
 20
658.3674317021
 10
1062.9825392904
 20
662.0403742213
 10
1062.8994802179
 20
665.6494652648
 10
1062.7932647409
 20
669.154441895
 10
1062.665144557
 20
672.5162183661
 10
1062.5164905729
 20
675.6973182578
 10
1062.3490313234
 20
678.662247004
 10
1062.1645847502
 20
681.3779687304
 10
1061.9652072134
 20
683.814159574
 10
1061.7531338873
 20
685.9436845202
 10
1061.5307489576
 20
687.7427911181
 10
1061.3004962149
 20
689.1913926024
 10
1061.064968461
 20
690.2733659167
 10
1060.8267883005
 20
690.9766262193
  0
SPLINE
  5
10E
330
1F
100
AcDbEntity
  8
0
  6
Continuous
 62
     7
370
    25
100
AcDbSpline
210
0.0
220
0.0
230
1.0
 70
     8
 71
     3
 72
    12
 73
     8
 74
     0
 42
0.000000001
 43
0.00000001
 40
0.0
 40
0.0
 40
0.0
 40
0.0
 40
0.2510432986462143
 40
0.4381989717546444
 40
0.6253555732373722
 40
0.8126778519270036
 40
0.9999999999999999
 40
0.9999999999999999
 40
0.9999999999999999
 40
0.9999999999999999
 10
1063.041607493398
 20
658.3674317021242
 30
0.0
 10
1044.418547174231
 20
658.186076307627
 30
0.0
 10
1011.911780704899
 20
657.86951837591
 30
0.0
 10
965.465859354488
 20
657.5685063632307
 30
0.0
 10
923.7399643154279
 20
657.4006521862364
 30
0.0
 10
881.9933777618379
 20
657.3562709133367
 30
0.0
 10
854.1573152595392
 20
657.4364575664235
 30
0.0
 10
840.2392888607947
 20
657.4765508789889
 30
0.0
  0
LWPOLYLINE
  5
10F
330
1F
100
AcDbEntity
  8
0
  6
Continuous
 62
     7
370
    25
100
AcDbPolyline
 90
       14
 70
   128
 43
0.0
 10
840.826782042
 20
690.2641122956
 10
840.7636234703
 20
689.5374273677
 10
840.7011652532
 20
688.4329533
 10
840.6401077452
 20
686.9629835505
 10
840.5811289492
 20
685.1439093966
 10
840.5248845162
 20
682.9959964175
 10
840.4720077457
 20
680.5431907792
 10
840.4230872335
 20
677.8128063102
 10
840.3786594214
 20
674.8352711816
 10
840.3392309489
 20
671.6437553782
 10
840.3052264991
 20
668.2738428731
 10
840.2770409527
 20
664.7630696912
 10
840.2549797835
 20
661.1505513806
 10
840.2392888608
 20
657.476550879
  0
SPLINE
  5
110
330
1F
100
AcDbEntity
  8
0
  6
Continuous
 62
     7
370
    25
100
AcDbSpline
210
0.0
220
0.0
230
1.0
 70
     8
 71
     3
 72
    16
 73
    12
 74
     0
 42
0.000000001
 43
0.00000001
 40
0.0
 40
0.0
 40
0.0
 40
0.0
 40
0.1510144721424801
 40
0.2568612552144929
 40
0.3627065845309518
 40
0.4686943533043596
 40
0.5746825010219238
 40
0.6809758050399359
 40
0.7872711071608082
 40
0.8936347331292767
 40
1.0
 40
1.0
 40
1.0
 40
1.0
 10
1080.936709994313
 20
640.5106549877993
 30
0.0
 10
1080.853321503787
 20
641.9301738275535
 30
0.0
 10
1080.711485611882
 20
644.3446403737527
 30
0.0
 10
1079.609789704736
 20
647.5901728792157
 30
0.0
 10
1078.230583695464
 20
650.2423477398921
 30
0.0
 10
1076.405315436868
 20
652.6188181885535
 30
0.0
 10
1074.213827536282
 20
654.6650179451765
 30
0.0
 10
1071.700681439725
 20
656.3081127519775
 30
0.0
 10
1068.94976435689
 20
657.5057575055565
 30
0.0
 10
1066.033124562561
 20
658.2501436045223
 30
0.0
 10
1064.038784977621
 20
658.3283354685437
 30
0.0
 10
1063.041607493398
 20
658.3674317021242
 30
0.0
  0
SPLINE
  5
111
330
1F
100
AcDbEntity
  8
0
  6
Continuous
 62
     7
370
    25
100
AcDbSpline
210
0.0
220
0.0
230
1.0
 70
     8
 71
     3
 72
    16
 73
    12
 74
     0
 42
0.000000001
 43
0.00000001
 40
0.0
 40
0.0
 40
0.0
 40
0.0
 40
0.1520669978811506
 40
0.2579661857348283
 40
0.3638629881543104
 40
0.4697355287745738
 40
0.5756068978201261
 40
0.681680226714119
 40
0.7877544821314901
 40
0.8938759205644499
 40
0.9999999999999999
 40
0.9999999999999999
 40
0.9999999999999999
 40
0.9999999999999999
 10
1063.041607493398
 20
338.9973407406679
 30
0.0
 10
1064.470262741963
 20
339.0793472642778
 30
0.0
 10
1066.893830973978
 20
339.2184629856098
 30
0.0
 10
1070.148598500203
 20
340.3211157166643
 30
0.0
 10
1072.80067410362
 20
341.6977351509219
 30
0.0
 10
1075.177087502351
 20
343.5193192387107
 30
0.0
 10
1077.223016572979
 20
345.7053764308757
 30
0.0
 10
1078.867104937182
 20
348.2124978356027
 30
0.0
 10
1080.066915412767
 20
350.9569261761514
 30
0.0
 10
1080.814714410302
 20
353.867650020159
 30
0.0
 10
1080.896044462309
 20
355.8586200520693
 30
0.0
 10
1080.936709994313
 20
356.8541174549928
 30
0.0
  0
LWPOLYLINE
  5
112
330
1F
100
AcDbEntity
  8
0
  6
Continuous
 62
     7
370
    25
100
AcDbPolyline
 90
       15
 70
   128
 43
0.0
 10
789.3230343404
 20
638.6823868174
 10
790.0052914562
 20
638.8454502244
 10
791.0282487216
 20
639.0068745036
 10
792.3816429617
 20
639.1650503297
 10
794.0518917682
 20
639.3183683772
 10
796.0222276094
 20
639.4653087277
 10
798.2728803697
 20
639.6043961663
 10
800.7812561634
 20
639.7342299838
 10
803.5221794786
 20
639.853498878
 10
806.4681464972
 20
639.961010756
 10
809.5895821395
 20
640.0557076354
 10
812.8551641645
 20
640.1366060395
 10
816.2321137431
 20
640.2029162068
 10
819.6865344586
 20
640.2539526839
 10
823.183762485
 20
640.2892386336
  0
SPLINE
  5
113
330
1F
100
AcDbEntity
  8
0
  6
Continuous
 62
     7
370
    25
100
AcDbSpline
210
0.0
220
0.0
230
1.0
 70
     8
 71
     3
 72
    15
 73
    11
 74
     0
 42
0.000000001
 43
0.00000001
 40
0.0
 40
0.0
 40
0.0
 40
0.0
 40
0.1113973782535209
 40
0.2227951991811574
 40
0.3342536077018667
 40
0.4457129695678435
 40
0.584247238266645
 40
0.7227806620090158
 40
0.8613909778959943
 40
1.0
 40
1.0
 40
1.0
 40
1.0
 10
823.1837624850241
 20
640.2892386336199
 30
0.0
 10
823.2696253612089
 20
629.779238876305
 30
0.0
 10
823.441351454783
 20
608.7591975967351
 30
0.0
 10
823.65235482972
 20
577.2044347548195
 30
0.0
 10
823.8549758018986
 20
545.6377084385238
 30
0.0
 10
824.0256885358997
 20
511.5053839879646
 30
0.0
 10
823.9840986883474
 20
474.8152858256292
 30
0.0
 10
823.751041165861
 20
435.5634858700512
 30
0.0
 10
823.5007358138855
 20
396.309676045098
 30
0.0
 10
823.2894199325741
 20
370.1535504650322
 30
0.0
 10
823.1837624850241
 20
357.0755487103334
 30
0.0
  0
LWPOLYLINE
  5
114
330
1F
100
AcDbEntity
  8
0
  6
Continuous
 62
     7
370
    25
100
AcDbPolyline
 90
       15
 70
   128
 43
0.0
 10
789.3230343404
 20
358.6823856253
 10
790.0052914562
 20
358.5193222184
 10
791.0282487216
 20
358.3578979392
 10
792.3816429617
 20
358.1997221131
 10
794.0518917682
 20
358.0464040656
 10
796.0222276094
 20
357.8994637151
 10
798.2728803697
 20
357.7603762765
 10
800.7812561634
 20
357.630542459
 10
803.5221794786
 20
357.5112735648
 10
806.4681464972
 20
357.4037616868
 10
809.5895821395
 20
357.3090648074
 10
812.8551641645
 20
357.2281664033
 10
816.2321137431
 20
357.161856236
 10
819.6865344586
 20
357.1108197589
 10
823.183762485
 20
357.0755487103
  0
SPLINE
  5
115
330
1F
100
AcDbEntity
  8
0
  6
Continuous
 62
     7
370
    25
100
AcDbSpline
210
0.0
220
0.0
230
1.0
 70
     8
 71
     3
 72
    16
 73
    12
 74
     0
 42
0.000000001
 43
0.00000001
 40
0.0
 40
0.0
 40
0.0
 40
0.0
 40
0.1453387354698039
 40
0.251885002965279
 40
0.358431309705999
 40
0.4651609636395266
 40
0.5718918182319814
 40
0.6788499583480034
 40
0.7858104500315296
 40
0.8929043580290484
 40
1.0
 40
1.0
 40
1.0
 40
1.0
 10
840.2392888607947
 20
657.4765508789889
 30
0.0
 10
838.9317063456735
 20
657.3961113271208
 30
0.0
 10
836.665549119013
 20
657.2567024028908
 30
0.0
 10
833.5925009696051
 20
656.2258824480308
 30
0.0
 10
831.0341620578821
 20
654.9044251640906
 30
0.0
 10
828.7415554371129
 20
653.1515247982438
 30
0.0
 10
826.7675817863847
 20
651.0448476274091
 30
0.0
 10
825.1818511511467
 20
648.6280583773822
 30
0.0
 10
824.0244067111838
 20
645.9812574304417
 30
0.0
 10
823.3022942298765
 20
643.1728948548375
 30
0.0
 10
823.2232732798799
 20
641.250462561715
 30
0.0
 10
823.1837624850241
 20
640.2892386336199
 30
0.0
  0
SPLINE
  5
116
330
1F
100
AcDbEntity
  8
0
  6
Continuous
 62
     7
370
    25
100
AcDbSpline
210
0.0
220
0.0
230
1.0
 70
     8
 71
     3
 72
    16
 73
    12
 74
     0
 42
0.000000001
 43
0.00000001
 40
0.0
 40
0.0
 40
0.0
 40
0.0
 40
0.1473043542024924
 40
0.2540882615328465
 40
0.3608698814802481
 40
0.467440069693743
 40
0.5740078528285023
 40
0.6805053022500923
 40
0.7870024235740274
 40
0.8935007405660976
 40
1.0
 40
1.0
 40
1.0
 40
1.0
 10
823.1837624850241
 20
357.0755487103334
 30
0.0
 10
823.2590568065662
 20
355.7511048211278
 30
0.0
 10
823.3889335055103
 20
353.466544754129
 30
0.0
 10
824.4119918186897
 20
350.3706067596794
 30
0.0
 10
825.7209097108688
 20
347.8045518421079
 30
0.0
 10
827.4595936950731
 20
345.5032618559067
 30
0.0
 10
829.5491287479514
 20
343.5211703869113
 30
0.0
 10
831.9486488313192
 20
341.9251329592531
 30
0.0
 10
834.5774472889092
 20
340.7560300157861
 30
0.0
 10
837.3696023022009
 20
340.0207360058996
 30
0.0
 10
839.2827238529593
 20
339.9323931747977
 30
0.0
 10
840.2392888607947
 20
339.8882215638033
 30
0.0
  0
CIRCLE
  5
117
330
1F
100
AcDbEntity
  8
0
  6
Continuous
 62
     7
370
    25
100
AcDbCircle
 10
890.826781148
 20
498.6823868174
 30
0.0
 40
59.16685163393572
  0
CIRCLE
  5
118
330
1F
100
AcDbEntity
  8
0
  6
Continuous
 62
     7
370
    25
100
AcDbCircle
 10
890.826781148
 20
498.6823868174
 30
0.0
 40
57.68221880382123
  0
CIRCLE
  5
119
330
1F
100
AcDbEntity
  8
0
  6
Continuous
 62
     7
370
    25
100
AcDbCircle
 10
890.826781148
 20
498.6823868174
 30
0.0
 40
57.57313235159472
  0
CIRCLE
  5
11A
330
1F
100
AcDbEntity
  8
0
  6
Continuous
 62
     7
370
    25
100
AcDbCircle
 10
890.826781148
 20
498.6823868174
 30
0.0
 40
56.66409339625045
  0
CIRCLE
  5
11B
330
1F
100
AcDbEntity
  8
0
  6
Continuous
 62
     7
370
    25
100
AcDbCircle
 10
890.826781148
 20
498.6823868174
 30
0.0
 40
45.0
  0
LINE
  5
11C
330
1F
100
AcDbEntity
  8
0
  6
Continuous
 62
     7
370
    25
100
AcDbLine
 10
365.8267954531
 20
253.3011948485
 30
0.0
 11
1145.8267668428
 21
253.3011948485
 31
0.0
  0
ARC
  5
11D
330
1F
100
AcDbEntity
  8
0
  6
Continuous
 62
     7
370
    25
100
AcDbCircle
 10
365.826781148
 20
273.6823868174
 30
0.0
 40
20.38119784648313
100
AcDbArc
 50
180.0
 51
270.0
  0
LINE
  5
11E
330
1F
100
AcDbEntity
  8
0
  6
Continuous
 62
     7
370
    25
100
AcDbLine
 10
345.4455832186
 20
723.6823802609
 30
0.0
 11
345.4455832186
 21
273.6823921819
 31
0.0
  0
ARC
  5
11F
330
1F
100
AcDbEntity
  8
0
  6
Continuous
 62
     7
370
    25
100
AcDbCircle
 10
365.826781148
 20
723.6823868174
 30
0.0
 40
20.38119784648313
100
AcDbArc
 50
90.0
 51
180.0
  0
LINE
  5
120
330
1F
100
AcDbEntity
  8
0
  6
Continuous
 62
     7
370
    25
100
AcDbLine
 10
1145.8267668428
 20
744.0635775943
 30
0.0
 11
365.8267954531
 21
744.0635775943
 31
0.0
  0
ARC
  5
121
330
1F
100
AcDbEntity
  8
0
  6
Continuous
 62
     7
370
    25
100
AcDbCircle
 10
1145.826781148
 20
723.6823868174
 30
0.0
 40
20.38119784648325
100
AcDbArc
 50
0.0
 51
90.0
  0
LINE
  5
122
330
1F
100
AcDbEntity
  8
0
  6
Continuous
 62
     7
370
    25
100
AcDbLine
 10
1166.2079790773
 20
273.6823921819
 30
0.0
 11
1166.2079790773
 21
723.6823802609
 31
0.0
  0
ARC
  5
123
330
1F
100
AcDbEntity
  8
0
  6
Continuous
 62
     7
370
    25
100
AcDbCircle
 10
1145.826781148
 20
273.6823868174
 30
0.0
 40
20.38119784648302
100
AcDbArc
 50
270.0
 51
0.0
  0
ELLIPSE
  5
124
330
1F
100
AcDbEntity
  8
0
  6
Continuous
 62
     7
370
    25
100
AcDbEllipse
 10
1139.9703746874
 20
279.538793278
 30
0.0
 11
-12.78019300845403
 21
12.78019300845386
 31
0.0
210
0.0
220
0.0
230
1.0
 40
0.7745966692
 41
2.482534617763381
 42
3.80065068941621
  0
LINE
  5
125
330
1F
100
AcDbEntity
  8
0
  6
Continuous
 62
     7
370
    25
100
AcDbLine
 10
1156.1361948194
 20
721.8674337287
 30
0.0
 11
1156.1361948194
 21
275.4973387141
 31
0.0
  0
ELLIPSE
  5
126
330
1F
100
AcDbEntity
  8
0
  6
Continuous
 62
     7
370
    25
100
AcDbEllipse
 10
1139.9703746874
 20
717.8259803569
 30
0.0
 11
-12.78019300845403
 21
-12.78019300845392
 31
0.0
210
0.0
220
0.0
230
1.0
 40
0.7745966692
 41
2.482534617763381
 42
3.800650689416214
  0
LINE
  5
127
330
1F
100
AcDbEntity
  8
0
  6
Continuous
 62
     7
370
    25
100
AcDbLine
 10
367.6417270842
 20
733.9917933364
 30
0.0
 11
1144.0118352118
 21
733.9917933364
 31
0.0
  0
ELLIPSE
  5
128
330
1F
100
AcDbEntity
  8
0
  6
Continuous
 62
     7
370
    25
100
AcDbEllipse
 10
371.6831876085
 20
717.8259803569
 30
0.0
 11
12.78019300845386
 21
-12.78019300845392
 31
0.0
210
0.0
220
0.0
230
1.0
 40
0.7745966692
 41
2.482534617763386
 42
3.800650689416225
  0
LINE
  5
129
330
1F
100
AcDbEntity
  8
0
  6
Continuous
 62
     7
370
    25
100
AcDbLine
 10
355.5173674765
 20
275.4973387141
 30
0.0
 11
355.5173674765
 21
721.8674337287
 31
0.0
  0
ELLIPSE
  5
12A
330
1F
100
AcDbEntity
  8
0
  6
Continuous
 62
     7
370
    25
100
AcDbEllipse
 10
371.6831876085
 20
279.538793278
 30
0.0
 11
12.78019300845386
 21
12.78019300845386
 31
0.0
210
0.0
220
0.0
230
1.0
 40
0.7745966692
 41
2.482534617763383
 42
3.800650689416213
  0
LINE
  5
12B
330
1F
100
AcDbEntity
  8
0
  6
Continuous
 62
     7
370
    25
100
AcDbLine
 10
1144.0118352118
 20
263.3729791064
 30
0.0
 11
367.6417270842
 21
263.3729791064
 31
0.0
  0
LINE
  5
12C
330
1F
100
AcDbEntity
  8
0
  6
Continuous
 62
     7
370
    25
100
AcDbLine
 10
1166.2079790773
 20
723.6823802609
 30
0.0
 11
1168.8060561361
 21
723.6823802609
 31
0.0
  0
LINE
  5
12D
330
1F
100
AcDbEntity
  8
0
  6
Continuous
 62
     7
370
    25
100
AcDbLine
 10
1168.8060561361
 20
723.6823802609
 30
0.0
 11
1168.8060561361
 21
273.6823921819
 31
0.0
  0
LINE
  5
12E
330
1F
100
AcDbEntity
  8
0
  6
Continuous
 62
     7
370
    25
100
AcDbLine
 10
1166.2079790773
 20
273.6823921819
 30
0.0
 11
1168.8060561361
 21
273.6823921819
 31
0.0
  0
LINE
  5
12F
330
1F
100
AcDbEntity
  8
0
  6
Continuous
 62
     7
370
    25
100
AcDbLine
 10
1156.1361948194
 20
275.4973387141
 30
0.0
 11
1152.6720920744
 21
275.4973387141
 31
0.0
  0
LINE
  5
130
330
1F
100
AcDbEntity
  8
0
  6
Continuous
 62
     7
370
    25
100
AcDbLine
 10
1152.6720920744
 20
275.4973387141
 30
0.0
 11
1152.6720920744
 21
721.8674337287
 31
0.0
  0
LINE
  5
131
330
1F
100
AcDbEntity
  8
0
  6
Continuous
 62
     7
370
    25
100
AcDbLine
 10
1156.1361948194
 20
721.8674337287
 30
0.0
 11
1152.6720920744
 21
721.8674337287
 31
0.0
  0
LINE
  5
132
330
1F
100
AcDbEntity
  8
0
  6
Continuous
 62
     7
370
    25
100
AcDbLine
 10
1144.0118352118
 20
263.3729791064
 30
0.0
 11
1144.0118352118
 21
266.8370818515
 31
0.0
  0
ELLIPSE
  5
133
330
1F
100
AcDbEntity
  8
0
  6
Continuous
 62
     7
370
    25
100
AcDbEllipse
 10
1139.9703746874
 20
279.538793278
 30
0.0
 11
-10.58930277843319
 21
10.58930277843325
 31
0.0
210
0.0
220
0.0
230
1.0
 40
0.6677557493
 41
2.482534617763393
 42
3.800650689416222
  0
LINE
  5
134
330
1F
100
AcDbEntity
  8
0
  6
Continuous
 62
     7
370
    25
100
AcDbLine
 10
1145.8267668428
 20
744.0635775943
 30
0.0
 11
1145.8267668428
 21
746.6616546531
 31
0.0
  0
ARC
  5
135
330
1F
100
AcDbEntity
  8
0
  6
Continuous
 62
     7
370
    25
100
AcDbCircle
 10
1145.826781148
 20
723.6823868174
 30
0.0
 40
22.97927405783662
100
AcDbArc
 50
0.0
 51
90.0
  0
LINE
  5
136
330
1F
100
AcDbEntity
  8
0
  6
Continuous
 62
     7
370
    25
100
AcDbLine
 10
365.8267954531
 20
744.0635775943
 30
0.0
 11
365.8267954531
 21
746.6616546531
 31
0.0
  0
LINE
  5
137
330
1F
100
AcDbEntity
  8
0
  6
Continuous
 62
     7
370
    25
100
AcDbLine
 10
365.8267954531
 20
746.6616546531
 30
0.0
 11
1145.8267668428
 21
746.6616546531
 31
0.0
  0
ELLIPSE
  5
138
330
1F
100
AcDbEntity
  8
0
  6
Continuous
 62
     7
370
    25
100
AcDbEllipse
 10
1139.9703746874
 20
717.8259803569
 30
0.0
 11
10.58930277843297
 21
10.58930277843319
 31
0.0
210
0.0
220
0.0
230
1.0
 40
0.6677557493
 41
5.624127271353171
 42
6.942243343005968
  0
LINE
  5
139
330
1F
100
AcDbEntity
  8
0
  6
Continuous
 62
     7
370
    25
100
AcDbLine
 10
1144.0118352118
 20
730.5276905913
 30
0.0
 11
1144.0118352118
 21
733.9917933364
 31
0.0
  0
LINE
  5
13A
330
1F
100
AcDbEntity
  8
0
  6
Continuous
 62
     7
370
    25
100
AcDbLine
 10
1144.0118352118
 20
730.5276905913
 30
0.0
 11
367.6417270842
 21
730.5276905913
 31
0.0
  0
LINE
  5
13B
330
1F
100
AcDbEntity
  8
0
  6
Continuous
 62
     7
370
    25
100
AcDbLine
 10
367.6417270842
 20
730.5276905913
 30
0.0
 11
367.6417270842
 21
733.9917933364
 31
0.0
  0
ARC
  5
13C
330
1F
100
AcDbEntity
  8
0
  6
Continuous
 62
     7
370
    25
100
AcDbCircle
 10
1145.826781148
 20
273.6823868174
 30
0.0
 40
22.97927405783639
100
AcDbArc
 50
270.0
 51
0.0
  0
LINE
  5
13D
330
1F
100
AcDbEntity
  8
0
  6
Continuous
 62
     7
370
    25
100
AcDbLine
 10
1145.8267668428
 20
250.7031177897
 30
0.0
 11
1145.8267668428
 21
253.3011948485
 31
0.0
  0
LINE
  5
13E
330
1F
100
AcDbEntity
  8
0
  6
Continuous
 62
     7
370
    25
100
AcDbLine
 10
367.6417270842
 20
263.3729791064
 30
0.0
 11
367.6417270842
 21
266.8370818515
 31
0.0
  0
LINE
  5
13F
330
1F
100
AcDbEntity
  8
0
  6
Continuous
 62
     7
370
    25
100
AcDbLine
 10
367.6417270842
 20
266.8370818515
 30
0.0
 11
1144.0118352118
 21
266.8370818515
 31
0.0
  0
LINE
  5
140
330
1F
100
AcDbEntity
  8
0
  6
Continuous
 62
     7
370
    25
100
AcDbLine
 10
358.9814702215
 20
721.8674337287
 30
0.0
 11
358.9814702215
 21
275.4973387141
 31
0.0
  0
LINE
  5
141
330
1F
100
AcDbEntity
  8
0
  6
Continuous
 62
     7
370
    25
100
AcDbLine
 10
358.9814702215
 20
275.4973387141
 30
0.0
 11
355.5173674765
 21
275.4973387141
 31
0.0
  0
LINE
  5
142
330
1F
100
AcDbEntity
  8
0
  6
Continuous
 62
     7
370
    25
100
AcDbLine
 10
358.9814702215
 20
721.8674337287
 30
0.0
 11
355.5173674765
 21
721.8674337287
 31
0.0
  0
ELLIPSE
  5
143
330
1F
100
AcDbEntity
  8
0
  6
Continuous
 62
     7
370
    25
100
AcDbEllipse
 10
371.6831876085
 20
717.8259803569
 30
0.0
 11
10.5893027784332
 21
-10.58930277843331
 31
0.0
210
0.0
220
0.0
230
1.0
 40
0.6677557493
 41
2.482534617763386
 42
3.800650689416236
  0
LINE
  5
144
330
1F
100
AcDbEntity
  8
0
  6
Continuous
 62
     7
370
    25
100
AcDbLine
 10
342.8475061598
 20
723.6823802609
 30
0.0
 11
345.4455832186
 21
723.6823802609
 31
0.0
  0
ARC
  5
145
330
1F
100
AcDbEntity
  8
0
  6
Continuous
 62
     7
370
    25
100
AcDbCircle
 10
365.826781148
 20
723.6823868174
 30
0.0
 40
22.97927405783639
100
AcDbArc
 50
90.0
 51
180.0
  0
LINE
  5
146
330
1F
100
AcDbEntity
  8
0
  6
Continuous
 62
     7
370
    25
100
AcDbLine
 10
342.8475061598
 20
273.6823921819
 30
0.0
 11
342.8475061598
 21
723.6823802609
 31
0.0
  0
LINE
  5
147
330
1F
100
AcDbEntity
  8
0
  6
Continuous
 62
     7
370
    25
100
AcDbLine
 10
342.8475061598
 20
273.6823921819
 30
0.0
 11
345.4455832186
 21
273.6823921819
 31
0.0
  0
LINE
  5
148
330
1F
100
AcDbEntity
  8
0
  6
Continuous
 62
     7
370
    25
100
AcDbLine
 10
1145.8267668428
 20
250.7031177897
 30
0.0
 11
365.8267954531
 21
250.7031177897
 31
0.0
  0
LINE
  5
149
330
1F
100
AcDbEntity
  8
0
  6
Continuous
 62
     7
370
    25
100
AcDbLine
 10
365.8267954531
 20
250.7031177897
 30
0.0
 11
365.8267954531
 21
253.3011948485
 31
0.0
  0
ARC
  5
14A
330
1F
100
AcDbEntity
  8
0
  6
Continuous
 62
     7
370
    25
100
AcDbCircle
 10
365.826781148
 20
273.6823868174
 30
0.0
 40
22.97927405783648
100
AcDbArc
 50
180.0
 51
270.0
  0
ELLIPSE
  5
14B
330
1F
100
AcDbEntity
  8
0
  6
Continuous
 62
     7
370
    25
100
AcDbEllipse
 10
371.6831876085
 20
279.538793278
 30
0.0
 11
10.58930277843319
 21
10.58930277843325
 31
0.0
210
0.0
220
0.0
230
1.0
 40
0.6677557493
 41
2.48253461776338
 42
3.800650689416212
  0
ELLIPSE
  5
14C
330
1F
100
AcDbEntity
  8
0
  6
Continuous
 62
     7
370
    25
100
AcDbEllipse
 10
1138.2383238798
 20
716.0939295493
 30
0.0
 11
8.033264176742478
 21
8.033264176742364
 31
0.0
210
0.0
220
0.0
230
1.0
 40
0.8802234878
 41
5.624127271353197
 42
6.942243343006004
  0
LINE
  5
14D
330
1F
100
AcDbEntity
  8
0
  6
Continuous
 62
     7
370
    25
100
AcDbLine
 10
1140.2590373697
 20
726.7749076505
 30
0.0
 11
1144.0118352118
 21
730.5276905913
 31
0.0
  0
LINE
  5
14E
330
1F
100
AcDbEntity
  8
0
  6
Continuous
 62
     7
370
    25
100
AcDbLine
 10
1152.6720920744
 20
721.8674337287
 30
0.0
 11
1148.9192942324
 21
718.1146507878
 31
0.0
  0
ELLIPSE
  5
14F
330
1F
100
AcDbEntity
  8
0
  6
Continuous
 62
     7
370
    25
100
AcDbEllipse
 10
1138.2383238798
 20
281.2708440856
 30
0.0
 11
8.033264176742478
 21
-8.033264176742478
 31
0.0
210
0.0
220
0.0
230
1.0
 40
0.8802234878
 41
5.624127271353183
 42
6.942243343005991
  0
LINE
  5
150
330
1F
100
AcDbEntity
  8
0
  6
Continuous
 62
     7
370
    25
100
AcDbLine
 10
1148.9192942324
 20
279.250121655
 30
0.0
 11
1152.6720920744
 21
275.4973387141
 31
0.0
  0
LINE
  5
151
330
1F
100
AcDbEntity
  8
0
  6
Continuous
 62
     7
370
    25
100
AcDbLine
 10
1144.0118352118
 20
266.8370818515
 30
0.0
 11
1140.2590373697
 21
270.5898647923
 31
0.0
  0
ELLIPSE
  5
152
330
1F
100
AcDbEntity
  8
0
  6
Continuous
 62
     7
370
    25
100
AcDbEllipse
 10
373.4152384161
 20
281.2708440856
 30
0.0
 11
8.033264176742478
 21
8.033264176742421
 31
0.0
210
0.0
220
0.0
230
1.0
 40
0.8802234878
 41
2.482534617763386
 42
3.800650689416218
  0
LINE
  5
153
330
1F
100
AcDbEntity
  8
0
  6
Continuous
 62
     7
370
    25
100
AcDbLine
 10
371.3945249262
 20
270.5898647923
 30
0.0
 11
367.6417270842
 21
266.8370818515
 31
0.0
  0
LINE
  5
154
330
1F
100
AcDbEntity
  8
0
  6
Continuous
 62
     7
370
    25
100
AcDbLine
 10
358.9814702215
 20
275.4973387141
 30
0.0
 11
362.7342680635
 21
279.250121655
 31
0.0
  0
ELLIPSE
  5
155
330
1F
100
AcDbEntity
  8
0
  6
Continuous
 62
     7
370
    25
100
AcDbEllipse
 10
373.4152384161
 20
716.0939295493
 30
0.0
 11
-8.033264176742421
 21
8.033264176742364
 31
0.0
210
0.0
220
0.0
230
1.0
 40
0.8802234878
 41
5.624127271353185
 42
6.942243343005988
  0
LINE
  5
156
330
1F
100
AcDbEntity
  8
0
  6
Continuous
 62
     7
370
    25
100
AcDbLine
 10
362.7342680635
 20
718.1146507878
 30
0.0
 11
358.9814702215
 21
721.8674337287
 31
0.0
  0
LINE
  5
157
330
1F
100
AcDbEntity
  8
0
  6
Continuous
 62
     7
370
    25
100
AcDbLine
 10
367.6417270842
 20
730.5276905913
 30
0.0
 11
371.3945249262
 21
726.7749076505
 31
0.0
  0
LINE
  5
158
330
1F
100
AcDbEntity
  8
0
  6
Continuous
 62
     7
370
    25
100
AcDbLine
 10
1170.8267728033
 20
723.6823802609
 30
0.0
 11
1170.8267728033
 21
273.6823921819
 31
0.0
  0
LINE
  5
159
330
1F
100
AcDbEntity
  8
0
  6
Continuous
 62
     7
370
    25
100
AcDbLine
 10
1170.8267728033
 20
273.6823921819
 30
0.0
 11
1168.8060561361
 21
273.6823921819
 31
0.0
  0
LINE
  5
15A
330
1F
100
AcDbEntity
  8
0
  6
Continuous
 62
     7
370
    25
100
AcDbLine
 10
1168.8060561361
 20
723.6823802609
 30
0.0
 11
1170.8267728033
 21
723.6823802609
 31
0.0
  0
LINE
  5
15B
330
1F
100
AcDbEntity
  8
0
  6
Continuous
 62
     7
370
    25
100
AcDbLine
 10
365.8267954531
 20
748.6823862214
 30
0.0
 11
1145.8267668428
 21
748.6823862214
 31
0.0
  0
LINE
  5
15C
330
1F
100
AcDbEntity
  8
0
  6
Continuous
 62
     7
370
    25
100
AcDbLine
 10
1145.8267668428
 20
746.6616546531
 30
0.0
 11
1145.8267668428
 21
748.6823862214
 31
0.0
  0
LINE
  5
15D
330
1F
100
AcDbEntity
  8
0
  6
Continuous
 62
     7
370
    25
100
AcDbLine
 10
365.8267954531
 20
746.6616546531
 30
0.0
 11
365.8267954531
 21
748.6823862214
 31
0.0
  0
ARC
  5
15E
330
1F
100
AcDbEntity
  8
0
  6
Continuous
 62
     7
370
    25
100
AcDbCircle
 10
1145.826781148
 20
723.6823868174
 30
0.0
 40
25.00000000000023
100
AcDbArc
 50
0.0
 51
90.0
  0
ARC
  5
15F
330
1F
100
AcDbEntity
  8
0
  6
Continuous
 62
     7
370
    25
100
AcDbCircle
 10
1145.826781148
 20
273.6823868174
 30
0.0
 40
25.00000000000023
100
AcDbArc
 50
270.0
 51
0.0
  0
LINE
  5
160
330
1F
100
AcDbEntity
  8
0
  6
Continuous
 62
     7
370
    25
100
AcDbLine
 10
1145.8267668428
 20
248.6824011226
 30
0.0
 11
1145.8267668428
 21
250.7031177897
 31
0.0
  0
ARC
  5
161
330
1F
100
AcDbEntity
  8
0
  6
Continuous
 62
     7
370
    25
100
AcDbCircle
 10
365.826781148
 20
723.6823868174
 30
0.0
 40
25.0
100
AcDbArc
 50
90.0
 51
180.0
  0
LINE
  5
162
330
1F
100
AcDbEntity
  8
0
  6
Continuous
 62
     7
370
    25
100
AcDbLine
 10
342.8475061598
 20
723.6823802609
 30
0.0
 11
340.8267894926
 21
723.6823802609
 31
0.0
  0
LINE
  5
163
330
1F
100
AcDbEntity
  8
0
  6
Continuous
 62
     7
370
    25
100
AcDbLine
 10
1145.8267668428
 20
248.6824011226
 30
0.0
 11
365.8267954531
 21
248.6824011226
 31
0.0
  0
LINE
  5
164
330
1F
100
AcDbEntity
  8
0
  6
Continuous
 62
     7
370
    25
100
AcDbLine
 10
365.8267954531
 20
248.6824011226
 30
0.0
 11
365.8267954531
 21
250.7031177897
 31
0.0
  0
LINE
  5
165
330
1F
100
AcDbEntity
  8
0
  6
Continuous
 62
     7
370
    25
100
AcDbLine
 10
340.8267894926
 20
273.6823921819
 30
0.0
 11
340.8267894926
 21
723.6823802609
 31
0.0
  0
LINE
  5
166
330
1F
100
AcDbEntity
  8
0
  6
Continuous
 62
     7
370
    25
100
AcDbLine
 10
340.8267894926
 20
273.6823921819
 30
0.0
 11
342.8475061598
 21
273.6823921819
 31
0.0
  0
ARC
  5
167
330
1F
100
AcDbEntity
  8
0
  6
Continuous
 62
     7
370
    25
100
AcDbCircle
 10
365.826781148
 20
273.6823868174
 30
0.0
 40
25.00000000000017
100
AcDbArc
 50
180.0
 51
270.0
  0
LINE
  5
168
330
1F
100
AcDbEntity
  8
0
  6
Continuous
 62
     7
370
    25
100
AcDbLine
 10
1148.9192942324
 20
718.1146507878
 30
0.0
 11
1148.9192942324
 21
279.250121655
 31
0.0
  0
LINE
  5
169
330
1F
100
AcDbEntity
  8
0
  6
Continuous
 62
     7
370
    25
100
AcDbLine
 10
371.3945249262
 20
726.7749076505
 30
0.0
 11
1140.2590373697
 21
726.7749076505
 31
0.0
  0
LINE
  5
16A
330
1F
100
AcDbEntity
  8
0
  6
Continuous
 62
     7
370
    25
100
AcDbLine
 10
1140.2590373697
 20
270.5898647923
 30
0.0
 11
371.3945249262
 21
270.5898647923
 31
0.0
  0
LINE
  5
16B
330
1F
100
AcDbEntity
  8
0
  6
Continuous
 62
     7
370
    25
100
AcDbLine
 10
362.7342680635
 20
279.250121655
 30
0.0
 11
362.7342680635
 21
718.1146507878
 31
0.0
  0
LINE
  5
16C
330
1F
100
AcDbEntity
  8
0
  6
Continuous
 62
     7
370
    25
100
AcDbLine
 10
1148.9192942324
 20
279.250121655
 30
0.0
 11
1146.3212171736
 21
279.250121655
 31
0.0
  0
LINE
  5
16D
330
1F
100
AcDbEntity
  8
0
  6
Continuous
 62
     7
370
    25
100
AcDbLine
 10
1146.3212171736
 20
279.250121655
 30
0.0
 11
1146.3212171736
 21
718.1146507878
 31
0.0
  0
LINE
  5
16E
330
1F
100
AcDbEntity
  8
0
  6
Continuous
 62
     7
370
    25
100
AcDbLine
 10
1148.9192942324
 20
718.1146507878
 30
0.0
 11
1146.3212171736
 21
718.1146507878
 31
0.0
  0
LINE
  5
16F
330
1F
100
AcDbEntity
  8
0
  6
Continuous
 62
     7
370
    25
100
AcDbLine
 10
1140.2590373697
 20
270.5898647923
 30
0.0
 11
1140.2590373697
 21
273.1879418511
 31
0.0
  0
ELLIPSE
  5
170
330
1F
100
AcDbEntity
  8
0
  6
Continuous
 62
     7
370
    25
100
AcDbEllipse
 10
1138.2383238798
 20
281.2708440856
 30
0.0
 11
-6.390096504226904
 21
6.390096504226904
 31
0.0
210
0.0
220
0.0
230
1.0
 40
0.7745966692
 41
2.482534617763372
 42
3.800650689416219
  0
ELLIPSE
  5
171
330
1F
100
AcDbEntity
  8
0
  6
Continuous
 62
     7
370
    25
100
AcDbEllipse
 10
1138.2383238798
 20
716.0939295493
 30
0.0
 11
-6.390096504226904
 21
-6.390096504227017
 31
0.0
210
0.0
220
0.0
230
1.0
 40
0.7745966692
 41
2.482534617763373
 42
3.800650689416202
  0
LINE
  5
172
330
1F
100
AcDbEntity
  8
0
  6
Continuous
 62
     7
370
    25
100
AcDbLine
 10
1140.2590373697
 20
724.1768305917
 30
0.0
 11
1140.2590373697
 21
726.7749076505
 31
0.0
  0
LINE
  5
173
330
1F
100
AcDbEntity
  8
0
  6
Continuous
 62
     7
370
    25
100
AcDbLine
 10
1140.2590373697
 20
724.1768305917
 30
0.0
 11
371.3945249262
 21
724.1768305917
 31
0.0
  0
LINE
  5
174
330
1F
100
AcDbEntity
  8
0
  6
Continuous
 62
     7
370
    25
100
AcDbLine
 10
371.3945249262
 20
724.1768305917
 30
0.0
 11
371.3945249262
 21
726.7749076505
 31
0.0
  0
LINE
  5
175
330
1F
100
AcDbEntity
  8
0
  6
Continuous
 62
     7
370
    25
100
AcDbLine
 10
371.3945249262
 20
270.5898647923
 30
0.0
 11
371.3945249262
 21
273.1879418511
 31
0.0
  0
LINE
  5
176
330
1F
100
AcDbEntity
  8
0
  6
Continuous
 62
     7
370
    25
100
AcDbLine
 10
371.3945249262
 20
273.1879418511
 30
0.0
 11
1140.2590373697
 21
273.1879418511
 31
0.0
  0
LINE
  5
177
330
1F
100
AcDbEntity
  8
0
  6
Continuous
 62
     7
370
    25
100
AcDbLine
 10
365.3323451223
 20
718.1146507878
 30
0.0
 11
365.3323451223
 21
279.250121655
 31
0.0
  0
LINE
  5
178
330
1F
100
AcDbEntity
  8
0
  6
Continuous
 62
     7
370
    25
100
AcDbLine
 10
365.3323451223
 20
279.250121655
 30
0.0
 11
362.7342680635
 21
279.250121655
 31
0.0
  0
LINE
  5
179
330
1F
100
AcDbEntity
  8
0
  6
Continuous
 62
     7
370
    25
100
AcDbLine
 10
365.3323451223
 20
718.1146507878
 30
0.0
 11
362.7342680635
 21
718.1146507878
 31
0.0
  0
ELLIPSE
  5
17A
330
1F
100
AcDbEntity
  8
0
  6
Continuous
 62
     7
370
    25
100
AcDbEllipse
 10
373.4152384161
 20
716.0939295493
 30
0.0
 11
6.39009650422696
 21
-6.390096504227015
 31
0.0
210
0.0
220
0.0
230
1.0
 40
0.7745966692
 41
2.482534617763386
 42
3.800650689416218
  0
ELLIPSE
  5
17B
330
1F
100
AcDbEntity
  8
0
  6
Continuous
 62
     7
370
    25
100
AcDbEllipse
 10
373.4152384161
 20
281.2708440856
 30
0.0
 11
6.39009650422696
 21
6.390096504226904
 31
0.0
210
0.0
220
0.0
230
1.0
 40
0.7745966692
 41
2.482534617763389
 42
3.800650689416217
  0
ENDSEC
  0
SECTION
  2
OBJECTS
  0
DICTIONARY
  5
C
330
0
100
AcDbDictionary
281
     1
  3
ACAD_GROUP
350
D
  3
ACAD_LAYOUT
350
1A
  3
ACAD_MLINESTYLE
350
17
  3
ACAD_PLOTSETTINGS
350
19
  3
ACAD_PLOTSTYLENAME
350
E
  3
ACAD_SCALELIST
350
47
  0
DICTIONARY
  5
D
102
{ACAD_REACTORS
330
C
102
}
330
C
100
AcDbDictionary
281
     1
  0
DICTIONARY
  5
1A
102
{ACAD_REACTORS
330
C
102
}
330
C
100
AcDbDictionary
281
     1
  3
Layout1
350
1E
  3
Layout2
350
26
  3
Model
350
22
  0
DICTIONARY
  5
17
102
{ACAD_REACTORS
330
C
102
}
330
C
100
AcDbDictionary
281
     1
  3
Standard
350
18
  0
DICTIONARY
  5
19
102
{ACAD_REACTORS
330
C
102
}
330
C
100
AcDbDictionary
281
     1
  0
ACDBDICTIONARYWDFLT
  5
E
102
{ACAD_REACTORS
330
C
102
}
330
C
100
AcDbDictionary
281
     1
  3
Normal
350
F
100
AcDbDictionaryWithDefault
340
F
  0
DICTIONARY
  5
47
102
{ACAD_REACTORS
330
C
102
}
330
C
100
AcDbDictionary
281
     1
  3
A0
350
48
  3
A1
350
49
  3
A2
350
4A
  3
A3
350
4B
  3
A4
350
4C
  3
A5
350
4D
  3
A6
350
4E
  3
A7
350
4F
  3
A8
350
50
  3
A9
350
51
  3
B0
350
52
  3
B1
350
53
  3
B2
350
54
  3
B3
350
55
  3
B4
350
56
  3
B5
350
57
  3
B6
350
58
  3
B7
350
59
  3
B8
350
5A
  3
B9
350
5B
  3
C0
350
5C
  3
C1
350
5D
  3
C2
350
5E
  3
C3
350
5F
  3
C4
350
60
  3
C5
350
61
  3
C6
350
62
  3
C7
350
63
  3
C8
350
64
  3
C9
350
65
  3
D0
350
66
  3
D1
350
67
  3
D2
350
68
  0
LAYOUT
  5
1E
102
{ACAD_REACTORS
330
1A
102
}
330
1A
100
AcDbPlotSettings
  1

  2
none_device
  4

  6

 40
0.0
 41
0.0
 42
0.0
 43
0.0
 44
0.0
 45
0.0
 46
0.0
 47
0.0
 48
0.0
 49
0.0
140
0.0
141
0.0
142
1.0
143
1.0
 70
   688
 72
     1
 73
     0
 74
     5
  7

 75
    16
147
1.0
148
0.0
149
0.0
100
AcDbLayout
  1
Layout1
 70
     1
 71
     1
 10
0.0
 20
0.0
 11
420.0
 21
297.0
 12
0.0
 22
0.0
 32
0.0
 14
1.0000000000E+20
 24
1.0000000000E+20
 34
1.0000000000E+20
 15
-1.0000000000E+20
 25
-1.0000000000E+20
 35
-1.0000000000E+20
146
0.0
 13
0.0
 23
0.0
 33
0.0
 16
1.0
 26
0.0
 36
0.0
 17
0.0
 27
1.0
 37
0.0
 76
     0
330
1B
  0
LAYOUT
  5
26
102
{ACAD_REACTORS
330
1A
102
}
330
1A
100
AcDbPlotSettings
  1

  2
none_device
  4

  6

 40
0.0
 41
0.0
 42
0.0
 43
0.0
 44
0.0
 45
0.0
 46
0.0
 47
0.0
 48
0.0
 49
0.0
140
0.0
141
0.0
142
1.0
143
1.0
 70
   688
 72
     1
 73
     0
 74
     5
  7

 75
    16
147
1.0
148
0.0
149
0.0
100
AcDbLayout
  1
Layout2
 70
     1
 71
     2
 10
0.0
 20
0.0
 11
0.0
 21
0.0
 12
0.0
 22
0.0
 32
0.0
 14
0.0
 24
0.0
 34
0.0
 15
0.0
 25
0.0
 35
0.0
146
0.0
 13
0.0
 23
0.0
 33
0.0
 16
1.0
 26
0.0
 36
0.0
 17
0.0
 27
1.0
 37
0.0
 76
     0
330
23
  0
LAYOUT
  5
22
102
{ACAD_REACTORS
330
1A
102
}
330
1A
100
AcDbPlotSettings
  1

  2
none_device
  4
Letter_(8.50_x_11.00_Inches)
  6

 40
6.35
 41
6.35
 42
6.35000508
 43
6.35000508
 44
215.9
 45
279.4
 46
0.0
 47
0.0
 48
0.0
 49
0.0
140
0.0
141
0.0
142
1.0
143
1.0
 70
  1712
 72
     1
 73
     0
 74
     0
  7

 75
     0
147
1.0
148
0.0
149
0.0
100
AcDbLayout
  1
Model
 70
     1
 71
     0
 10
0.0
 20
0.0
 11
1600.0
 21
900.0
 12
0.0
 22
0.0
 32
0.0
 14
0.0
 24
0.0
 34
0.0
 15
1600.0
 25
900.0
 35
0.0
146
0.0
 13
0.0
 23
0.0
 33
0.0
 16
1.0
 26
0.0
 36
0.0
 17
0.0
 27
1.0
 37
0.0
 76
     0
330
1F
331
29
  0
MLINESTYLE
  5
18
102
{ACAD_REACTORS
330
17
102
}
330
17
100
AcDbMlineStyle
  2
Standard
 70
     0
  3

 62
   256
 51
90.0
 52
90.0
 71
     2
 49
0.5
 62
   256
  6
BYLAYER
 49
-0.5
 62
   256
  6
BYLAYER
  0
ACDBPLACEHOLDER
  5
F
102
{ACAD_REACTORS
330
E
102
}
330
E
  0
SCALE
  5
48
102
{ACAD_REACTORS
330
47
102
}
330
47
100
AcDbScale
 70
     0
300
1:1
140
1.0
141
1.0
290
     1
  0
SCALE
  5
49
102
{ACAD_REACTORS
330
47
102
}
330
47
100
AcDbScale
 70
     0
300
1:2
140
1.0
141
2.0
290
     0
  0
SCALE
  5
4A
102
{ACAD_REACTORS
330
47
102
}
330
47
100
AcDbScale
 70
     0
300
1:4
140
1.0
141
4.0
290
     0
  0
SCALE
  5
4B
102
{ACAD_REACTORS
330
47
102
}
330
47
100
AcDbScale
 70
     0
300
1:5
140
1.0
141
5.0
290
     0
  0
SCALE
  5
4C
102
{ACAD_REACTORS
330
47
102
}
330
47
100
AcDbScale
 70
     0
300
1:8
140
1.0
141
8.0
290
     0
  0
SCALE
  5
4D
102
{ACAD_REACTORS
330
47
102
}
330
47
100
AcDbScale
 70
     0
300
1:10
140
1.0
141
10.0
290
     0
  0
SCALE
  5
4E
102
{ACAD_REACTORS
330
47
102
}
330
47
100
AcDbScale
 70
     0
300
1:16
140
1.0
141
16.0
290
     0
  0
SCALE
  5
4F
102
{ACAD_REACTORS
330
47
102
}
330
47
100
AcDbScale
 70
     0
300
1:20
140
1.0
141
20.0
290
     0
  0
SCALE
  5
50
102
{ACAD_REACTORS
330
47
102
}
330
47
100
AcDbScale
 70
     0
300
1:30
140
1.0
141
30.0
290
     0
  0
SCALE
  5
51
102
{ACAD_REACTORS
330
47
102
}
330
47
100
AcDbScale
 70
     0
300
1:40
140
1.0
141
40.0
290
     0
  0
SCALE
  5
52
102
{ACAD_REACTORS
330
47
102
}
330
47
100
AcDbScale
 70
     0
300
1:50
140
1.0
141
50.0
290
     0
  0
SCALE
  5
53
102
{ACAD_REACTORS
330
47
102
}
330
47
100
AcDbScale
 70
     0
300
1:100
140
1.0
141
100.0
290
     0
  0
SCALE
  5
54
102
{ACAD_REACTORS
330
47
102
}
330
47
100
AcDbScale
 70
     0
300
2:1
140
2.0
141
1.0
290
     0
  0
SCALE
  5
55
102
{ACAD_REACTORS
330
47
102
}
330
47
100
AcDbScale
 70
     0
300
4:1
140
4.0
141
1.0
290
     0
  0
SCALE
  5
56
102
{ACAD_REACTORS
330
47
102
}
330
47
100
AcDbScale
 70
     0
300
8:1
140
8.0
141
1.0
290
     0
  0
SCALE
  5
57
102
{ACAD_REACTORS
330
47
102
}
330
47
100
AcDbScale
 70
     0
300
10:1
140
10.0
141
1.0
290
     0
  0
SCALE
  5
58
102
{ACAD_REACTORS
330
47
102
}
330
47
100
AcDbScale
 70
     0
300
100:1
140
100.0
141
1.0
290
     0
  0
SCALE
  5
59
102
{ACAD_REACTORS
330
47
102
}
330
47
100
AcDbScale
 70
     0
300
1/128" = 1'-0"
140
0.0078125
141
12.0
290
     0
  0
SCALE
  5
5A
102
{ACAD_REACTORS
330
47
102
}
330
47
100
AcDbScale
 70
     0
300
1/64" = 1'-0"
140
0.015625
141
12.0
290
     0
  0
SCALE
  5
5B
102
{ACAD_REACTORS
330
47
102
}
330
47
100
AcDbScale
 70
     0
300
1/32" = 1'-0"
140
0.03125
141
12.0
290
     0
  0
SCALE
  5
5C
102
{ACAD_REACTORS
330
47
102
}
330
47
100
AcDbScale
 70
     0
300
1/16" = 1'-0"
140
0.0625
141
12.0
290
     0
  0
SCALE
  5
5D
102
{ACAD_REACTORS
330
47
102
}
330
47
100
AcDbScale
 70
     0
300
3/32" = 1'-0"
140
0.09375
141
12.0
290
     0
  0
SCALE
  5
5E
102
{ACAD_REACTORS
330
47
102
}
330
47
100
AcDbScale
 70
     0
300
1/8" = 1'-0"
140
0.125
141
12.0
290
     0
  0
SCALE
  5
5F
102
{ACAD_REACTORS
330
47
102
}
330
47
100
AcDbScale
 70
     0
300
3/16" = 1'-0"
140
0.1875
141
12.0
290
     0
  0
SCALE
  5
60
102
{ACAD_REACTORS
330
47
102
}
330
47
100
AcDbScale
 70
     0
300
1/4" = 1'-0"
140
0.25
141
12.0
290
     0
  0
SCALE
  5
61
102
{ACAD_REACTORS
330
47
102
}
330
47
100
AcDbScale
 70
     0
300
3/8" = 1'-0"
140
0.375
141
12.0
290
     0
  0
SCALE
  5
62
102
{ACAD_REACTORS
330
47
102
}
330
47
100
AcDbScale
 70
     0
300
1/2" = 1'-0"
140
0.5
141
12.0
290
     0
  0
SCALE
  5
63
102
{ACAD_REACTORS
330
47
102
}
330
47
100
AcDbScale
 70
     0
300
3/4" = 1'-0"
140
0.75
141
12.0
290
     0
  0
SCALE
  5
64
102
{ACAD_REACTORS
330
47
102
}
330
47
100
AcDbScale
 70
     0
300
1" = 1'-0"
140
1.0
141
12.0
290
     0
  0
SCALE
  5
65
102
{ACAD_REACTORS
330
47
102
}
330
47
100
AcDbScale
 70
     0
300
1-1/2" = 1'-0"
140
1.5
141
12.0
290
     0
  0
SCALE
  5
66
102
{ACAD_REACTORS
330
47
102
}
330
47
100
AcDbScale
 70
     0
300
3" = 1'-0"
140
3.0
141
12.0
290
     0
  0
SCALE
  5
67
102
{ACAD_REACTORS
330
47
102
}
330
47
100
AcDbScale
 70
     0
300
6" = 1'-0"
140
6.0
141
12.0
290
     0
  0
SCALE
  5
68
102
{ACAD_REACTORS
330
47
102
}
330
47
100
AcDbScale
 70
     0
300
1'-0" = 1'-0"
140
12.0
141
12.0
290
     0
  0
ENDSEC
  0
EOF
