  0
SECTION
  2
HEADER
  9
$ACADVER
  1
AC1015
  9
$ACADMAINTVER
 70
     6
  9
$DWGCODEPAGE
  3
ANSI_1252
  9
$INSBASE
 10
0.0
 20
0.0
 30
0.0
  9
$EXTMIN
 10
0.0
 20
0.0
 30
0.0
  9
$EXTMAX
 10
1200.0
 20
800.0
 30
0.0
  9
$LIMMIN
 10
0.0
 20
0.0
  9
$LIMMAX
 10
1200.0
 20
800.0
  9
$ORTHOMODE
 70
     0
  9
$REGENMODE
 70
     1
  9
$FILLMODE
 70
     1
  9
$QTEXTMODE
 70
     0
  9
$MIRRTEXT
 70
     1
  9
$LTSCALE
 40
1.0
  9
$ATTMODE
 70
     1
  9
$TEXTSIZE
 40
2.2577777778
  9
$TRACEWID
 40
1.0
  9
$TEXTSTYLE
  7
Standard
  9
$CLAYER
  8
0
  9
$CELTYPE
  6
ByLayer
  9
$CECOLOR
 62
   256
  9
$CELTSCALE
 40
1.0
  9
$DISPSILH
 70
     0
  9
$DIMSCALE
 40
1.0
  9
$DIMASZ
 40
2.0
  9
$DIMEXO
 40
1.0
  9
$DIMDLI
 40
3.75
  9
$DIMRND
 40
0.0
  9
$DIMDLE
 40
0.0
  9
$DIMEXE
 40
1.0
  9
$DIMTP
 40
0.0
  9
$DIMTM
 40
0.0
  9
$DIMTXT
 40
6.7733333333
  9
$DIMCEN
 40
2.5
  9
$DIMTSZ
 40
0.0
  9
$DIMTOL
 70
     0
  9
$DIMLIM
 70
     0
  9
$DIMTIH
 70
     1
  9
$DIMTOH
 70
     1
  9
$DIMSE1
 70
     0
  9
$DIMSE2
 70
     0
  9
$DIMTAD
 70
     1
  9
$DIMZIN
 70
     0
  9
$DIMBLK
  1

  9
$DIMASO
 70
     1
  9
$DIMSHO
 70
     1
  9
$DIMPOST
  1

  9
$DIMAPOST
  1

  9
$DIMALT
 70
     0
  9
$DIMALTD
 70
     3
  9
$DIMALTF
 40
0.0393700787
  9
$DIMLFAC
 40
1.0
  9
$DIMTOFL
 70
     1
  9
$DIMTVP
 40
0.0
  9
$DIMTIX
 70
     0
  9
$DIMSOXD
 70
     0
  9
$DIMSAH
 70
     0
  9
$DIMBLK1
  1

  9
$DIMBLK2
  1

  9
$DIMSTYLE
  2
ISO-25
  9
$DIMCLRD
 70
     0
  9
$DIMCLRE
 70
     0
  9
$DIMCLRT
 70
     0
  9
$DIMTFAC
 40
1.0
  9
$DIMGAP
 40
1.524
  9
$DIMJUST
 70
     0
  9
$DIMSD1
 70
     0
  9
$DIMSD2
 70
     0
  9
$DIMTOLJ
 70
     0
  9
$DIMTZIN
 70
     0
  9
$DIMALTZ
 70
     0
  9
$DIMALTTZ
 70
     0
  9
$DIMUPT
 70
     0
  9
$DIMDEC
 70
     2
  9
$DIMTDEC
 70
     2
  9
$DIMALTU
 70
     2
  9
$DIMALTTD
 70
     3
  9
$DIMTXSTY
  7
Standard
  9
$DIMAUNIT
 70
     0
  9
$DIMADEC
 70
     2
  9
$DIMALTRND
 40
0.0
  9
$DIMAZIN
 70
     0
  9
$DIMDSEP
 70
    44
  9
$DIMATFIT
 70
     3
  9
$DIMFRAC
 70
     0
  9
$DIMLDRBLK
  1

  9
$DIMLUNIT
 70
     2
  9
$DIMLWD
 70
    -2
  9
$DIMLWE
 70
    -2
  9
$DIMTMOVE
 70
     0
  9
$LUNITS
 70
     2
  9
$LUPREC
 70
     2
  9
$SKETCHINC
 40
1.0
  9
$FILLETRAD
 40
10.0
  9
$AUNITS
 70
     0
  9
$AUPREC
 70
     2
  9
$MENU
  1
.
  9
$ELEVATION
 40
0.0
  9
$PELEVATION
 40
0.0
  9
$THICKNESS
 40
0.0
  9
$LIMCHECK
 70
     0
  9
$CHAMFERA
 40
0.0
  9
$CHAMFERB
 40
0.0
  9
$CHAMFERC
 40
0.0
  9
$CHAMFERD
 40
0.0
  9
$SKPOLY
 70
     0
  9
$TDCREATE
 40
2458500.416366077
  9
$TDUCREATE
 40
2458500.333032743
  9
$TDUPDATE
 40
2458500.416369005
  9
$TDUUPDATE
 40
2458500.333035671
  9
$TDINDWG
 40
0.0000000116
  9
$TDUSRTIMER
 40
0.0000000116
  9
$USRTIMER
 70
     1
  9
$ANGBASE
 50
0.0
  9
$ANGDIR
 70
     0
  9
$PDMODE
 70
     0
  9
$PDSIZE
 40
-1.0
  9
$PLINEWID
 40
0.0
  9
$SPLFRAME
 70
     0
  9
$SPLINETYPE
 70
     6
  9
$SPLINESEGS
 70
     8
  9
$HANDSEED
  5
3B4
  9
$SURFTAB1
 70
     6
  9
$SURFTAB2
 70
     6
  9
$SURFTYPE
 70
     6
  9
$SURFU
 70
     6
  9
$SURFV
 70
     6
  9
$UCSBASE
  2

  9
$UCSNAME
  2

  9
$UCSORG
 10
0.0
 20
0.0
 30
0.0
  9
$UCSXDIR
 10
1.0
 20
0.0
 30
0.0
  9
$UCSYDIR
 10
0.0
 20
1.0
 30
0.0
  9
$UCSORTHOREF
  2

  9
$UCSORTHOVIEW
 70
     0
  9
$UCSORGTOP
 10
0.0
 20
0.0
 30
0.0
  9
$UCSORGBOTTOM
 10
0.0
 20
0.0
 30
0.0
  9
$UCSORGLEFT
 10
0.0
 20
0.0
 30
0.0
  9
$UCSORGRIGHT
 10
0.0
 20
0.0
 30
0.0
  9
$UCSORGFRONT
 10
0.0
 20
0.0
 30
0.0
  9
$UCSORGBACK
 10
0.0
 20
0.0
 30
0.0
  9
$PUCSBASE
  2

  9
$PUCSNAME
  2

  9
$PUCSORG
 10
0.0
 20
0.0
 30
0.0
  9
$PUCSXDIR
 10
1.0
 20
0.0
 30
0.0
  9
$PUCSYDIR
 10
0.0
 20
1.0
 30
0.0
  9
$PUCSORTHOREF
  2

  9
$PUCSORTHOVIEW
 70
     0
  9
$PUCSORGTOP
 10
0.0
 20
0.0
 30
0.0
  9
$PUCSORGBOTTOM
 10
0.0
 20
0.0
 30
0.0
  9
$PUCSORGLEFT
 10
0.0
 20
0.0
 30
0.0
  9
$PUCSORGRIGHT
 10
0.0
 20
0.0
 30
0.0
  9
$PUCSORGFRONT
 10
0.0
 20
0.0
 30
0.0
  9
$PUCSORGBACK
 10
0.0
 20
0.0
 30
0.0
  9
$USERI1
 70
     0
  9
$USERI2
 70
     0
  9
$USERI3
 70
     0
  9
$USERI4
 70
     0
  9
$USERI5
 70
     0
  9
$USERR1
 40
0.0
  9
$USERR2
 40
0.0
  9
$USERR3
 40
0.0
  9
$USERR4
 40
0.0
  9
$USERR5
 40
0.0
  9
$WORLDVIEW
 70
     1
  9
$SHADEDGE
 70
     3
  9
$SHADEDIF
 70
    70
  9
$TILEMODE
 70
     1
  9
$MAXACTVP
 70
    64
  9
$PINSBASE
 10
0.0
 20
0.0
 30
0.0
  9
$PLIMCHECK
 70
     0
  9
$PEXTMIN
 10
1.0000000000E+20
 20
1.0000000000E+20
 30
1.0000000000E+20
  9
$PEXTMAX
 10
-1.0000000000E+20
 20
-1.0000000000E+20
 30
-1.0000000000E+20
  9
$PLIMMIN
 10
0.0
 20
0.0
  9
$PLIMMAX
 10
420.0
 20
297.0
  9
$UNITMODE
 70
     0
  9
$VISRETAIN
 70
     1
  9
$PLINEGEN
 70
     0
  9
$PSLTSCALE
 70
     1
  9
$TREEDEPTH
 70
  3020
  9
$CMLSTYLE
  2
Standard
  9
$CMLJUST
 70
     0
  9
$CMLSCALE
 40
20.0
  9
$PROXYGRAPHICS
 70
     1
  9
$MEASUREMENT
 70
     1
  9
$CELWEIGHT
370
    -1
  9
$ENDCAPS
280
     0
  9
$JOINSTYLE
280
     0
  9
$LWDISPLAY
290
     1
  9
$INSUNITS
 70
     4
  9
$HYPERLINKBASE
  1

  9
$STYLESHEET
  1

  9
$XEDIT
290
     1
  9
$CEPSNTYPE
380
     0
  9
$PSTYLEMODE
290
     1
  9
$FINGERPRINTGUID
  2
{4FAF23EB-370D-4358-9FC0-3CBED99B6454}
  9
$VERSIONGUID
  2
{FAEB1C32-E019-11D5-929B-00C0DF256EC4}
  9
$EXTNAMES
290
     1
  9
$PSVPSCALE
 40
0.0
  9
$OLESTARTUP
290
     0
  0
ENDSEC
  0
SECTION
  2
CLASSES
  0
CLASS
  1
ACDBDICTIONARYWDFLT
  2
AcDbDictionaryWithDefault
  3
ObjectDBX Classes
 90
        0
280
     0
281
     0
  0
CLASS
  1
VISUALSTYLE
  2
AcDbVisualStyle
  3
ObjectDBX Classes
 90
     4095
280
     0
281
     0
  0
CLASS
  1
MATERIAL
  2
AcDbMaterial
  3
ObjectDBX Classes
 90
     1153
280
     0
281
     0
  0
CLASS
  1
SCALE
  2
AcDbScale
  3
ObjectDBX Classes
 90
     1153
280
     0
281
     0
  0
CLASS
  1
TABLESTYLE
  2
AcDbTableStyle
  3
ObjectDBX Classes
 90
     4095
280
     0
281
     0
  0
CLASS
  1
MLEADERSTYLE
  2
AcDbMLeaderStyle
  3
ACDB_MLEADERSTYLE_CLASS
 90
     4095
280
     0
281
     0
  0
CLASS
  1
SUN
  2
AcDbSun
  3
SCENEOE
 90
     1153
280
     0
281
     0
  0
CLASS
  1
ACDBPLACEHOLDER
  2
AcDbPlaceHolder
  3
ObjectDBX Classes
 90
        0
280
     0
281
     0
  0
CLASS
  1
LAYOUT
  2
AcDbLayout
  3
ObjectDBX Classes
 90
        0
280
     0
281
     0
  0
ENDSEC
  0
SECTION
  2
TABLES
  0
TABLE
  2
VPORT
  5
8
330
0
100
AcDbSymbolTable
 70
     1
  0
VPORT
  5
29
330
8
100
AcDbSymbolTableRecord
100
AcDbViewportTableRecord
  2
*Active
 70
     0
 10
0.0
 20
0.0
 11
1.0
 21
1.0
 12
600.0
 22
400.0
 13
0.0
 23
0.0
 14
10.0
 24
10.0
 15
10.0
 25
10.0
 16
0.0
 26
0.0
 36
1.0
 17
0.0
 27
0.0
 37
0.0
 40
800.0
 41
1.5
 42
50.0
 43
0.0
 44
0.0
 50
0.0
 51
0.0
 71
     0
 72
  2000
 73
     1
 74
     3
 75
     0
 76
     0
 77
     0
 78
     0
281
     0
 65
     1
110
0.0
120
0.0
130
0.0
111
1.0
121
0.0
131
0.0
112
0.0
122
1.0
132
0.0
 79
     0
146
0.0
  0
ENDTAB
  0
TABLE
  2
LTYPE
  5
5
330
0
100
AcDbSymbolTable
 70
     6
  0
LTYPE
  5
14
330
5
100
AcDbSymbolTableRecord
100
AcDbLinetypeTableRecord
  2
ByBlock
 70
     0
  3

 72
    65
 73
     0
 40
0.0
  0
LTYPE
  5
15
330
5
100
AcDbSymbolTableRecord
100
AcDbLinetypeTableRecord
  2
ByLayer
 70
     0
  3

 72
    65
 73
     0
 40
0.0
  0
LTYPE
  5
16
330
5
100
AcDbSymbolTableRecord
100
AcDbLinetypeTableRecord
  2
Continuous
 70
     0
  3
Solid line
 72
    65
 73
     0
 40
0.0
  0
LTYPE
  5
6E
330
5
100
AcDbSymbolTableRecord
100
AcDbLinetypeTableRecord
  2
HIDDEN
 70
     0
  3
Hidden __ __ __ __ __ __ __ __ __ __ __ __ __ __
 72
    65
 73
     2
 40
1.905
 49
1.27
 74
     0
 49
-0.635
 74
     0
  0
LTYPE
  5
6F
330
5
100
AcDbSymbolTableRecord
100
AcDbLinetypeTableRecord
  2
PHANTOM
 70
     0
  3
Phantom ______  __  __  ______  __  __  ______
 72
    65
 73
     6
 40
12.7
 49
6.35
 74
     0
 49
-1.27
 74
     0
 49
1.27
 74
     0
 49
-1.27
 74
     0
 49
1.27
 74
     0
 49
-1.27
 74
     0
  0
LTYPE
  5
70
330
5
100
AcDbSymbolTableRecord
100
AcDbLinetypeTableRecord
  2
CENTER
 70
     0
  3
Center ____ _ ____ _ ____ _ ____ _ ____ _ ____
 72
    65
 73
     4
 40
10.16
 49
6.35
 74
     0
 49
-1.27
 74
     0
 49
1.27
 74
     0
 49
-1.27
 74
     0
  0
LTYPE
  5
71
330
5
100
AcDbSymbolTableRecord
100
AcDbLinetypeTableRecord
  2
CENTERX2
 70
     0
  3
Center (2x) ________  __  ________  __  _____
 72
    65
 73
     4
 40
20.32
 49
12.7
 74
     0
 49
-2.54
 74
     0
 49
2.54
 74
     0
 49
-2.54
 74
     0
  0
LTYPE
  5
72
330
5
100
AcDbSymbolTableRecord
100
AcDbLinetypeTableRecord
  2
DOT2
 70
     0
  3
Dot (.5x) ........................................
 72
    65
 73
     2
 40
0.635
 49
0.0
 74
     0
 49
-0.635
 74
     0
  0
ENDTAB
  0
TABLE
  2
LAYER
  5
2
330
0
100
AcDbSymbolTable
 70
     2
  0
LAYER
  5
10
330
2
100
AcDbSymbolTableRecord
100
AcDbLayerTableRecord
  2
0
 70
     0
 62
     7
  6
Continuous
370
    -3
390
F
  0
LAYER
  5
73
330
2
100
AcDbSymbolTableRecord
100
AcDbLayerTableRecord
  2
TABLE_BL1
 70
     0
 62
   179
  6
Continuous
370
    -3
390
F
  0
ENDTAB
  0
TABLE
  2
STYLE
  5
3
330
0
100
AcDbSymbolTable
 70
     1
  0
STYLE
  5
11
330
3
100
AcDbSymbolTableRecord
100
AcDbTextStyleTableRecord
  2
Standard
 70
     0
 40
0.0
 41
1.0
 50
0.0
 71
     0
 42
2.2577777778
  3
txt
  4

  0
ENDTAB
  0
TABLE
  2
VIEW
  5
6
330
0
100
AcDbSymbolTable
 70
     0
  0
ENDTAB
  0
TABLE
  2
UCS
  5
7
330
0
100
AcDbSymbolTable
 70
     0
  0
ENDTAB
  0
TABLE
  2
APPID
  5
9
330
0
100
AcDbSymbolTable
 70
     1
  0
APPID
  5
12
330
9
100
AcDbSymbolTableRecord
100
AcDbRegAppTableRecord
  2
ACAD
 70
     0
  0
ENDTAB
  0
TABLE
  2
DIMSTYLE
  5
A
330
0
100
AcDbSymbolTable
 70
     1
100
AcDbDimStyleTable
  0
DIMSTYLE
105
27
330
A
100
AcDbSymbolTableRecord
100
AcDbDimStyleTableRecord
  2
ISO-25
 70
     0
 41
2.5
 42
0.625
 43
3.75
 44
1.25
 73
     0
 74
     0
 77
     1
 78
     8
140
2.5
141
2.5
143
0.0393700787
147
0.625
171
     3
172
     1
178
     0
271
     2
272
     2
274
     3
278
    44
283
     0
284
     8
340
11
  0
ENDTAB
  0
TABLE
  2
BLOCK_RECORD
  5
1
330
0
100
AcDbSymbolTable
 70
     1
  0
BLOCK_RECORD
  5
1F
330
1
100
AcDbSymbolTableRecord
100
AcDbBlockTableRecord
  2
*Model_Space
340
22
  0
BLOCK_RECORD
  5
1B
330
1
100
AcDbSymbolTableRecord
100
AcDbBlockTableRecord
  2
*Paper_Space
340
1E
  0
BLOCK_RECORD
  5
23
330
1
100
AcDbSymbolTableRecord
100
AcDbBlockTableRecord
  2
*Paper_Space0
340
26
  0
ENDTAB
  0
ENDSEC
  0
SECTION
  2
BLOCKS
  0
BLOCK
  5
20
330
1F
100
AcDbEntity
  8
0
100
AcDbBlockBegin
  2
*Model_Space
 70
     0
 10
0.0
 20
0.0
 30
0.0
  3
*Model_Space
  1

  0
ENDBLK
  5
21
330
1F
100
AcDbEntity
  8
0
100
AcDbBlockEnd
  0
BLOCK
  5
1C
330
1B
100
AcDbEntity
 67
     1
  8
0
100
AcDbBlockBegin
  2
*Paper_Space
 70
     0
 10
0.0
 20
0.0
 30
0.0
  3
*Paper_Space
  1

  0
ENDBLK
  5
1D
330
1B
100
AcDbEntity
 67
     1
  8
0
100
AcDbBlockEnd
  0
BLOCK
  5
24
330
23
100
AcDbEntity
  8
0
100
AcDbBlockBegin
  2
*Paper_Space0
 70
     0
 10
0.0
 20
0.0
 30
0.0
  3
*Paper_Space0
  1

  0
ENDBLK
  5
25
330
23
100
AcDbEntity
  8
0
100
AcDbBlockEnd
  0
ENDSEC
  0
SECTION
  2
ENTITIES
  0
SPLINE
  5
74
330
1F
100
AcDbEntity
  8
0
  6
Continuous
 62
     7
370
    25
100
AcDbSpline
210
0.0
220
0.0
230
1.0
 70
     8
 71
     3
 72
    29
 73
    25
 74
     0
 42
0.000000001
 43
0.00000001
 40
0.0
 40
0.0
 40
0.0
 40
0.0
 40
0.0349321406882635
 40
0.0633980643159913
 40
0.0838985515737895
 40
0.1410481598295769
 40
0.1993926718331194
 40
0.2579538570990187
 40
0.316735887686743
 40
0.3756685440136575
 40
0.4347110736298803
 40
0.4938368192040538
 40
0.5530116495173842
 40
0.6120983013386022
 40
0.6710428299972755
 40
0.7298261731686599
 40
0.7884258360426925
 40
0.8467958145206169
 40
0.8655669647427026
 40
0.8834823951604174
 40
0.9012873219477363
 40
0.9267778521638323
 40
0.9604934909203238
 40
1.0
 40
1.0
 40
1.0
 40
1.0
 10
687.682071513275
 20
410.2878911564625
 30
0.0
 10
687.6396014585438
 20
411.6496484502467
 30
0.0
 10
687.562522893981
 20
414.1210909325308
 30
0.0
 10
687.0404256137675
 20
417.3556598869311
 30
0.0
 10
686.0973163264446
 20
421.3820489571684
 30
0.0
 10
684.251705632453
 20
426.3837818260378
 30
0.0
 10
680.7781387566209
 20
432.2509428159422
 30
0.0
 10
676.2475450903562
 20
437.434437815159
 30
0.0
 10
670.8255596370907
 20
441.7136786941605
 30
0.0
 10
664.6920981620234
 20
444.9317597418463
 30
0.0
 10
658.057613521565
 20
446.9682626260577
 30
0.0
 10
651.1516603884236
 20
447.7460940865031
 30
0.0
 10
644.2191187325352
 20
447.2341176038505
 30
0.0
 10
637.5074790661392
 20
445.4520035224404
 30
0.0
 10
631.253592388582
 20
442.4696751183325
 30
0.0
 10
625.6703484105616
 20
438.3989659608099
 30
0.0
 10
620.9444911453605
 20
433.391441832199
 30
0.0
 10
618.061276525401
 20
428.9179502026594
 30
0.0
 10
616.4449684217388
 20
425.5840851358575
 30
0.0
 10
615.6298127681184
 20
423.6224008953217
 30
0.0
 10
614.8381712097931
 20
421.3712056849057
 30
0.0
 10
614.0418761881779
 20
418.4761807710824
 30
0.0
 10
613.3376793954828
 20
414.6830625409364
 30
0.0
 10
613.2366096412443
 20
411.8282082591232
 30
0.0
 10
613.1820781465871
 20
410.2878911564625
 30
0.0
  0
SPLINE
  5
75
330
1F
100
AcDbEntity
  8
0
  6
Continuous
 62
     7
370
    25
100
AcDbSpline
210
0.0
220
0.0
230
1.0
 70
     8
 71
     3
 72
    29
 73
    25
 74
     0
 42
0.000000001
 43
0.00000001
 40
0.0
 40
0.0
 40
0.0
 40
0.0
 40
0.0349321406882635
 40
0.0633980643159913
 40
0.0838985515737895
 40
0.1410481598295768
 40
0.1993926718331193
 40
0.2579538570990187
 40
0.3167358876867429
 40
0.3756685440136573
 40
0.4347110736298803
 40
0.4938368192040539
 40
0.5530116495173844
 40
0.6120983013386023
 40
0.6710428299972757
 40
0.7298261731686602
 40
0.7884258360426928
 40
0.8467958145206173
 40
0.8655669647427027
 40
0.8834823951604176
 40
0.9012873219477364
 40
0.9267778521638326
 40
0.9604934909203239
 40
1.0
 40
1.0
 40
1.0
 40
1.0
 10
613.1820781465871
 20
410.2878911564625
 30
0.0
 10
613.2245482013184
 20
408.9261338626783
 30
0.0
 10
613.3016267658811
 20
406.4546913803943
 30
0.0
 10
613.8237240460945
 20
403.220122425994
 30
0.0
 10
614.7668333334174
 20
399.1937333557566
 30
0.0
 10
616.6124440274091
 20
394.1920004868873
 30
0.0
 10
620.0860109032411
 20
388.3248394969828
 30
0.0
 10
624.6166045695059
 20
383.1413444977661
 30
0.0
 10
630.0385900227714
 20
378.8621036187645
 30
0.0
 10
636.1720514978388
 20
375.6440225710787
 30
0.0
 10
642.8065361382971
 20
373.6075196868674
 30
0.0
 10
649.7124892714386
 20
372.8296882264219
 30
0.0
 10
656.6450309273268
 20
373.3416647090746
 30
0.0
 10
663.3566705937228
 20
375.1237787904847
 30
0.0
 10
669.6105572712801
 20
378.1061071945925
 30
0.0
 10
675.1938012493005
 20
382.1768163521152
 30
0.0
 10
679.9196585145015
 20
387.1843404807261
 30
0.0
 10
682.802873134461
 20
391.6578321102656
 30
0.0
 10
684.4191812381232
 20
394.9916971770676
 30
0.0
 10
685.2343368917435
 20
396.9533814176035
 30
0.0
 10
686.0259784500689
 20
399.2045766280194
 30
0.0
 10
686.8222734716842
 20
402.0996015418427
 30
0.0
 10
687.5264702643791
 20
405.8927197719887
 30
0.0
 10
687.6275400186178
 20
408.7475740538018
 30
0.0
 10
687.682071513275
 20
410.2878911564625
 30
0.0
  0
SPLINE
  5
76
330
1F
100
AcDbEntity
  8
0
  6
Continuous
 62
     7
370
    25
100
AcDbSpline
210
0.0
220
0.0
230
1.0
 70
     8
 71
     3
 72
    29
 73
    25
 74
     0
 42
0.000000001
 43
0.00000001
 40
0.0
 40
0.0
 40
0.0
 40
0.0
 40
0.0349321406882635
 40
0.0633980643159912
 40
0.0838985515737895
 40
0.1410481598295769
 40
0.1993926718331193
 40
0.2579538570990187
 40
0.3167358876867428
 40
0.3756685440136573
 40
0.4347110736298803
 40
0.4938368192040539
 40
0.5530116495173842
 40
0.6120983013386023
 40
0.6710428299972756
 40
0.7298261731686602
 40
0.7884258360426927
 40
0.8467958145206171
 40
0.8655669647427027
 40
0.8834823951604176
 40
0.9012873219477364
 40
0.9267778521638326
 40
0.9604934909203239
 40
1.0
 40
1.0
 40
1.0
 40
1.0
 10
386.1820781465872
 20
410.2878911564625
 30
0.0
 10
386.2245482013184
 20
408.9261338626783
 30
0.0
 10
386.3016267658812
 20
406.4546913803943
 30
0.0
 10
386.8237240460945
 20
403.2201224259939
 30
0.0
 10
387.7668333334176
 20
399.1937333557566
 30
0.0
 10
389.6124440274093
 20
394.1920004868873
 30
0.0
 10
393.0860109032411
 20
388.3248394969828
 30
0.0
 10
397.6166045695059
 20
383.1413444977661
 30
0.0
 10
403.0385900227715
 20
378.8621036187644
 30
0.0
 10
409.1720514978389
 20
375.6440225710788
 30
0.0
 10
415.8065361382971
 20
373.6075196868674
 30
0.0
 10
422.7124892714387
 20
372.8296882264219
 30
0.0
 10
429.645030927327
 20
373.3416647090746
 30
0.0
 10
436.3566705937229
 20
375.1237787904847
 30
0.0
 10
442.6105572712802
 20
378.1061071945925
 30
0.0
 10
448.1938012493006
 20
382.1768163521152
 30
0.0
 10
452.9196585145016
 20
387.1843404807261
 30
0.0
 10
455.8028731344612
 20
391.6578321102656
 30
0.0
 10
457.4191812381233
 20
394.9916971770676
 30
0.0
 10
458.2343368917436
 20
396.9533814176035
 30
0.0
 10
459.025978450069
 20
399.2045766280194
 30
0.0
 10
459.8222734716842
 20
402.0996015418427
 30
0.0
 10
460.5264702643792
 20
405.8927197719887
 30
0.0
 10
460.6275400186179
 20
408.7475740538018
 30
0.0
 10
460.6820715132751
 20
410.2878911564625
 30
0.0
  0
SPLINE
  5
77
330
1F
100
AcDbEntity
  8
0
  6
Continuous
 62
     7
370
    25
100
AcDbSpline
210
0.0
220
0.0
230
1.0
 70
     8
 71
     3
 72
    29
 73
    25
 74
     0
 42
0.000000001
 43
0.00000001
 40
0.0
 40
0.0
 40
0.0
 40
0.0
 40
0.0349321406882635
 40
0.0633980643159913
 40
0.0838985515737895
 40
0.1410481598295769
 40
0.1993926718331194
 40
0.2579538570990189
 40
0.316735887686743
 40
0.3756685440136575
 40
0.4347110736298804
 40
0.4938368192040539
 40
0.5530116495173844
 40
0.6120983013386023
 40
0.6710428299972756
 40
0.7298261731686602
 40
0.7884258360426925
 40
0.8467958145206169
 40
0.8655669647427026
 40
0.8834823951604174
 40
0.9012873219477362
 40
0.9267778521638322
 40
0.9604934909203237
 40
0.9999999999999999
 40
0.9999999999999999
 40
0.9999999999999999
 40
0.9999999999999999
 10
460.6820715132751
 20
410.2878911564625
 30
0.0
 10
460.6396014585439
 20
411.6496484502467
 30
0.0
 10
460.5625228939812
 20
414.1210909325308
 30
0.0
 10
460.0404256137676
 20
417.3556598869311
 30
0.0
 10
459.0973163264447
 20
421.3820489571684
 30
0.0
 10
457.251705632453
 20
426.3837818260378
 30
0.0
 10
453.7781387566211
 20
432.2509428159422
 30
0.0
 10
449.2475450903563
 20
437.434437815159
 30
0.0
 10
443.8255596370907
 20
441.7136786941606
 30
0.0
 10
437.6920981620234
 20
444.9317597418463
 30
0.0
 10
431.057613521565
 20
446.9682626260577
 30
0.0
 10
424.1516603884237
 20
447.7460940865031
 30
0.0
 10
417.2191187325353
 20
447.2341176038506
 30
0.0
 10
410.5074790661394
 20
445.4520035224404
 30
0.0
 10
404.2535923885821
 20
442.4696751183325
 30
0.0
 10
398.6703484105617
 20
438.3989659608099
 30
0.0
 10
393.9444911453607
 20
433.3914418321989
 30
0.0
 10
391.0612765254011
 20
428.9179502026594
 30
0.0
 10
389.444968421739
 20
425.5840851358575
 30
0.0
 10
388.6298127681186
 20
423.6224008953217
 30
0.0
 10
387.8381712097932
 20
421.3712056849056
 30
0.0
 10
387.0418761881779
 20
418.4761807710824
 30
0.0
 10
386.337679395483
 20
414.6830625409364
 30
0.0
 10
386.2366096412443
 20
411.8282082591232
 30
0.0
 10
386.1820781465871
 20
410.2878911564625
 30
0.0
  0
LINE
  5
78
330
1F
100
AcDbEntity
  8
0
  6
Continuous
 62
     7
370
    25
100
AcDbLine
 10
532.4808843529
 20
559.383014767
 30
0.0
 11
532.4334623837
 21
558.3107476315
 31
0.0
  0
ARC
  5
79
330
1F
100
AcDbEntity
  8
0
  6
Continuous
 62
     7
370
    25
100
AcDbCircle
 10
484.5019468112
 20
260.180209704
 30
0.0
 40
48.44253434316202
100
AcDbArc
 50
283.9148850375
 51
298.0502271915
  0
ARC
  5
7A
330
1F
100
AcDbEntity
  8
0
  6
Continuous
 62
     7
370
    25
100
AcDbCircle
 10
650.4320748299
 20
410.2878911565
 30
0.0
 40
36.31056399417616
100
AcDbArc
 50
179.9999997113
 51
0.0000000118
  0
ARC
  5
7B
330
1F
100
AcDbEntity
  8
0
  6
Continuous
 62
     7
370
    25
100
AcDbCircle
 10
650.4320748299
 20
410.2878911565
 30
0.0
 40
36.31056399417616
100
AcDbArc
 50
0.0000000118
 51
179.9999997113
  0
ARC
  5
7C
330
1F
100
AcDbEntity
  8
0
  6
Continuous
 62
     7
370
    25
100
AcDbCircle
 10
423.4320748299
 20
410.2878911565
 30
0.0
 40
36.31056399417611
100
AcDbArc
 50
179.9999997113
 51
0.0000000118
  0
ARC
  5
7D
330
1F
100
AcDbEntity
  8
0
  6
Continuous
 62
     7
370
    25
100
AcDbCircle
 10
423.4320748299
 20
410.2878911565
 30
0.0
 40
36.31056399417611
100
AcDbArc
 50
0.0000000118
 51
179.9999997113
  0
SPLINE
  5
7E
330
1F
100
AcDbEntity
  8
0
  6
Continuous
 62
     7
370
    25
100
AcDbSpline
210
0.0
220
0.0
230
1.0
 70
    24
 71
     3
 72
     9
 73
     5
 74
     0
 42
0.000000001
 43
0.00000001
 40
0.0
 40
0.0
 40
0.0
 40
0.0
 40
0.5599999999871356
 40
1.0
 40
1.0
 40
1.0
 40
1.0
 10
619.9479932589039
 20
387.103111170682
 30
0.0
 10
619.7931320088222
 20
386.9853308792502
 30
0.0
 10
619.5165940622413
 20
386.7750089302601
 30
0.0
 10
619.1523314835943
 20
386.4979676907753
 30
0.0
 10
618.9920559489848
 20
386.3760695453984
 30
0.0
  0
SPLINE
  5
7F
330
1F
100
AcDbEntity
  8
0
  6
Continuous
 62
     7
370
    25
100
AcDbSpline
210
0.0
220
0.0
230
1.0
 70
    24
 71
     3
 72
     9
 73
     5
 74
     0
 42
0.000000001
 43
0.00000001
 40
0.0
 40
0.0
 40
0.0
 40
0.0
 40
0.5600000000054592
 40
1.0
 40
1.0
 40
1.0
 40
1.0
 10
681.8720937108765
 20
434.1997127675263
 30
0.0
 10
681.6672097155664
 20
434.0438874938404
 30
0.0
 10
681.3013454382307
 20
433.7656280765469
 30
0.0
 10
681.033853050834
 20
433.5621857607528
 30
0.0
 10
680.9161564003809
 20
433.4726711418045
 30
0.0
  0
ARC
  5
80
330
1F
100
AcDbEntity
  8
0
  6
Continuous
 62
     7
370
    25
100
AcDbCircle
 10
650.4320748299
 20
410.2878911565
 30
0.0
 40
38.29899805700021
100
AcDbArc
 50
37.2549368278
 51
217.2549368278
  0
ARC
  5
81
330
1F
100
AcDbEntity
  8
0
  6
Continuous
 62
     7
370
    25
100
AcDbCircle
 10
650.4320748299
 20
410.2878911565
 30
0.0
 40
39.50000000000038
100
AcDbArc
 50
37.2549368278
 51
217.2549368513
  0
ARC
  5
82
330
1F
100
AcDbEntity
  8
0
  6
Continuous
 62
     7
370
    25
100
AcDbCircle
 10
650.4320748299
 20
410.2878911565
 30
0.0
 40
38.29899805700021
100
AcDbArc
 50
217.2549368278
 51
37.2549368278
  0
ARC
  5
83
330
1F
100
AcDbEntity
  8
0
  6
Continuous
 62
     7
370
    25
100
AcDbCircle
 10
650.4320748299
 20
410.2878911565
 30
0.0
 40
39.50000000000038
100
AcDbArc
 50
217.2549368513
 51
37.2549368176
  0
SPLINE
  5
84
330
1F
100
AcDbEntity
  8
0
  6
Continuous
 62
     7
370
    25
100
AcDbSpline
210
0.0
220
0.0
230
1.0
 70
    24
 71
     3
 72
     9
 73
     5
 74
     0
 42
0.000000001
 43
0.00000001
 40
0.0
 40
0.0
 40
0.0
 40
0.0
 40
0.5599999999871428
 40
1.0
 40
1.0
 40
1.0
 40
1.0
 10
392.947993258904
 20
387.1031111706819
 30
0.0
 10
392.7931320088224
 20
386.9853308792501
 30
0.0
 10
392.5165940622415
 20
386.77500893026
 30
0.0
 10
392.1523314835944
 20
386.4979676907752
 30
0.0
 10
391.9920559489849
 20
386.3760695453983
 30
0.0
  0
SPLINE
  5
85
330
1F
100
AcDbEntity
  8
0
  6
Continuous
 62
     7
370
    25
100
AcDbSpline
210
0.0
220
0.0
230
1.0
 70
    24
 71
     3
 72
     9
 73
     5
 74
     0
 42
0.000000001
 43
0.00000001
 40
0.0
 40
0.0
 40
0.0
 40
0.0
 40
0.5600000000054579
 40
1.0
 40
1.0
 40
1.0
 40
1.0
 10
454.8720937108766
 20
434.1997127675263
 30
0.0
 10
454.6672097155666
 20
434.0438874938403
 30
0.0
 10
454.3013454382308
 20
433.7656280765468
 30
0.0
 10
454.0338530508342
 20
433.5621857607528
 30
0.0
 10
453.9161564003811
 20
433.4726711418044
 30
0.0
  0
ARC
  5
86
330
1F
100
AcDbEntity
  8
0
  6
Continuous
 62
     7
370
    25
100
AcDbCircle
 10
423.4320748299
 20
410.2878911565
 30
0.0
 40
38.29899805700025
100
AcDbArc
 50
37.2549368278
 51
217.2549368278
  0
ARC
  5
87
330
1F
100
AcDbEntity
  8
0
  6
Continuous
 62
     7
370
    25
100
AcDbCircle
 10
423.4320748299
 20
410.2878911565
 30
0.0
 40
39.50000000000042
100
AcDbArc
 50
37.2549368278
 51
217.2549368513
  0
ARC
  5
88
330
1F
100
AcDbEntity
  8
0
  6
Continuous
 62
     7
370
    25
100
AcDbCircle
 10
423.4320748299
 20
410.2878911565
 30
0.0
 40
38.29899805700025
100
AcDbArc
 50
217.2549368278
 51
37.2549368278
  0
ARC
  5
89
330
1F
100
AcDbEntity
  8
0
  6
Continuous
 62
     7
370
    25
100
AcDbCircle
 10
423.4320748299
 20
410.2878911565
 30
0.0
 40
39.50000000000042
100
AcDbArc
 50
217.2549368513
 51
37.2549368176
  0
CIRCLE
  5
8A
330
1F
100
AcDbEntity
  8
0
  6
Continuous
 62
     7
370
    25
100
AcDbCircle
 10
423.4320748299
 20
410.2878911565
 30
0.0
 40
57.00000000000024
  0
SPLINE
  5
8B
330
1F
100
AcDbEntity
  8
0
  6
Continuous
 62
     7
370
    25
100
AcDbSpline
210
0.0
220
0.0
230
1.0
 70
     8
 71
     3
 72
    35
 73
    31
 74
     0
 42
0.000000001
 43
0.00000001
 40
0.0
 40
0.0
 40
0.0
 40
0.0
 40
0.0282546077220518
 40
0.0583834426637932
 40
0.0903495399278263
 40
0.1258616479012815
 40
0.1640104750491873
 40
0.2048405213069449
 40
0.2374624815847434
 40
0.2716127104071182
 40
0.3071914351681349
 40
0.3440550017625766
 40
0.3820151215667327
 40
0.4208413631481723
 40
0.4602672732901842
 40
0.500000004480954
 40
0.5397327356717239
 40
0.5791586458137357
 40
0.6179848873951754
 40
0.6559450071993315
 40
0.6928085737937731
 40
0.7283872985547898
 40
0.7625375273771647
 40
0.795159487654963
 40
0.8359928376182009
 40
0.8741415922595377
 40
0.9096504660940499
 40
0.9416198397637139
 40
0.971747028370545
 40
1.0
 40
1.0
 40
1.0
 40
1.0
 10
467.4399357346904
 20
405.6422596294096
 30
0.0
 10
467.5438572944849
 20
406.9476182186025
 30
0.0
 10
467.75859389559
 20
409.6449244101286
 30
0.0
 10
467.6077973192918
 20
413.83610594939
 30
0.0
 10
467.0340441451851
 20
418.3264084204438
 30
0.0
 10
465.8935608978117
 20
423.0950376843218
 30
0.0
 10
464.0710935859453
 20
428.0878399208456
 30
0.0
 10
461.7038627573666
 20
432.6996380213791
 30
0.0
 10
458.9283247180635
 20
436.8488129898256
 30
0.0
 10
455.8887539335492
 20
440.4985776731565
 30
0.0
 10
452.326217109907
 20
443.9312181332831
 30
0.0
 10
448.2558617082195
 20
447.0451040412596
 30
0.0
 10
443.7181817519651
 20
449.7374633731091
 30
0.0
 10
438.7800855310236
 20
451.9124229733576
 30
0.0
 10
433.5333318671077
 20
453.4892670357408
 30
0.0
 10
428.0897887484434
 20
454.4102080193156
 30
0.0
 10
422.5739378844531
 20
454.6461809403629
 30
0.0
 10
417.1135859703029
 20
454.1996182927727
 30
0.0
 10
411.8302013077686
 20
453.1036757746825
 30
0.0
 10
406.8303736611543
 20
451.4181308107237
 30
0.0
 10
402.1995550408822
 20
449.2227727568294
 30
0.0
 10
397.9988053048057
 20
446.6096535426291
 30
0.0
 10
394.2641601273689
 20
443.6749993375321
 30
0.0
 10
390.683336124005
 20
440.1967094174602
 30
0.0
 10
387.4052789729616
 20
436.1806947487859
 30
0.0
 10
384.5804985756196
 20
431.6784635855596
 30
0.0
 10
382.4695126060186
 20
427.2530575697191
 30
0.0
 10
380.9708345590377
 20
422.9816023987402
 30
0.0
 10
379.948338714066
 20
418.9142656309366
 30
0.0
 10
379.5951425580398
 20
416.2317305993037
 30
0.0
 10
379.4242139251711
 20
414.9335226835153
 30
0.0
  0
SPLINE
  5
8C
330
1F
100
AcDbEntity
  8
0
  6
Continuous
 62
     7
370
    25
100
AcDbSpline
210
0.0
220
0.0
230
1.0
 70
     8
 71
     3
 72
    35
 73
    31
 74
     0
 42
0.000000001
 43
0.00000001
 40
0.0
 40
0.0
 40
0.0
 40
0.0
 40
0.0282546077224733
 40
0.0583834426636163
 40
0.0903495399278294
 40
0.1258616479030817
 40
0.1640104750499178
 40
0.2048405213069401
 40
0.2374624815847385
 40
0.2716127104071134
 40
0.3071914351681301
 40
0.344055001762572
 40
0.3820151215667281
 40
0.4208413631481679
 40
0.4602672732901799
 40
0.5000000044809496
 40
0.5397327356717195
 40
0.5791586458137316
 40
0.6179848873951713
 40
0.6559450071993274
 40
0.6928085737937694
 40
0.728387298554786
 40
0.762537527377161
 40
0.7951594876549595
 40
0.8359928376182573
 40
0.8741415922594707
 40
0.9096504660940457
 40
0.9416198397647842
 40
0.9717470283710176
 40
1.0
 40
1.0
 40
1.0
 40
1.0
 10
379.4242139251711
 20
414.9335226835153
 30
0.0
 10
379.3202923653717
 20
413.6281640943029
 30
0.0
 10
379.1055557642601
 20
410.930857902785
 30
0.0
 10
379.2563523405903
 20
406.7396763635247
 30
0.0
 10
379.8301055146819
 20
402.2493738924059
 30
0.0
 10
380.9705887620722
 20
397.4807446284851
 30
0.0
 10
382.7930560739907
 20
392.4879423919828
 30
0.0
 10
385.1602869025093
 20
387.8761442915143
 30
0.0
 10
387.9358249417994
 20
383.726969323099
 30
0.0
 10
390.9753957263119
 20
380.0772046397672
 30
0.0
 10
394.5379325499549
 20
376.644564179641
 30
0.0
 10
398.608287951642
 20
373.5306782716644
 30
0.0
 10
403.1459679078965
 20
370.8383189398149
 30
0.0
 10
408.0840641288381
 20
368.6633593395663
 30
0.0
 10
413.3308177927539
 20
367.0865152771831
 30
0.0
 10
418.7743609114182
 20
366.1655742936082
 30
0.0
 10
424.2902117754085
 20
365.9296013725611
 30
0.0
 10
429.7505636895586
 20
366.3761640201512
 30
0.0
 10
435.033948352093
 20
367.4721065382415
 30
0.0
 10
440.0337759987074
 20
369.1576515022004
 30
0.0
 10
444.6645946189794
 20
371.3530095560945
 30
0.0
 10
448.8653443550558
 20
373.9661287702949
 30
0.0
 10
452.5999895324929
 20
376.9007829753917
 30
0.0
 10
456.1808135358577
 20
380.3790728954664
 30
0.0
 10
459.4588706869042
 20
384.3950875641349
 30
0.0
 10
462.2836510842367
 20
388.8973187273671
 30
0.0
 10
464.3946370538629
 20
393.3227247432469
 30
0.0
 10
465.893315100852
 20
397.594179914251
 30
0.0
 10
466.9158109457966
 20
401.6615166820607
 30
0.0
 10
467.269007101822
 20
404.3440517136434
 30
0.0
 10
467.4399357346904
 20
405.6422596294096
 30
0.0
  0
SPLINE
  5
8D
330
1F
100
AcDbEntity
  8
0
  6
Continuous
 62
     7
370
    25
100
AcDbSpline
210
0.0
220
0.0
230
1.0
 70
    24
 71
     3
 72
    11
 73
     7
 74
     0
 42
0.000000001
 43
0.00000001
 40
0.0
 40
0.0
 40
0.0
 40
0.0
 40
0.27069966040723
 40
0.5623161110114114
 40
0.7892984430189863
 40
1.0
 40
1.0
 40
1.0
 40
1.0
 10
379.4242139251711
 20
414.9335226835153
 30
0.0
 10
379.9624683255169
 20
414.8767025709168
 30
0.0
 10
381.0805677006025
 20
414.7586718918407
 30
0.0
 10
382.3641894344771
 20
414.6231680642721
 30
0.0
 10
383.1338045234008
 20
414.5419246671314
 30
0.0
 10
383.2461957520218
 20
414.5300602359977
 30
0.0
 10
383.3003010263013
 20
414.5243486844065
 30
0.0
  0
ARC
  5
8E
330
1F
100
AcDbEntity
  8
0
  6
Continuous
 62
     7
370
    25
100
AcDbCircle
 10
423.4320748299
 20
410.2878911565
 30
0.0
 40
40.35476230894886
100
AcDbArc
 50
173.973964907
 51
353.973964907
  0
SPLINE
  5
8F
330
1F
100
AcDbEntity
  8
0
  6
Continuous
 62
     7
370
    25
100
AcDbSpline
210
0.0
220
0.0
230
1.0
 70
    24
 71
     3
 72
    11
 73
     7
 74
     0
 42
0.000000001
 43
0.00000001
 40
0.0
 40
0.0
 40
0.0
 40
0.0
 40
0.2706996603325122
 40
0.562316110912304
 40
0.7892984429590615
 40
0.9999999999999999
 40
0.9999999999999999
 40
0.9999999999999999
 40
0.9999999999999999
 10
463.5638486335603
 20
406.0514336285182
 30
0.0
 10
463.6481152694113
 20
406.0425381327557
 30
0.0
 10
463.8231597703657
 20
406.024059791942
 30
0.0
 10
464.8720634230181
 20
405.913333667622
 30
0.0
 10
466.1539485163283
 20
405.7780131662136
 30
0.0
 10
467.0220369202407
 20
405.686374564051
 30
0.0
 10
467.4399357346904
 20
405.6422596294096
 30
0.0
  0
ARC
  5
90
330
1F
100
AcDbEntity
  8
0
  6
Continuous
 62
     7
370
    25
100
AcDbCircle
 10
423.4320748299
 20
410.2878911565
 30
0.0
 40
40.35476230894886
100
AcDbArc
 50
353.973964907
 51
173.973964907
  0
CIRCLE
  5
91
330
1F
100
AcDbEntity
  8
0
  6
Continuous
 62
     7
370
    25
100
AcDbCircle
 10
423.4320748299
 20
410.2878911565
 30
0.0
 40
39.93812333100019
  0
CIRCLE
  5
92
330
1F
100
AcDbEntity
  8
0
  6
Continuous
 62
     7
370
    25
100
AcDbCircle
 10
650.4320748299
 20
410.2878911565
 30
0.0
 40
57.00000000000024
  0
SPLINE
  5
93
330
1F
100
AcDbEntity
  8
0
  6
Continuous
 62
     7
370
    25
100
AcDbSpline
210
0.0
220
0.0
230
1.0
 70
     8
 71
     3
 72
    35
 73
    31
 74
     0
 42
0.000000001
 43
0.00000001
 40
0.0
 40
0.0
 40
0.0
 40
0.0
 40
0.0282546077220518
 40
0.0583834426637932
 40
0.0903495399278263
 40
0.1258616479012815
 40
0.1640104750491872
 40
0.2048405213069448
 40
0.2374624815847433
 40
0.2716127104071181
 40
0.3071914351681347
 40
0.3440550017625766
 40
0.3820151215667327
 40
0.4208413631481722
 40
0.4602672732901841
 40
0.5000000044809539
 40
0.5397327356717236
 40
0.5791586458137356
 40
0.6179848873951753
 40
0.6559450071993314
 40
0.6928085737937731
 40
0.7283872985547897
 40
0.7625375273771646
 40
0.795159487654963
 40
0.8359928376182009
 40
0.8741415922595376
 40
0.9096504660940498
 40
0.9416198397637139
 40
0.971747028370545
 40
1.0
 40
1.0
 40
1.0
 40
1.0
 10
694.4399357346903
 20
405.6422596294098
 30
0.0
 10
694.5438572944847
 20
406.9476182186027
 30
0.0
 10
694.7585938955899
 20
409.6449244101287
 30
0.0
 10
694.6077973192916
 20
413.8361059493902
 30
0.0
 10
694.0340441451849
 20
418.326408420444
 30
0.0
 10
692.8935608978115
 20
423.0950376843219
 30
0.0
 10
691.071093585945
 20
428.0878399208457
 30
0.0
 10
688.7038627573664
 20
432.6996380213792
 30
0.0
 10
685.9283247180633
 20
436.8488129898257
 30
0.0
 10
682.8887539335491
 20
440.4985776731567
 30
0.0
 10
679.3262171099068
 20
443.9312181332832
 30
0.0
 10
675.2558617082194
 20
447.0451040412597
 30
0.0
 10
670.718181751965
 20
449.7374633731092
 30
0.0
 10
665.7800855310234
 20
451.9124229733578
 30
0.0
 10
660.5333318671074
 20
453.489267035741
 30
0.0
 10
655.0897887484434
 20
454.4102080193158
 30
0.0
 10
649.5739378844529
 20
454.6461809403631
 30
0.0
 10
644.1135859703028
 20
454.1996182927729
 30
0.0
 10
638.8302013077684
 20
453.1036757746826
 30
0.0
 10
633.8303736611541
 20
451.4181308107238
 30
0.0
 10
629.199555040882
 20
449.2227727568295
 30
0.0
 10
624.9988053048056
 20
446.6096535426292
 30
0.0
 10
621.2641601273689
 20
443.6749993375322
 30
0.0
 10
617.6833361240049
 20
440.1967094174603
 30
0.0
 10
614.4052789729615
 20
436.180694748786
 30
0.0
 10
611.5804985756195
 20
431.6784635855597
 30
0.0
 10
609.4695126060184
 20
427.2530575697193
 30
0.0
 10
607.9708345590377
 20
422.9816023987403
 30
0.0
 10
606.9483387140658
 20
418.9142656309368
 30
0.0
 10
606.5951425580396
 20
416.2317305993038
 30
0.0
 10
606.424213925171
 20
414.9335226835154
 30
0.0
  0
SPLINE
  5
94
330
1F
100
AcDbEntity
  8
0
  6
Continuous
 62
     7
370
    25
100
AcDbSpline
210
0.0
220
0.0
230
1.0
 70
     8
 71
     3
 72
    35
 73
    31
 74
     0
 42
0.000000001
 43
0.00000001
 40
0.0
 40
0.0
 40
0.0
 40
0.0
 40
0.0282546077224733
 40
0.0583834426636162
 40
0.0903495399278293
 40
0.1258616479030817
 40
0.1640104750499178
 40
0.20484052130694
 40
0.2374624815847385
 40
0.2716127104071134
 40
0.30719143516813
 40
0.3440550017625719
 40
0.382015121566728
 40
0.4208413631481677
 40
0.4602672732901798
 40
0.5000000044809497
 40
0.5397327356717195
 40
0.5791586458137316
 40
0.6179848873951712
 40
0.6559450071993274
 40
0.6928085737937694
 40
0.728387298554786
 40
0.7625375273771609
 40
0.7951594876549594
 40
0.8359928376182574
 40
0.874141592259471
 40
0.9096504660940457
 40
0.9416198397647842
 40
0.9717470283710177
 40
1.0
 40
1.0
 40
1.0
 40
1.0
 10
606.424213925171
 20
414.9335226835154
 30
0.0
 10
606.3202923653715
 20
413.628164094303
 30
0.0
 10
606.10555576426
 20
410.9308579027851
 30
0.0
 10
606.2563523405903
 20
406.7396763635248
 30
0.0
 10
606.8301055146819
 20
402.2493738924061
 30
0.0
 10
607.9705887620721
 20
397.4807446284852
 30
0.0
 10
609.7930560739907
 20
392.4879423919829
 30
0.0
 10
612.1602869025093
 20
387.8761442915144
 30
0.0
 10
614.9358249417992
 20
383.7269693230991
 30
0.0
 10
617.9753957263118
 20
380.0772046397674
 30
0.0
 10
621.5379325499546
 20
376.6445641796411
 30
0.0
 10
625.608287951642
 20
373.5306782716646
 30
0.0
 10
630.1459679078963
 20
370.8383189398151
 30
0.0
 10
635.0840641288379
 20
368.6633593395665
 30
0.0
 10
640.3308177927538
 20
367.0865152771833
 30
0.0
 10
645.7743609114181
 20
366.1655742936084
 30
0.0
 10
651.2902117754084
 20
365.9296013725612
 30
0.0
 10
656.7505636895585
 20
366.3761640201513
 30
0.0
 10
662.0339483520928
 20
367.4721065382416
 30
0.0
 10
667.0337759987073
 20
369.1576515022005
 30
0.0
 10
671.6645946189792
 20
371.3530095560947
 30
0.0
 10
675.8653443550558
 20
373.9661287702951
 30
0.0
 10
679.5999895324928
 20
376.9007829753918
 30
0.0
 10
683.1808135358576
 20
380.3790728954665
 30
0.0
 10
686.458870686904
 20
384.3950875641351
 30
0.0
 10
689.2836510842366
 20
388.8973187273673
 30
0.0
 10
691.3946370538627
 20
393.3227247432471
 30
0.0
 10
692.8933151008519
 20
397.5941799142511
 30
0.0
 10
693.9158109457966
 20
401.6615166820609
 30
0.0
 10
694.2690071018218
 20
404.3440517136436
 30
0.0
 10
694.4399357346903
 20
405.6422596294098
 30
0.0
  0
SPLINE
  5
95
330
1F
100
AcDbEntity
  8
0
  6
Continuous
 62
     7
370
    25
100
AcDbSpline
210
0.0
220
0.0
230
1.0
 70
    24
 71
     3
 72
    11
 73
     7
 74
     0
 42
0.000000001
 43
0.00000001
 40
0.0
 40
0.0
 40
0.0
 40
0.0
 40
0.2706996604072283
 40
0.5623161110114101
 40
0.7892984430189854
 40
1.0
 40
1.0
 40
1.0
 40
1.0
 10
606.424213925171
 20
414.9335226835154
 30
0.0
 10
606.9624683255169
 20
414.876702570917
 30
0.0
 10
608.0805677006024
 20
414.7586718918408
 30
0.0
 10
609.364189434477
 20
414.6231680642722
 30
0.0
 10
610.1338045234006
 20
414.5419246671315
 30
0.0
 10
610.2461957520217
 20
414.5300602359978
 30
0.0
 10
610.3003010263012
 20
414.5243486844066
 30
0.0
  0
ARC
  5
96
330
1F
100
AcDbEntity
  8
0
  6
Continuous
 62
     7
370
    25
100
AcDbCircle
 10
650.4320748299
 20
410.2878911565
 30
0.0
 40
40.35476230894881
100
AcDbArc
 50
173.973964907
 51
353.973964907
  0
SPLINE
  5
97
330
1F
100
AcDbEntity
  8
0
  6
Continuous
 62
     7
370
    25
100
AcDbSpline
210
0.0
220
0.0
230
1.0
 70
    24
 71
     3
 72
    11
 73
     7
 74
     0
 42
0.000000001
 43
0.00000001
 40
0.0
 40
0.0
 40
0.0
 40
0.0
 40
0.2706996603325128
 40
0.5623161109123053
 40
0.7892984429590612
 40
1.0
 40
1.0
 40
1.0
 40
1.0
 10
690.5638486335603
 20
406.0514336285183
 30
0.0
 10
690.6481152694112
 20
406.0425381327558
 30
0.0
 10
690.8231597703656
 20
406.0240597919421
 30
0.0
 10
691.8720634230178
 20
405.9133336676222
 30
0.0
 10
693.1539485163281
 20
405.7780131662137
 30
0.0
 10
694.0220369202406
 20
405.6863745640512
 30
0.0
 10
694.4399357346903
 20
405.6422596294098
 30
0.0
  0
ARC
  5
98
330
1F
100
AcDbEntity
  8
0
  6
Continuous
 62
     7
370
    25
100
AcDbCircle
 10
650.4320748299
 20
410.2878911565
 30
0.0
 40
40.35476230894881
100
AcDbArc
 50
353.973964907
 51
173.973964907
  0
CIRCLE
  5
99
330
1F
100
AcDbEntity
  8
0
  6
Continuous
 62
     7
370
    25
100
AcDbCircle
 10
650.4320748299
 20
410.2878911565
 30
0.0
 40
39.93812333100013
  0
ARC
  5
9A
330
1F
100
AcDbEntity
  8
0
  6
Continuous
 62
     7
370
    25
100
AcDbCircle
 10
532.7338203913
 20
558.2903562765
 30
0.0
 40
0.3001590579254366
100
AcDbArc
 50
176.8260312648
 51
213.2491379245
  0
ARC
  5
9B
330
1F
100
AcDbEntity
  8
0
  6
Continuous
 62
     7
370
    25
100
AcDbCircle
 10
496.2200105147
 20
212.8663755596
 30
0.0
 40
0.2999256587933402
100
AcDbArc
 50
103.8909360189
 51
182.3783468899
  0
CIRCLE
  5
9C
330
1F
100
AcDbEntity
  8
0
  6
Continuous
 62
     7
370
    25
100
AcDbCircle
 10
560.2070748299
 20
616.7878911565
 30
0.0
 40
1.0
  0
CIRCLE
  5
9D
330
1F
100
AcDbEntity
  8
0
  6
Continuous
 62
     7
370
    25
100
AcDbCircle
 10
560.2070748299
 20
616.7878911565
 30
0.0
 40
17.37026209902422
  0
CIRCLE
  5
9E
330
1F
100
AcDbEntity
  8
0
  6
Continuous
 62
     7
370
    25
100
AcDbCircle
 10
560.2070748299
 20
616.7878911565
 30
0.0
 40
15.37026209902422
  0
SPLINE
  5
9F
330
1F
100
AcDbEntity
  8
0
  6
Continuous
 62
     7
370
    25
100
AcDbSpline
210
0.0
220
0.0
230
1.0
 70
     8
 71
     3
 72
     9
 73
     5
 74
     0
 42
0.000000001
 43
0.00000001
 40
0.0
 40
0.0
 40
0.0
 40
0.0
 40
0.5594190832925947
 40
1.0
 40
1.0
 40
1.0
 40
1.0
 10
554.6135251504435
 20
622.945954104269
 30
0.0
 10
554.6806434167045
 20
622.838827818704
 30
0.0
 10
554.8006219234546
 20
622.6473322320064
 30
0.0
 10
554.8157807539009
 20
622.4229275102449
 30
0.0
 10
554.8224594453153
 20
622.3240590722177
 30
0.0
  0
SPLINE
  5
A0
330
1F
100
AcDbEntity
  8
0
  6
Continuous
 62
     7
370
    25
100
AcDbSpline
210
0.0
220
0.0
230
1.0
 70
     8
 71
     3
 72
    11
 73
     7
 74
     0
 42
0.000000001
 43
0.00000001
 40
0.0
 40
0.0
 40
0.0
 40
0.0
 40
0.2793039999354366
 40
0.5588382577771595
 40
0.7792769515121006
 40
1.0
 40
1.0
 40
1.0
 40
1.0
 10
554.8224594453153
 20
622.3240590722177
 30
0.0
 10
554.7973501852985
 20
622.1522892285305
 30
0.0
 10
554.7471109652188
 20
621.8086079342884
 30
0.0
 10
554.4185691226197
 20
621.4310702594539
 30
0.0
 10
554.0182413077264
 20
621.2259716796315
 30
0.0
 10
553.7472200693456
 20
621.2050296331246
 30
0.0
 10
553.6116221055717
 20
621.1945518606793
 30
0.0
  0
SPLINE
  5
A1
330
1F
100
AcDbEntity
  8
0
  6
Continuous
 62
     7
370
    25
100
AcDbSpline
210
0.0
220
0.0
230
1.0
 70
     8
 71
     3
 72
    11
 73
     7
 74
     0
 42
0.000000001
 43
0.00000001
 40
0.0
 40
0.0
 40
0.0
 40
0.0
 40
0.2798859005846822
 40
0.5589785364560428
 40
0.7792628697075733
 40
1.0
 40
1.0
 40
1.0
 40
1.0
 10
553.6116221055717
 20
621.1945518606793
 30
0.0
 10
553.4510254283534
 20
621.2086116754372
 30
0.0
 10
553.130287243959
 20
621.2366914560182
 30
0.0
 10
552.7514139239155
 20
621.5054094481554
 30
0.0
 10
552.5313837933352
 20
621.8589998203221
 30
0.0
 10
552.4733173481383
 20
622.1039848598248
 30
0.0
 10
552.4442543171102
 20
622.2266031427306
 30
0.0
  0
LINE
  5
A2
330
1F
100
AcDbEntity
  8
0
  6
Continuous
 62
     7
370
    25
100
AcDbLine
 10
552.4442543171
 20
622.2266031427
 30
0.0
 11
552.7583568812
 21
622.2266031427
 31
0.0
  0
SPLINE
  5
A3
330
1F
100
AcDbEntity
  8
0
  6
Continuous
 62
     7
370
    25
100
AcDbSpline
210
0.0
220
0.0
230
1.0
 70
     8
 71
     3
 72
     9
 73
     5
 74
     0
 42
0.000000001
 43
0.00000001
 40
0.0
 40
0.0
 40
0.0
 40
0.0
 40
0.5606944343828807
 40
1.0
 40
1.0
 40
1.0
 40
1.0
 10
552.7583568812126
 20
622.2266031427306
 30
0.0
 10
552.7903983010312
 20
622.1248461156537
 30
0.0
 10
552.8475442576411
 20
621.9433621899415
 30
0.0
 10
552.9760445912636
 20
621.8040359131154
 30
0.0
 10
553.0324955030076
 20
621.742829104269
 30
0.0
  0
SPLINE
  5
A4
330
1F
100
AcDbEntity
  8
0
  6
Continuous
 62
     7
370
    25
100
AcDbSpline
210
0.0
220
0.0
230
1.0
 70
     8
 71
     3
 72
     9
 73
     5
 74
     0
 42
0.000000001
 43
0.00000001
 40
0.0
 40
0.0
 40
0.0
 40
0.0
 40
0.5587479503296382
 40
1.0
 40
1.0
 40
1.0
 40
1.0
 10
553.0324955030076
 20
621.742829104269
 30
0.0
 10
553.1330750497089
 20
621.6799222267421
 30
0.0
 10
553.3130838473107
 20
621.5673367980351
 30
0.0
 10
553.5241137172696
 20
621.5577544502531
 30
0.0
 10
553.6172310799307
 20
621.5535262196537
 30
0.0
  0
SPLINE
  5
A5
330
1F
100
AcDbEntity
  8
0
  6
Continuous
 62
     7
370
    25
100
AcDbSpline
210
0.0
220
0.0
230
1.0
 70
     8
 71
     3
 72
    11
 73
     7
 74
     0
 42
0.000000001
 43
0.00000001
 40
0.0
 40
0.0
 40
0.0
 40
0.0
 40
0.2805990659720843
 40
0.5601509464763262
 40
0.78030257727682
 40
1.0
 40
1.0
 40
1.0
 40
1.0
 10
553.6172310799307
 20
621.5535262196537
 30
0.0
 10
553.7385996926433
 20
621.5616391291052
 30
0.0
 10
553.9808839748381
 20
621.5778346709264
 30
0.0
 10
554.2741518178774
 20
621.7594429641633
 30
0.0
 10
554.473154286205
 20
622.0087895752739
 30
0.0
 10
554.4966307638352
 20
622.1989358663442
 30
0.0
 10
554.5083568812126
 20
622.2939108350382
 30
0.0
  0
SPLINE
  5
A6
330
1F
100
AcDbEntity
  8
0
  6
Continuous
 62
     7
370
    25
100
AcDbSpline
210
0.0
220
0.0
230
1.0
 70
     8
 71
     3
 72
    11
 73
     7
 74
     0
 42
0.000000001
 43
0.00000001
 40
0.0
 40
0.0
 40
0.0
 40
0.0
 40
0.1255870223112599
 40
0.2511906762363286
 40
0.5006049654665252
 40
1.0
 40
1.0
 40
1.0
 40
1.0
 10
554.5083568812126
 20
622.2939108350382
 30
0.0
 10
554.5032662906651
 20
622.354941093922
 30
0.0
 10
554.493084435418
 20
622.4770096939872
 30
0.0
 10
554.384007691923
 20
622.6977225192105
 30
0.0
 10
554.0584231471321
 20
622.9992741075218
 30
0.0
 10
553.6822864490825
 20
623.0202837346079
 30
0.0
 10
553.4314338042896
 20
623.0342954504229
 30
0.0
  0
LINE
  5
A7
330
1F
100
AcDbEntity
  8
0
  6
Continuous
 62
     7
370
    25
100
AcDbLine
 10
552.8929722658
 20
623.9766031427
 30
0.0
 11
552.5788697017
 21
623.9766031427
 31
0.0
  0
LINE
  5
A8
330
1F
100
AcDbEntity
  8
0
  6
Continuous
 62
     7
370
    25
100
AcDbLine
 10
553.4314338043
 20
623.0342954504
 30
0.0
 11
553.4314338043
 21
623.3932698094
 31
0.0
  0
SPLINE
  5
A9
330
1F
100
AcDbEntity
  8
0
  6
Continuous
 62
     7
370
    25
100
AcDbSpline
210
0.0
220
0.0
230
1.0
 70
     8
 71
     3
 72
    11
 73
     7
 74
     0
 42
0.000000001
 43
0.00000001
 40
0.0
 40
0.0
 40
0.0
 40
0.0
 40
0.4994184848717906
 40
0.7490159550700237
 40
0.8745437054092647
 40
1.0
 40
1.0
 40
1.0
 40
1.0
 10
553.4314338042896
 20
623.3932698093972
 30
0.0
 10
553.6291546978658
 20
623.411554214301
 30
0.0
 10
553.9256917873515
 20
623.4389767295194
 30
0.0
 10
554.2155815259564
 20
623.6443316499098
 30
0.0
 10
554.3147780986192
 20
623.8185066823609
 30
0.0
 10
554.3241733923107
 20
623.9169024424934
 30
0.0
 10
554.3288697017256
 20
623.9660863158074
 30
0.0
  0
SPLINE
  5
AA
330
1F
100
AcDbEntity
  8
0
  6
Continuous
 62
     7
370
    25
100
AcDbSpline
210
0.0
220
0.0
230
1.0
 70
     8
 71
     3
 72
    10
 73
     6
 74
     0
 42
0.000000001
 43
0.00000001
 40
0.0
 40
0.0
 40
0.0
 40
0.0
 40
0.2788589916259467
 40
0.5600742373462625
 40
1.0
 40
1.0
 40
1.0
 40
1.0
 10
554.3288697017256
 20
623.9660863158074
 30
0.0
 10
554.3111353698071
 20
624.0576966793317
 30
0.0
 10
554.2755168575037
 20
624.2416914796594
 30
0.0
 10
554.0075821211102
 20
624.4683585983391
 30
0.0
 10
553.7699244205525
 20
624.4973678444275
 30
0.0
 10
553.6249434196743
 20
624.5150646811921
 30
0.0
  0
SPLINE
  5
AB
330
1F
100
AcDbEntity
  8
0
  6
Continuous
 62
     7
370
    25
100
AcDbSpline
210
0.0
220
0.0
230
1.0
 70
     8
 71
     3
 72
    10
 73
     6
 74
     0
 42
0.000000001
 43
0.00000001
 40
0.0
 40
0.0
 40
0.0
 40
0.0
 40
0.28063596314822
 40
0.5603644085668301
 40
1.0
 40
1.0
 40
1.0
 40
1.0
 10
553.6249434196743
 20
624.5150646811921
 30
0.0
 10
553.5339261173543
 20
624.5078302058199
 30
0.0
 10
553.352185843543
 20
624.4933846498484
 30
0.0
 10
553.0628492237026
 20
624.3183600008177
 30
0.0
 10
552.9574105581479
 20
624.1062394901156
 30
0.0
 10
552.8929722658281
 20
623.9766031427305
 30
0.0
  0
SPLINE
  5
AC
330
1F
100
AcDbEntity
  8
0
  6
Continuous
 62
     7
370
    25
100
AcDbSpline
210
0.0
220
0.0
230
1.0
 70
     8
 71
     3
 72
    10
 73
     6
 74
     0
 42
0.000000001
 43
0.00000001
 40
0.0
 40
0.0
 40
0.0
 40
0.0
 40
0.2805082111731817
 40
0.560792316724904
 40
1.0
 40
1.0
 40
1.0
 40
1.0
 10
554.642972265828
 20
623.9646840722178
 30
0.0
 10
554.6372805462865
 20
623.8838168062673
 30
0.0
 10
554.6259016544728
 20
623.7221468814191
 30
0.0
 10
554.4998016521132
 20
623.4535401247416
 30
0.0
 10
554.3348882514482
 20
623.3238190952708
 30
0.0
 10
554.2342182594178
 20
623.2446319888845
 30
0.0
  0
SPLINE
  5
AD
330
1F
100
AcDbEntity
  8
0
  6
Continuous
 62
     7
370
    25
100
AcDbSpline
210
0.0
220
0.0
230
1.0
 70
     8
 71
     3
 72
     9
 73
     5
 74
     0
 42
0.000000001
 43
0.00000001
 40
0.0
 40
0.0
 40
0.0
 40
0.0
 40
0.559794511354832
 40
0.9999999999999999
 40
0.9999999999999999
 40
0.9999999999999999
 40
0.9999999999999999
 10
554.2342182594178
 20
623.2446319888845
 30
0.0
 10
554.3157229107748
 20
623.2020909188184
 30
0.0
 10
554.4613203571657
 20
623.1260968366987
 30
0.0
 10
554.5670030493077
 20
623.0010155661092
 30
0.0
 10
554.6135251504435
 20
622.945954104269
 30
0.0
  0
SPLINE
  5
AE
330
1F
100
AcDbEntity
  8
0
  6
Continuous
 62
     7
370
    25
100
AcDbSpline
210
0.0
220
0.0
230
1.0
 70
     8
 71
     3
 72
    11
 73
     7
 74
     0
 42
0.000000001
 43
0.00000001
 40
0.0
 40
0.0
 40
0.0
 40
0.0
 40
0.2802877402650423
 40
0.5596796791475022
 40
0.7797465447966496
 40
1.0
 40
1.0
 40
1.0
 40
1.0
 10
552.5788697017256
 20
623.9766031427305
 30
0.0
 10
552.6191977780152
 20
624.1112063946831
 30
0.0
 10
552.6997250418086
 20
624.3799827057475
 30
0.0
 10
552.9671852989403
 20
624.6774998161604
 30
0.0
 10
553.2907778539915
 20
624.8483431755906
 30
0.0
 10
553.5107193432294
 20
624.8654713325728
 30
0.0
 10
553.620736688905
 20
624.8740390401665
 30
0.0
  0
SPLINE
  5
AF
330
1F
100
AcDbEntity
  8
0
  6
Continuous
 62
     7
370
    25
100
AcDbSpline
210
0.0
220
0.0
230
1.0
 70
     8
 71
     3
 72
    11
 73
     7
 74
     0
 42
0.000000001
 43
0.00000001
 40
0.0
 40
0.0
 40
0.0
 40
0.0
 40
0.2800849611447597
 40
0.5598683320862198
 40
0.7800991540777257
 40
1.0
 40
1.0
 40
1.0
 40
1.0
 10
553.620736688905
 20
624.8740390401665
 30
0.0
 10
553.7624451093918
 20
624.8588248169606
 30
0.0
 10
554.0457093614112
 20
624.8284127529371
 30
0.0
 10
554.3846994849881
 20
624.6035426427658
 30
0.0
 10
554.5999665363445
 20
624.2982961125139
 30
0.0
 10
554.6286441894156
 20
624.075832490414
 30
0.0
 10
554.642972265828
 20
623.9646840722178
 30
0.0
  0
LINE
  5
B0
330
1F
100
AcDbEntity
  8
0
  6
Continuous
 62
     7
370
    25
100
AcDbLine
 10
565.8809734279
 20
605.9524100527
 30
0.0
 11
566.8955968254
 21
606.5243251168
 31
0.0
  0
LINE
  5
B1
330
1F
100
AcDbEntity
  8
0
  6
Continuous
 62
     7
370
    25
100
AcDbLine
 10
566.0001641331
 20
605.7405711104
 30
0.0
 11
566.4784293574
 21
604.8917129373
 31
0.0
  0
LINE
  5
B2
330
1F
100
AcDbEntity
  8
0
  6
Continuous
 62
     7
370
    25
100
AcDbLine
 10
566.4784293574
 20
604.8917129373
 30
0.0
 11
567.4930527549
 21
605.4636280014
 31
0.0
  0
LINE
  5
B3
330
1F
100
AcDbEntity
  8
0
  6
Continuous
 62
     7
370
    25
100
AcDbLine
 10
567.4930527549
 20
605.4636280014
 30
0.0
 11
567.6132450626
 21
605.2502866553
 31
0.0
  0
LINE
  5
B4
330
1F
100
AcDbEntity
  8
0
  6
Continuous
 62
     7
370
    25
100
AcDbLine
 10
567.6132450626
 20
605.2502866553
 30
0.0
 11
566.3822755113
 21
604.5566768796
 31
0.0
  0
LINE
  5
B5
330
1F
100
AcDbEntity
  8
0
  6
Continuous
 62
     7
370
    25
100
AcDbLine
 10
566.3822755113
 20
604.5566768796
 30
0.0
 11
565.1628243895
 21
606.7206392194
 31
0.0
  0
LINE
  5
B6
330
1F
100
AcDbEntity
  8
0
  6
Continuous
 62
     7
370
    25
100
AcDbLine
 10
565.1628243895
 20
606.7206392194
 30
0.0
 11
566.4028083638
 21
607.4192570079
 31
0.0
  0
LINE
  5
B7
330
1F
100
AcDbEntity
  8
0
  6
Continuous
 62
     7
370
    25
100
AcDbLine
 10
566.4028083638
 20
607.4192570079
 30
0.0
 11
566.5230006715
 21
607.2059156617
 31
0.0
  0
LINE
  5
B8
330
1F
100
AcDbEntity
  8
0
  6
Continuous
 62
     7
370
    25
100
AcDbLine
 10
566.5230006715
 20
607.2059156617
 30
0.0
 11
565.499362851
 21
606.6289925848
 31
0.0
  0
LINE
  5
B9
330
1F
100
AcDbEntity
  8
0
  6
Continuous
 62
     7
370
    25
100
AcDbLine
 10
565.499362851
 20
606.6289925848
 30
0.0
 11
565.8809734279
 21
605.9524100527
 31
0.0
  0
LINE
  5
BA
330
1F
100
AcDbEntity
  8
0
  6
Continuous
 62
     7
370
    25
100
AcDbLine
 10
566.8955968254
 20
606.5243251168
 30
0.0
 11
567.0147875305
 21
606.3124861745
 31
0.0
  0
LINE
  5
BB
330
1F
100
AcDbEntity
  8
0
  6
Continuous
 62
     7
370
    25
100
AcDbLine
 10
567.0147875305
 20
606.3124861745
 30
0.0
 11
566.0001641331
 21
605.7405711104
 31
0.0
  0
LINE
  5
BC
330
1F
100
AcDbEntity
  8
0
  6
Continuous
 62
     7
370
    25
100
AcDbLine
 10
555.0579281145
 20
606.5200707736
 30
0.0
 11
554.5806644927
 21
606.7980154851
 31
0.0
  0
LINE
  5
BD
330
1F
100
AcDbEntity
  8
0
  6
Continuous
 62
     7
370
    25
100
AcDbLine
 10
554.5806644927
 20
606.7980154851
 30
0.0
 11
553.455364012
 21
604.8649225364
 31
0.0
  0
LINE
  5
BE
330
1F
100
AcDbEntity
  8
0
  6
Continuous
 62
     7
370
    25
100
AcDbLine
 10
553.455364012
 20
604.8649225364
 30
0.0
 11
553.237014653
 21
604.9921260621
 31
0.0
  0
LINE
  5
BF
330
1F
100
AcDbEntity
  8
0
  6
Continuous
 62
     7
370
    25
100
AcDbLine
 10
553.237014653
 20
604.9921260621
 30
0.0
 11
554.3623151338
 21
606.9252190108
 31
0.0
  0
LINE
  5
C0
330
1F
100
AcDbEntity
  8
0
  6
Continuous
 62
     7
370
    25
100
AcDbLine
 10
554.3623151338
 20
606.9252190108
 30
0.0
 11
553.8835491081
 21
607.2036645236
 31
0.0
  0
LINE
  5
C1
330
1F
100
AcDbEntity
  8
0
  6
Continuous
 62
     7
370
    25
100
AcDbLine
 10
553.8835491081
 20
607.2036645236
 30
0.0
 11
554.0042422171
 21
607.4114970557
 31
0.0
  0
LINE
  5
C2
330
1F
100
AcDbEntity
  8
0
  6
Continuous
 62
     7
370
    25
100
AcDbLine
 10
554.0042422171
 20
607.4114970557
 30
0.0
 11
555.1786212235
 21
606.7279033057
 31
0.0
  0
LINE
  5
C3
330
1F
100
AcDbEntity
  8
0
  6
Continuous
 62
     7
370
    25
100
AcDbLine
 10
555.1786212235
 20
606.7279033057
 30
0.0
 11
555.0579281145
 21
606.5200707736
 31
0.0
  0
LINE
  5
C4
330
1F
100
AcDbEntity
  8
0
  6
Continuous
 62
     7
370
    25
100
AcDbLine
 10
555.8968299867
 20
605.9021662168
 30
0.0
 11
555.171168929
 21
605.2245820822
 31
0.0
  0
LINE
  5
C5
330
1F
100
AcDbEntity
  8
0
  6
Continuous
 62
     7
370
    25
100
AcDbLine
 10
555.171168929
 20
605.2245820822
 30
0.0
 11
555.9584285444
 21
604.9125828834
 31
0.0
  0
LINE
  5
C6
330
1F
100
AcDbEntity
  8
0
  6
Continuous
 62
     7
370
    25
100
AcDbLine
 10
556.1186849547
 20
606.3794298386
 30
0.0
 11
556.2804437688
 21
603.6520660565
 31
0.0
  0
LINE
  5
C7
330
1F
100
AcDbEntity
  8
0
  6
Continuous
 62
     7
370
    25
100
AcDbLine
 10
556.2804437688
 20
603.6520660565
 30
0.0
 11
556.0335487367
 21
603.7497223065
 31
0.0
  0
LINE
  5
C8
330
1F
100
AcDbEntity
  8
0
  6
Continuous
 62
     7
370
    25
100
AcDbLine
 10
556.0335487367
 20
603.7497223065
 30
0.0
 11
555.971950179
 21
604.6506638129
 31
0.0
  0
LINE
  5
C9
330
1F
100
AcDbEntity
  8
0
  6
Continuous
 62
     7
370
    25
100
AcDbLine
 10
555.971950179
 20
604.6506638129
 30
0.0
 11
554.979362038
 21
605.0437928193
 31
0.0
  0
LINE
  5
CA
330
1F
100
AcDbEntity
  8
0
  6
Continuous
 62
     7
370
    25
100
AcDbLine
 10
554.979362038
 20
605.0437928193
 30
0.0
 11
554.3198067495
 21
604.4283080437
 31
0.0
  0
LINE
  5
CB
330
1F
100
AcDbEntity
  8
0
  6
Continuous
 62
     7
370
    25
100
AcDbLine
 10
554.3198067495
 20
604.4283080437
 30
0.0
 11
554.0628956919
 21
604.529970704
 31
0.0
  0
LINE
  5
CC
330
1F
100
AcDbEntity
  8
0
  6
Continuous
 62
     7
370
    25
100
AcDbLine
 10
554.0628956919
 20
604.529970704
 30
0.0
 11
556.0620944098
 21
606.401465095
 31
0.0
  0
LINE
  5
CD
330
1F
100
AcDbEntity
  8
0
  6
Continuous
 62
     7
370
    25
100
AcDbLine
 10
556.0620944098
 20
606.401465095
 30
0.0
 11
556.1186849547
 21
606.3794298386
 31
0.0
  0
LINE
  5
CE
330
1F
100
AcDbEntity
  8
0
  6
Continuous
 62
     7
370
    25
100
AcDbLine
 10
555.9584285444
 20
604.9125828834
 30
0.0
 11
555.8968299867
 21
605.9021662168
 31
0.0
  0
SPLINE
  5
CF
330
1F
100
AcDbEntity
  8
0
  6
Continuous
 62
     7
370
    25
100
AcDbSpline
210
0.0
220
0.0
230
1.0
 70
     8
 71
     3
 72
     9
 73
     5
 74
     0
 42
0.000000001
 43
0.00000001
 40
0.0
 40
0.0
 40
0.0
 40
0.0
 40
0.560148165252198
 40
1.0
 40
1.0
 40
1.0
 40
1.0
 10
559.7134850863409
 20
623.3974765401664
 30
0.0
 10
559.7701828008812
 20
623.4742755585676
 30
0.0
 10
559.8714019390619
 20
623.611380387549
 30
0.0
 10
560.0081179335369
 20
623.7126211054263
 30
0.0
 10
560.0682527145461
 20
623.7571520209358
 30
0.0
  0
SPLINE
  5
D0
330
1F
100
AcDbEntity
  8
0
  6
Continuous
 62
     7
370
    25
100
AcDbSpline
210
0.0
220
0.0
230
1.0
 70
     8
 71
     3
 72
     9
 73
     5
 74
     0
 42
0.000000001
 43
0.00000001
 40
0.0
 40
0.0
 40
0.0
 40
0.0
 40
0.5597432622766948
 40
1.0
 40
1.0
 40
1.0
 40
1.0
 10
560.0682527145461
 20
623.7571520209358
 30
0.0
 10
560.1626222763572
 20
623.7987178496853
 30
0.0
 10
560.3312166448313
 20
623.8729765885589
 30
0.0
 10
560.5147114708136
 20
623.8826158174994
 30
0.0
 10
560.5954963042897
 20
623.886859552987
 30
0.0
  0
SPLINE
  5
D1
330
1F
100
AcDbEntity
  8
0
  6
Continuous
 62
     7
370
    25
100
AcDbSpline
210
0.0
220
0.0
230
1.0
 70
     8
 71
     3
 72
    10
 73
     6
 74
     0
 42
0.000000001
 43
0.00000001
 40
0.0
 40
0.0
 40
0.0
 40
0.0
 40
0.2808091187319809
 40
0.5615074020671137
 40
1.0
 40
1.0
 40
1.0
 40
1.0
 10
560.5954963042897
 20
623.886859552987
 30
0.0
 10
560.6976828233948
 20
623.8763611282448
 30
0.0
 10
560.9020155285721
 20
623.8553684224901
 30
0.0
 10
561.2361929737611
 20
623.6679785213483
 30
0.0
 10
561.3438561701987
 20
623.4202263880028
 30
0.0
 10
561.4094987081357
 20
623.2691712517048
 30
0.0
  0
LINE
  5
D2
330
1F
100
AcDbEntity
  8
0
  6
Continuous
 62
     7
370
    25
100
AcDbLine
 10
559.7134850863
 20
621.2842954504
 30
0.0
 11
559.3993825222
 21
621.2842954504
 31
0.0
  0
LINE
  5
D3
330
1F
100
AcDbEntity
  8
0
  6
Continuous
 62
     7
370
    25
100
AcDbLine
 10
559.3993825222
 20
621.2842954504
 30
0.0
 11
559.3993825222
 21
623.8419877581
 31
0.0
  0
LINE
  5
D4
330
1F
100
AcDbEntity
  8
0
  6
Continuous
 62
     7
370
    25
100
AcDbLine
 10
559.3993825222
 20
623.8419877581
 30
0.0
 11
559.7134850863
 21
623.8419877581
 31
0.0
  0
LINE
  5
D5
330
1F
100
AcDbEntity
  8
0
  6
Continuous
 62
     7
370
    25
100
AcDbLine
 10
559.7134850863
 20
623.8419877581
 30
0.0
 11
559.7134850863
 21
623.3974765402
 31
0.0
  0
SPLINE
  5
D6
330
1F
100
AcDbEntity
  8
0
  6
Continuous
 62
     7
370
    25
100
AcDbSpline
210
0.0
220
0.0
230
1.0
 70
     8
 71
     3
 72
    10
 73
     6
 74
     0
 42
0.000000001
 43
0.00000001
 40
0.0
 40
0.0
 40
0.0
 40
0.0
 40
0.2812634147174308
 40
0.5620938163030653
 40
1.0
 40
1.0
 40
1.0
 40
1.0
 10
561.4094987081357
 20
623.2691712517048
 30
0.0
 10
561.4675846248572
 20
623.3627756344268
 30
0.0
 10
561.5836670333572
 20
623.5498402932261
 30
0.0
 10
561.8910950635261
 20
623.8127152689523
 30
0.0
 10
562.1747665397919
 20
623.8587884481175
 30
0.0
 10
562.3475996696743
 20
623.886859552987
 30
0.0
  0
SPLINE
  5
D7
330
1F
100
AcDbEntity
  8
0
  6
Continuous
 62
     7
370
    25
100
AcDbSpline
210
0.0
220
0.0
230
1.0
 70
     8
 71
     3
 72
    11
 73
     7
 74
     0
 42
0.000000001
 43
0.00000001
 40
0.0
 40
0.0
 40
0.0
 40
0.0
 40
0.1868852632170371
 40
0.3735789994304817
 40
0.5602676092233677
 40
1.0
 40
1.0
 40
1.0
 40
1.0
 10
562.3475996696743
 20
623.886859552987
 30
0.0
 10
562.4537346219388
 20
623.8771789395137
 30
0.0
 10
562.6658957554016
 20
623.8578276336215
 30
0.0
 10
562.9419184843347
 20
623.6802717942054
 30
0.0
 10
563.205320580947
 20
623.2892642905744
 30
0.0
 10
563.2101176558141
 20
622.9252449144043
 30
0.0
 10
563.2134850863409
 20
622.6697121170896
 30
0.0
  0
LINE
  5
D8
330
1F
100
AcDbEntity
  8
0
  6
Continuous
 62
     7
370
    25
100
AcDbLine
 10
563.2134850863
 20
622.6697121171
 30
0.0
 11
563.2134850863
 21
621.2842954504
 31
0.0
  0
LINE
  5
D9
330
1F
100
AcDbEntity
  8
0
  6
Continuous
 62
     7
370
    25
100
AcDbLine
 10
563.2134850863
 20
621.2842954504
 30
0.0
 11
562.8993825222
 21
621.2842954504
 31
0.0
  0
LINE
  5
DA
330
1F
100
AcDbEntity
  8
0
  6
Continuous
 62
     7
370
    25
100
AcDbLine
 10
562.8993825222
 20
621.2842954504
 30
0.0
 11
562.8993825222
 21
622.6711143607
 31
0.0
  0
SPLINE
  5
DB
330
1F
100
AcDbEntity
  8
0
  6
Continuous
 62
     7
370
    25
100
AcDbSpline
210
0.0
220
0.0
230
1.0
 70
     8
 71
     3
 72
    11
 73
     7
 74
     0
 42
0.000000001
 43
0.00000001
 40
0.0
 40
0.0
 40
0.0
 40
0.0
 40
0.4994453881352772
 40
0.6249333480045054
 40
0.7505609926737437
 40
1.0
 40
1.0
 40
1.0
 40
1.0
 10
562.8993825222384
 20
622.6711143606793
 30
0.0
 10
562.9066076884968
 20
622.8890317743172
 30
0.0
 10
562.9156482111388
 20
623.1617019443266
 30
0.0
 10
562.7274905366315
 20
623.4173719220928
 30
0.0
 10
562.5564928076013
 20
623.5434218469082
 30
0.0
 10
562.3981911078129
 20
623.5610399954752
 30
0.0
 10
562.2929121696743
 20
623.5727569888845
 30
0.0
  0
SPLINE
  5
DC
330
1F
100
AcDbEntity
  8
0
  6
Continuous
 62
     7
370
    25
100
AcDbSpline
210
0.0
220
0.0
230
1.0
 70
     8
 71
     3
 72
    12
 73
     8
 74
     0
 42
0.000000001
 43
0.00000001
 40
0.0
 40
0.0
 40
0.0
 40
0.0
 40
0.1253168236461634
 40
0.2506621621102696
 40
0.37608637178503
 40
0.5015150308073465
 40
1.0
 40
1.0
 40
1.0
 40
1.0
 10
562.2929121696743
 20
623.5727569888845
 30
0.0
 10
562.220166572281
 20
623.567127903559
 30
0.0
 10
562.0746588248288
 20
623.555868452056
 30
0.0
 10
561.8748018644642
 20
623.4599035926501
 30
0.0
 10
561.7055122287745
 20
623.3207712194886
 30
0.0
 10
561.4587641127715
 20
622.9546231708944
 30
0.0
 10
561.4613883852494
 20
622.5791650582919
 30
0.0
 10
561.4634850863409
 20
622.279187277346
 30
0.0
  0
LINE
  5
DD
330
1F
100
AcDbEntity
  8
0
  6
Continuous
 62
     7
370
    25
100
AcDbLine
 10
561.4634850863
 20
622.2791872773
 30
0.0
 11
561.4634850863
 21
621.2842954504
 31
0.0
  0
LINE
  5
DE
330
1F
100
AcDbEntity
  8
0
  6
Continuous
 62
     7
370
    25
100
AcDbLine
 10
561.4634850863
 20
621.2842954504
 30
0.0
 11
561.1493825222
 21
621.2842954504
 31
0.0
  0
LINE
  5
DF
330
1F
100
AcDbEntity
  8
0
  6
Continuous
 62
     7
370
    25
100
AcDbLine
 10
561.1493825222
 20
621.2842954504
 30
0.0
 11
561.1493825222
 21
622.5848763799
 31
0.0
  0
SPLINE
  5
E0
330
1F
100
AcDbEntity
  8
0
  6
Continuous
 62
     7
370
    25
100
AcDbSpline
210
0.0
220
0.0
230
1.0
 70
     8
 71
     3
 72
    11
 73
     7
 74
     0
 42
0.000000001
 43
0.00000001
 40
0.0
 40
0.0
 40
0.0
 40
0.0
 40
0.500537276865843
 40
0.6258968119147624
 40
0.751367827346376
 40
1.0
 40
1.0
 40
1.0
 40
1.0
 10
561.1493825222383
 20
622.58487637991
 30
0.0
 10
561.1589471444512
 20
622.8146755400458
 30
0.0
 10
561.1709072258014
 20
623.1020278879272
 30
0.0
 10
560.9956468184273
 20
623.3906911581192
 30
0.0
 10
560.8209655516476
 20
623.5357428256967
 30
0.0
 10
560.6526636710128
 20
623.5579787822937
 30
0.0
 10
560.5408088042896
 20
623.5727569888845
 30
0.0
  0
SPLINE
  5
E1
330
1F
100
AcDbEntity
  8
0
  6
Continuous
 62
     7
370
    25
100
AcDbSpline
210
0.0
220
0.0
230
1.0
 70
     8
 71
     3
 72
    11
 73
     7
 74
     0
 42
0.000000001
 43
0.00000001
 40
0.0
 40
0.0
 40
0.0
 40
0.0
 40
0.1865439701482415
 40
0.3733497993475678
 40
0.560130263126273
 40
1.0
 40
1.0
 40
1.0
 40
1.0
 10
560.5408088042896
 20
623.5727569888845
 30
0.0
 10
560.4377213531848
 20
623.5597171511296
 30
0.0
 10
560.2314017430969
 20
623.5336191710908
 30
0.0
 10
559.971823367611
 20
623.3474940604693
 30
0.0
 10
559.7190637342278
 20
622.965155299539
 30
0.0
 10
559.7157859138189
 20
622.6098910009001
 30
0.0
 10
559.7134850863409
 20
622.3605174055511
 30
0.0
  0
LINE
  5
E2
330
1F
100
AcDbEntity
  8
0
  6
Continuous
 62
     7
370
    25
100
AcDbLine
 10
559.7134850863
 20
622.3605174056
 30
0.0
 11
559.7134850863
 21
621.2842954504
 31
0.0
  0
LINE
  5
E3
330
1F
100
AcDbEntity
  8
0
  6
Continuous
 62
     7
370
    25
100
AcDbLine
 10
564.2455363684
 20
623.8419877581
 30
0.0
 11
564.2455363684
 21
623.3974765402
 31
0.0
  0
SPLINE
  5
E4
330
1F
100
AcDbEntity
  8
0
  6
Continuous
 62
     7
370
    25
100
AcDbSpline
210
0.0
220
0.0
230
1.0
 70
     8
 71
     3
 72
     9
 73
     5
 74
     0
 42
0.000000001
 43
0.00000001
 40
0.0
 40
0.0
 40
0.0
 40
0.0
 40
0.5597432622766948
 40
1.0
 40
1.0
 40
1.0
 40
1.0
 10
564.6003039965973
 20
623.7571520209358
 30
0.0
 10
564.6946735584086
 20
623.7987178496853
 30
0.0
 10
564.8632679268826
 20
623.8729765885589
 30
0.0
 10
565.0467627528648
 20
623.8826158174994
 30
0.0
 10
565.1275475863408
 20
623.886859552987
 30
0.0
  0
SPLINE
  5
E5
330
1F
100
AcDbEntity
  8
0
  6
Continuous
 62
     7
370
    25
100
AcDbSpline
210
0.0
220
0.0
230
1.0
 70
     8
 71
     3
 72
    10
 73
     6
 74
     0
 42
0.000000001
 43
0.00000001
 40
0.0
 40
0.0
 40
0.0
 40
0.0
 40
0.2808091187319861
 40
0.5615074020671121
 40
1.0
 40
1.0
 40
1.0
 40
1.0
 10
565.1275475863408
 20
623.886859552987
 30
0.0
 10
565.2297341054459
 20
623.8763611282449
 30
0.0
 10
565.4340668106233
 20
623.8553684224902
 30
0.0
 10
565.7682442558124
 20
623.6679785213483
 30
0.0
 10
565.8759074522499
 20
623.4202263880028
 30
0.0
 10
565.9415499901871
 20
623.2691712517048
 30
0.0
  0
SPLINE
  5
E6
330
1F
100
AcDbEntity
  8
0
  6
Continuous
 62
     7
370
    25
100
AcDbSpline
210
0.0
220
0.0
230
1.0
 70
     8
 71
     3
 72
    11
 73
     7
 74
     0
 42
0.000000001
 43
0.00000001
 40
0.0
 40
0.0
 40
0.0
 40
0.0
 40
0.4994453881352775
 40
0.6249333480045058
 40
0.7505609926737487
 40
1.0
 40
1.0
 40
1.0
 40
1.0
 10
567.4314338042897
 20
622.6711143606793
 30
0.0
 10
567.4386589705482
 20
622.8890317743172
 30
0.0
 10
567.4476994931902
 20
623.1617019443266
 30
0.0
 10
567.2595418186828
 20
623.4173719220928
 30
0.0
 10
567.0885440896526
 20
623.5434218469082
 30
0.0
 10
566.9302423898641
 20
623.5610399954752
 30
0.0
 10
566.8249634517255
 20
623.5727569888845
 30
0.0
  0
SPLINE
  5
E7
330
1F
100
AcDbEntity
  8
0
  6
Continuous
 62
     7
370
    25
100
AcDbSpline
210
0.0
220
0.0
230
1.0
 70
     8
 71
     3
 72
    12
 73
     8
 74
     0
 42
0.000000001
 43
0.00000001
 40
0.0
 40
0.0
 40
0.0
 40
0.0
 40
0.1253168236461701
 40
0.25066216211027
 40
0.3760863717850278
 40
0.5015150308073446
 40
0.9999999999999999
 40
0.9999999999999999
 40
0.9999999999999999
 40
0.9999999999999999
 10
566.8249634517255
 20
623.5727569888845
 30
0.0
 10
566.7522178543322
 20
623.567127903559
 30
0.0
 10
566.6067101068801
 20
623.555868452056
 30
0.0
 10
566.4068531465153
 20
623.4599035926502
 30
0.0
 10
566.2375635108259
 20
623.3207712194886
 30
0.0
 10
565.9908153948229
 20
622.9546231708945
 30
0.0
 10
565.9934396673007
 20
622.5791650582919
 30
0.0
 10
565.9955363683922
 20
622.2791872773458
 30
0.0
  0
LINE
  5
E8
330
1F
100
AcDbEntity
  8
0
  6
Continuous
 62
     7
370
    25
100
AcDbLine
 10
565.9955363684
 20
622.2791872773
 30
0.0
 11
565.9955363684
 21
621.2842954504
 31
0.0
  0
LINE
  5
E9
330
1F
100
AcDbEntity
  8
0
  6
Continuous
 62
     7
370
    25
100
AcDbLine
 10
565.9955363684
 20
621.2842954504
 30
0.0
 11
565.6814338043
 21
621.2842954504
 31
0.0
  0
LINE
  5
EA
330
1F
100
AcDbEntity
  8
0
  6
Continuous
 62
     7
370
    25
100
AcDbLine
 10
563.9314338043
 20
623.8419877581
 30
0.0
 11
564.2455363684
 21
623.8419877581
 31
0.0
  0
SPLINE
  5
EB
330
1F
100
AcDbEntity
  8
0
  6
Continuous
 62
     7
370
    25
100
AcDbSpline
210
0.0
220
0.0
230
1.0
 70
     8
 71
     3
 72
     9
 73
     5
 74
     0
 42
0.000000001
 43
0.00000001
 40
0.0
 40
0.0
 40
0.0
 40
0.0
 40
0.560148165252204
 40
1.0
 40
1.0
 40
1.0
 40
1.0
 10
564.2455363683921
 20
623.3974765401664
 30
0.0
 10
564.3022340829326
 20
623.4742755585676
 30
0.0
 10
564.4034532211132
 20
623.611380387549
 30
0.0
 10
564.5401692155881
 20
623.7126211054263
 30
0.0
 10
564.6003039965973
 20
623.7571520209358
 30
0.0
  0
SPLINE
  5
EC
330
1F
100
AcDbEntity
  8
0
  6
Continuous
 62
     7
370
    25
100
AcDbSpline
210
0.0
220
0.0
230
1.0
 70
     8
 71
     3
 72
    10
 73
     6
 74
     0
 42
0.000000001
 43
0.00000001
 40
0.0
 40
0.0
 40
0.0
 40
0.0
 40
0.2812634147174466
 40
0.5620938163030657
 40
1.0
 40
1.0
 40
1.0
 40
1.0
 10
565.9415499901871
 20
623.2691712517048
 30
0.0
 10
565.9996359069083
 20
623.3627756344268
 30
0.0
 10
566.1157183154085
 20
623.5498402932262
 30
0.0
 10
566.4231463455774
 20
623.8127152689523
 30
0.0
 10
566.7068178218433
 20
623.8587884481175
 30
0.0
 10
566.8796509517256
 20
623.886859552987
 30
0.0
  0
LINE
  5
ED
330
1F
100
AcDbEntity
  8
0
  6
Continuous
 62
     7
370
    25
100
AcDbLine
 10
567.7455363684
 20
621.2842954504
 30
0.0
 11
567.4314338043
 21
621.2842954504
 31
0.0
  0
LINE
  5
EE
330
1F
100
AcDbEntity
  8
0
  6
Continuous
 62
     7
370
    25
100
AcDbLine
 10
567.4314338043
 20
621.2842954504
 30
0.0
 11
567.4314338043
 21
622.6711143607
 31
0.0
  0
LINE
  5
EF
330
1F
100
AcDbEntity
  8
0
  6
Continuous
 62
     7
370
    25
100
AcDbLine
 10
565.6814338043
 20
621.2842954504
 30
0.0
 11
565.6814338043
 21
622.5848763799
 31
0.0
  0
SPLINE
  5
F0
330
1F
100
AcDbEntity
  8
0
  6
Continuous
 62
     7
370
    25
100
AcDbSpline
210
0.0
220
0.0
230
1.0
 70
     8
 71
     3
 72
    11
 73
     7
 74
     0
 42
0.000000001
 43
0.00000001
 40
0.0
 40
0.0
 40
0.0
 40
0.0
 40
0.5005372768658433
 40
0.6258968119147629
 40
0.7513678273463807
 40
1.0
 40
1.0
 40
1.0
 40
1.0
 10
565.6814338042896
 20
622.58487637991
 30
0.0
 10
565.6909984265023
 20
622.8146755400459
 30
0.0
 10
565.7029585078527
 20
623.1020278879273
 30
0.0
 10
565.5276981004786
 20
623.3906911581192
 30
0.0
 10
565.353016833699
 20
623.5357428256966
 30
0.0
 10
565.184714953064
 20
623.5579787822937
 30
0.0
 10
565.0728600863409
 20
623.5727569888845
 30
0.0
  0
SPLINE
  5
F1
330
1F
100
AcDbEntity
  8
0
  6
Continuous
 62
     7
370
    25
100
AcDbSpline
210
0.0
220
0.0
230
1.0
 70
     8
 71
     3
 72
    11
 73
     7
 74
     0
 42
0.000000001
 43
0.00000001
 40
0.0
 40
0.0
 40
0.0
 40
0.0
 40
0.1865439701482412
 40
0.3733497993475671
 40
0.5601302631262743
 40
1.0
 40
1.0
 40
1.0
 40
1.0
 10
565.0728600863409
 20
623.5727569888845
 30
0.0
 10
564.969772635236
 20
623.5597171511297
 30
0.0
 10
564.7634530251481
 20
623.5336191710909
 30
0.0
 10
564.5038746496623
 20
623.3474940604693
 30
0.0
 10
564.251115016279
 20
622.965155299539
 30
0.0
 10
564.2478371958701
 20
622.6098910009001
 30
0.0
 10
564.2455363683921
 20
622.3605174055511
 30
0.0
  0
LINE
  5
F2
330
1F
100
AcDbEntity
  8
0
  6
Continuous
 62
     7
370
    25
100
AcDbLine
 10
564.2455363684
 20
622.3605174056
 30
0.0
 11
564.2455363684
 21
621.2842954504
 31
0.0
  0
LINE
  5
F3
330
1F
100
AcDbEntity
  8
0
  6
Continuous
 62
     7
370
    25
100
AcDbLine
 10
563.9314338043
 20
621.2842954504
 30
0.0
 11
563.9314338043
 21
623.8419877581
 31
0.0
  0
SPLINE
  5
F4
330
1F
100
AcDbEntity
  8
0
  6
Continuous
 62
     7
370
    25
100
AcDbSpline
210
0.0
220
0.0
230
1.0
 70
     8
 71
     3
 72
    11
 73
     7
 74
     0
 42
0.000000001
 43
0.00000001
 40
0.0
 40
0.0
 40
0.0
 40
0.0
 40
0.1868852632170395
 40
0.3735789994304738
 40
0.5602676092233716
 40
1.0
 40
1.0
 40
1.0
 40
1.0
 10
566.8796509517256
 20
623.886859552987
 30
0.0
 10
566.9857859039902
 20
623.8771789395137
 30
0.0
 10
567.1979470374529
 20
623.8578276336216
 30
0.0
 10
567.473969766386
 20
623.6802717942053
 30
0.0
 10
567.7373718629983
 20
623.2892642905742
 30
0.0
 10
567.7421689378654
 20
622.9252449144043
 30
0.0
 10
567.7455363683922
 20
622.6697121170896
 30
0.0
  0
LINE
  5
F5
330
1F
100
AcDbEntity
  8
0
  6
Continuous
 62
     7
370
    25
100
AcDbLine
 10
567.7455363684
 20
622.6697121171
 30
0.0
 11
567.7455363684
 21
621.2842954504
 31
0.0
  0
LINE
  5
F6
330
1F
100
AcDbEntity
  8
0
  6
Continuous
 62
     7
370
    25
100
AcDbLine
 10
564.2455363684
 20
621.2842954504
 30
0.0
 11
563.9314338043
 21
621.2842954504
 31
0.0
  0
LINE
  5
F7
330
1F
100
AcDbEntity
  8
0
  6
Continuous
 62
     7
370
    25
100
AcDbLine
 10
559.5314501519
 20
605.5952182551
 30
0.0
 11
559.7818507929
 21
605.6047334794
 31
0.0
  0
LINE
  5
F8
330
1F
100
AcDbEntity
  8
0
  6
Continuous
 62
     7
370
    25
100
AcDbLine
 10
559.7818507929
 20
605.6047334794
 30
0.0
 11
559.8219148955
 21
604.5615644089
 31
0.0
  0
LINE
  5
F9
330
1F
100
AcDbEntity
  8
0
  6
Continuous
 62
     7
370
    25
100
AcDbLine
 10
559.8219148955
 20
604.5615644089
 30
0.0
 11
561.0859373313
 21
604.6101421333
 31
0.0
  0
LINE
  5
FA
330
1F
100
AcDbEntity
  8
0
  6
Continuous
 62
     7
370
    25
100
AcDbLine
 10
561.0859373313
 20
604.6101421333
 30
0.0
 11
561.0458732288
 21
605.6533112038
 31
0.0
  0
LINE
  5
FB
330
1F
100
AcDbEntity
  8
0
  6
Continuous
 62
     7
370
    25
100
AcDbLine
 10
561.0458732288
 20
605.6533112038
 30
0.0
 11
561.2962738698
 21
605.6633272294
 31
0.0
  0
LINE
  5
FC
330
1F
100
AcDbEntity
  8
0
  6
Continuous
 62
     7
370
    25
100
AcDbLine
 10
561.2962738698
 20
605.6633272294
 30
0.0
 11
561.3919269147
 21
603.176848864
 31
0.0
  0
LINE
  5
FD
330
1F
100
AcDbEntity
  8
0
  6
Continuous
 62
     7
370
    25
100
AcDbLine
 10
561.3919269147
 20
603.176848864
 30
0.0
 11
561.1415262737
 21
603.1668328384
 31
0.0
  0
LINE
  5
FE
330
1F
100
AcDbEntity
  8
0
  6
Continuous
 62
     7
370
    25
100
AcDbLine
 10
561.1415262737
 20
603.1668328384
 30
0.0
 11
561.0954525557
 21
604.3667527102
 31
0.0
  0
LINE
  5
FF
330
1F
100
AcDbEntity
  8
0
  6
Continuous
 62
     7
370
    25
100
AcDbLine
 10
561.0954525557
 20
604.3667527102
 30
0.0
 11
559.8314301198
 21
604.3181749858
 31
0.0
  0
LINE
  5
100
330
1F
100
AcDbEntity
  8
0
  6
Continuous
 62
     7
370
    25
100
AcDbLine
 10
559.8314301198
 20
604.3181749858
 30
0.0
 11
559.8775038378
 21
603.118255114
 31
0.0
  0
LINE
  5
101
330
1F
100
AcDbEntity
  8
0
  6
Continuous
 62
     7
370
    25
100
AcDbLine
 10
559.8775038378
 20
603.118255114
 30
0.0
 11
559.6271031967
 21
603.1087398897
 31
0.0
  0
LINE
  5
102
330
1F
100
AcDbEntity
  8
0
  6
Continuous
 62
     7
370
    25
100
AcDbLine
 10
559.6271031967
 20
603.1087398897
 30
0.0
 11
559.5314501519
 21
605.5952182551
 31
0.0
  0
SPLINE
  5
103
330
1F
100
AcDbEntity
  8
0
  6
Continuous
 62
     7
370
    25
100
AcDbSpline
210
0.0
220
0.0
230
1.0
 70
     8
 71
     3
 72
    11
 73
     7
 74
     0
 42
0.000000001
 43
0.00000001
 40
0.0
 40
0.0
 40
0.0
 40
0.0
 40
0.2796599066902092
 40
0.5591611231807185
 40
0.7794969075617469
 40
1.0
 40
1.0
 40
1.0
 40
1.0
 10
563.133790603279
 20
603.6362320689417
 30
0.0
 10
563.2833979249755
 20
603.6871248695381
 30
0.0
 10
563.5825276751993
 20
603.7888815921234
 30
0.0
 10
563.8705665098433
 20
604.140099398495
 30
0.0
 10
563.9952532687988
 20
604.5309950949024
 30
0.0
 10
563.9658203434717
 20
604.7768030708264
 30
0.0
 10
563.9510982955867
 20
604.8997537035569
 30
0.0
  0
SPLINE
  5
104
330
1F
100
AcDbEntity
  8
0
  6
Continuous
 62
     7
370
    25
100
AcDbSpline
210
0.0
220
0.0
230
1.0
 70
     8
 71
     3
 72
    11
 73
     7
 74
     0
 42
0.000000001
 43
0.00000001
 40
0.0
 40
0.0
 40
0.0
 40
0.0
 40
0.2796889082015374
 40
0.5591090126616117
 40
0.7796641885216642
 40
1.0
 40
1.0
 40
1.0
 40
1.0
 10
563.9510982955867
 20
604.8997537035569
 30
0.0
 10
563.9013321750126
 20
605.049374137352
 30
0.0
 10
563.8018477631456
 20
605.3484712075609
 30
0.0
 10
563.4487048971617
 20
605.6308255353376
 30
0.0
 10
563.0625656816778
 20
605.7615799190124
 30
0.0
 10
562.8172064538503
 20
605.7359030553472
 30
0.0
 10
562.6945878789201
 20
605.7230710112493
 30
0.0
  0
SPLINE
  5
105
330
1F
100
AcDbEntity
  8
0
  6
Continuous
 62
     7
370
    25
100
AcDbSpline
210
0.0
220
0.0
230
1.0
 70
     8
 71
     3
 72
    11
 73
     7
 74
     0
 42
0.000000001
 43
0.00000001
 40
0.0
 40
0.0
 40
0.0
 40
0.0
 40
0.2794307182324025
 40
0.5590954197120768
 40
0.7794760642147371
 40
0.9999999999999999
 40
0.9999999999999999
 40
0.9999999999999999
 40
0.9999999999999999
 10
562.6945878789201
 20
605.7230710112493
 30
0.0
 10
562.5466077104683
 20
605.6697764453803
 30
0.0
 10
562.2505234613459
 20
605.5631426870684
 30
0.0
 10
561.9687164756276
 20
605.2102146244656
 30
0.0
 10
561.8442504643031
 20
604.8209502265618
 30
0.0
 10
561.8742798465671
 20
604.5760364481785
 30
0.0
 10
561.8892994173815
 20
604.4535397612494
 30
0.0
  0
SPLINE
  5
106
330
1F
100
AcDbEntity
  8
0
  6
Continuous
 62
     7
370
    25
100
AcDbSpline
210
0.0
220
0.0
230
1.0
 70
     8
 71
     3
 72
    11
 73
     7
 74
     0
 42
0.000000001
 43
0.00000001
 40
0.0
 40
0.0
 40
0.0
 40
0.0
 40
0.2797502484930256
 40
0.5593369297581249
 40
0.7795671923589651
 40
1.0
 40
1.0
 40
1.0
 40
1.0
 10
562.6324885199456
 20
605.9594492163776
 30
0.0
 10
562.8279366092463
 20
605.9795831615252
 30
0.0
 10
563.2187185112658
 20
606.0198392796999
 30
0.0
 10
563.7205688449797
 20
605.7657512648213
 30
0.0
 10
564.0699060327139
 20
605.3949973706161
 30
0.0
 10
564.1586226453985
 20
605.1002700390346
 30
0.0
 10
564.2030013404584
 20
604.9528386394545
 30
0.0
  0
SPLINE
  5
107
330
1F
100
AcDbEntity
  8
0
  6
Continuous
 62
     7
370
    25
100
AcDbSpline
210
0.0
220
0.0
230
1.0
 70
     8
 71
     3
 72
    11
 73
     7
 74
     0
 42
0.000000001
 43
0.00000001
 40
0.0
 40
0.0
 40
0.0
 40
0.0
 40
0.2795853946967609
 40
0.5593117102135112
 40
0.7795704595761235
 40
1.0
 40
1.0
 40
1.0
 40
1.0
 10
564.2030013404584
 20
604.9528386394545
 30
0.0
 10
564.2211692167831
 20
604.7589590679314
 30
0.0
 10
564.2575141266777
 20
604.3711022027987
 30
0.0
 10
563.997486616019
 20
603.8783944720502
 30
0.0
 10
563.6304168921615
 20
603.532784157534
 30
0.0
 10
563.3384329195472
 20
603.4445092330452
 30
0.0
 10
563.192384353279
 20
603.4003546650955
 30
0.0
  0
SPLINE
  5
108
330
1F
100
AcDbEntity
  8
0
  6
Continuous
 62
     7
370
    25
100
AcDbSpline
210
0.0
220
0.0
230
1.0
 70
     8
 71
     3
 72
    11
 73
     7
 74
     0
 42
0.000000001
 43
0.00000001
 40
0.0
 40
0.0
 40
0.0
 40
0.0
 40
0.2796754780685981
 40
0.559336359182742
 40
0.7796171212390687
 40
1.0
 40
1.0
 40
1.0
 40
1.0
 10
563.192384353279
 20
603.4003546650955
 30
0.0
 10
562.9987486067843
 20
603.3813431054798
 30
0.0
 10
562.6114872201227
 20
603.3433209785085
 30
0.0
 10
562.1178718392516
 20
603.5992848416273
 30
0.0
 10
561.7683969882601
 20
603.9623742126201
 30
0.0
 10
561.679734623033
 20
604.2540715548656
 30
0.0
 10
561.6353931673815
 20
604.3999540240699
 30
0.0
  0
SPLINE
  5
109
330
1F
100
AcDbEntity
  8
0
  6
Continuous
 62
     7
370
    25
100
AcDbSpline
210
0.0
220
0.0
230
1.0
 70
     8
 71
     3
 72
    11
 73
     7
 74
     0
 42
0.000000001
 43
0.00000001
 40
0.0
 40
0.0
 40
0.0
 40
0.0
 40
0.2797089870275242
 40
0.5593166732041048
 40
0.7796787964274712
 40
1.0
 40
1.0
 40
1.0
 40
1.0
 10
561.6353931673815
 20
604.3999540240699
 30
0.0
 10
561.618550433694
 20
604.593016761078
 30
0.0
 10
561.5848710661703
 20
604.9790723144968
 30
0.0
 10
561.828818397053
 20
605.4785269870083
 30
0.0
 10
562.1980448719526
 20
605.8214079083873
 30
0.0
 10
562.4876829353956
 20
605.9134382955414
 30
0.0
 10
562.6324885199456
 20
605.9594492163776
 30
0.0
  0
SPLINE
  5
10A
330
1F
100
AcDbEntity
  8
0
  6
Continuous
 62
     7
370
    25
100
AcDbSpline
210
0.0
220
0.0
230
1.0
 70
     8
 71
     3
 72
    11
 73
     7
 74
     0
 42
0.000000001
 43
0.00000001
 40
0.0
 40
0.0
 40
0.0
 40
0.0
 40
0.2796613318902449
 40
0.5593708389412665
 40
0.7796493272858757
 40
1.0
 40
1.0
 40
1.0
 40
1.0
 10
561.8892994173815
 20
604.4535397612494
 30
0.0
 10
561.9384348290239
 20
604.3048828075831
 30
0.0
 10
562.0367141164979
 20
604.0075432922318
 30
0.0
 10
562.3873048565216
 20
603.7291144895058
 30
0.0
 10
562.7686614258811
 20
603.5923207668855
 30
0.0
 10
563.0120675857885
 20
603.621593369766
 30
0.0
 10
563.133790603279
 20
603.6362320689417
 30
0.0
  0
LINE
  5
10B
330
1F
100
AcDbEntity
  8
0
  6
Continuous
 62
     7
370
    25
100
AcDbLine
 10
557.1795047011
 20
604.8838427901
 30
0.0
 11
557.5911633549
 21
604.7962025657
 31
0.0
  0
LINE
  5
10C
330
1F
100
AcDbEntity
  8
0
  6
Continuous
 62
     7
370
    25
100
AcDbLine
 10
557.7764598293
 20
605.6270318927
 30
0.0
 11
557.3452699255
 21
605.7131697132
 31
0.0
  0
LINE
  5
10D
330
1F
100
AcDbEntity
  8
0
  6
Continuous
 62
     7
370
    25
100
AcDbLine
 10
557.3452699255
 20
605.7131697132
 30
0.0
 11
557.1795047011
 21
604.8838427901
 31
0.0
  0
LINE
  5
10E
330
1F
100
AcDbEntity
  8
0
  6
Continuous
 62
     7
370
    25
100
AcDbLine
 10
557.1484550216
 20
605.9991272452
 30
0.0
 11
557.6342322652
 21
605.9019717965
 31
0.0
  0
SPLINE
  5
10F
330
1F
100
AcDbEntity
  8
0
  6
Continuous
 62
     7
370
    25
100
AcDbSpline
210
0.0
220
0.0
230
1.0
 70
     8
 71
     3
 72
    11
 73
     7
 74
     0
 42
0.000000001
 43
0.00000001
 40
0.0
 40
0.0
 40
0.0
 40
0.0
 40
0.2797926998321945
 40
0.5594382739304354
 40
0.7795788446031165
 40
1.0
 40
1.0
 40
1.0
 40
1.0
 10
558.1911232908416
 20
605.7527330144587
 30
0.0
 10
558.2604410150711
 20
605.7116597220056
 30
0.0
 10
558.3990400136117
 20
605.6295347350119
 30
0.0
 10
558.5229358199816
 20
605.4356447774088
 30
0.0
 10
558.5695799388424
 20
605.2318531783469
 30
0.0
 10
558.5519881089883
 20
605.1067104266368
 30
0.0
 10
558.5431865921236
 20
605.0440992003562
 30
0.0
  0
LINE
  5
110
330
1F
100
AcDbEntity
  8
0
  6
Continuous
 62
     7
370
    25
100
AcDbLine
 10
556.9050655985
 20
603.5101448734
 30
0.0
 11
556.6611753742
 21
603.5587225978
 31
0.0
  0
LINE
  5
111
330
1F
100
AcDbEntity
  8
0
  6
Continuous
 62
     7
370
    25
100
AcDbLine
 10
556.6611753742
 20
603.5587225978
 30
0.0
 11
557.1484550216
 21
605.9991272452
 31
0.0
  0
LINE
  5
112
330
1F
100
AcDbEntity
  8
0
  6
Continuous
 62
     7
370
    25
100
AcDbLine
 10
557.1319285793
 20
604.6449605786
 30
0.0
 11
556.9050655985
 21
603.5101448734
 31
0.0
  0
SPLINE
  5
113
330
1F
100
AcDbEntity
  8
0
  6
Continuous
 62
     7
370
    25
100
AcDbSpline
210
0.0
220
0.0
230
1.0
 70
     8
 71
     3
 72
    11
 73
     7
 74
     0
 42
0.000000001
 43
0.00000001
 40
0.0
 40
0.0
 40
0.0
 40
0.0
 40
0.4990852027493056
 40
0.6247854232084372
 40
0.7505539693395435
 40
1.0
 40
1.0
 40
1.0
 40
1.0
 10
557.5911633549441
 20
604.7962025657407
 30
0.0
 10
557.7383256272149
 20
604.7671242851264
 30
0.0
 10
557.9225523725772
 20
604.7307223125581
 30
0.0
 10
558.1204839355509
 20
604.8244905011245
 30
0.0
 10
558.2305145461806
 20
604.921606155831
 30
0.0
 10
558.2667158158112
 20
605.0255664138302
 30
0.0
 10
558.2907827459698
 20
605.0946801298434
 30
0.0
  0
SPLINE
  5
114
330
1F
100
AcDbEntity
  8
0
  6
Continuous
 62
     7
370
    25
100
AcDbSpline
210
0.0
220
0.0
230
1.0
 70
     8
 71
     3
 72
    11
 73
     7
 74
     0
 42
0.000000001
 43
0.00000001
 40
0.0
 40
0.0
 40
0.0
 40
0.0
 40
0.2495279978551693
 40
0.3753778677299404
 40
0.501069786724622
 40
1.0
 40
1.0
 40
1.0
 40
1.0
 10
558.2907827459698
 20
605.0946801298434
 30
0.0
 10
558.2946908699513
 20
605.165779711183
 30
0.0
 10
558.3005700629062
 20
605.2727384872286
 30
0.0
 10
558.2395193120176
 20
605.401611213071
 30
0.0
 10
558.1011970994437
 20
605.5641966091869
 30
0.0
 10
557.9206642681012
 20
605.5991289458091
 30
0.0
 10
557.776459829303
 20
605.6270318926639
 30
0.0
  0
SPLINE
  5
115
330
1F
100
AcDbEntity
  8
0
  6
Continuous
 62
     7
370
    25
100
AcDbSpline
210
0.0
220
0.0
230
1.0
 70
     8
 71
     3
 72
     9
 73
     5
 74
     0
 42
0.000000001
 43
0.00000001
 40
0.0
 40
0.0
 40
0.0
 40
0.0
 40
0.5603018652254497
 40
1.0
 40
1.0
 40
1.0
 40
1.0
 10
557.6342322652005
 20
605.90197179651
 30
0.0
 10
557.7402519037496
 20
605.8814279709537
 30
0.0
 10
557.9294706894239
 20
605.8447623326051
 30
0.0
 10
558.111211983031
 20
605.7808396838752
 30
0.0
 10
558.1911232908416
 20
605.7527330144587
 30
0.0
  0
SPLINE
  5
116
330
1F
100
AcDbEntity
  8
0
  6
Continuous
 62
     7
370
    25
100
AcDbSpline
210
0.0
220
0.0
230
1.0
 70
     8
 71
     3
 72
    11
 73
     7
 74
     0
 42
0.000000001
 43
0.00000001
 40
0.0
 40
0.0
 40
0.0
 40
0.0
 40
0.2801196586260683
 40
0.5592799232203957
 40
0.7794314120205851
 40
1.0
 40
1.0
 40
1.0
 40
1.0
 10
558.5431865921236
 20
605.0440992003562
 30
0.0
 10
558.5213591577399
 20
604.9650699362887
 30
0.0
 10
558.4777790467042
 20
604.8072820789262
 30
0.0
 10
558.3160930878552
 20
604.6373413747905
 30
0.0
 10
558.1251440397835
 20
604.5452400753763
 30
0.0
 10
557.9975625490441
 20
604.5322640342727
 30
0.0
 10
557.9337114318672
 20
604.5257698734331
 30
0.0
  0
SPLINE
  5
117
330
1F
100
AcDbEntity
  8
0
  6
Continuous
 62
     7
370
    25
100
AcDbSpline
210
0.0
220
0.0
230
1.0
 70
     8
 71
     3
 72
     9
 73
     5
 74
     0
 42
0.000000001
 43
0.00000001
 40
0.0
 40
0.0
 40
0.0
 40
0.0
 40
0.5597062821770465
 40
0.9999999999999999
 40
0.9999999999999999
 40
0.9999999999999999
 40
0.9999999999999999
 10
557.9337114318672
 20
604.5257698734331
 30
0.0
 10
557.8155442371839
 20
604.5344058139281
 30
0.0
 10
557.6044206560374
 20
604.5498352289085
 30
0.0
 10
557.3970226592496
 20
604.5918891936255
 30
0.0
 10
557.305706624175
 20
604.6104052900998
 30
0.0
  0
LINE
  5
118
330
1F
100
AcDbEntity
  8
0
  6
Continuous
 62
     7
370
    25
100
AcDbLine
 10
557.3057066242
 20
604.6104052901
 30
0.0
 11
557.1319285793
 21
604.6449605786
 31
0.0
  0
LINE
  5
119
330
1F
100
AcDbEntity
  8
0
  6
Continuous
 62
     7
370
    25
100
AcDbLine
 10
563.9433918468
 20
606.1994182946
 30
0.0
 11
564.172758834
 21
606.2965737433
 31
0.0
  0
LINE
  5
11A
330
1F
100
AcDbEntity
  8
0
  6
Continuous
 62
     7
370
    25
100
AcDbLine
 10
564.172758834
 20
606.2965737433
 30
0.0
 11
565.0466570712
 21
604.2372788715
 31
0.0
  0
LINE
  5
11B
330
1F
100
AcDbEntity
  8
0
  6
Continuous
 62
     7
370
    25
100
AcDbLine
 10
565.0466570712
 20
604.2372788715
 30
0.0
 11
565.9220577122
 21
604.6088734228
 31
0.0
  0
LINE
  5
11C
330
1F
100
AcDbEntity
  8
0
  6
Continuous
 62
     7
370
    25
100
AcDbLine
 10
565.9220577122
 20
604.6088734228
 30
0.0
 11
566.0152067507
 21
604.38902166
 31
0.0
  0
LINE
  5
11D
330
1F
100
AcDbEntity
  8
0
  6
Continuous
 62
     7
370
    25
100
AcDbLine
 10
566.0152067507
 20
604.38902166
 30
0.0
 11
564.9104391225
 21
603.92027166
 31
0.0
  0
LINE
  5
11E
330
1F
100
AcDbEntity
  8
0
  6
Continuous
 62
     7
370
    25
100
AcDbLine
 10
564.9104391225
 20
603.92027166
 30
0.0
 11
563.9433918468
 21
606.1994182946
 31
0.0
  0
LINE
  5
11F
330
1F
100
AcDbEntity
  8
0
  6
Continuous
 62
     7
370
    25
100
AcDbLine
 10
557.3352799581
 20
624.7842954504
 30
0.0
 11
557.3352799581
 21
624.4253210914
 31
0.0
  0
LINE
  5
120
330
1F
100
AcDbEntity
  8
0
  6
Continuous
 62
     7
370
    25
100
AcDbLine
 10
557.3352799581
 20
624.4253210914
 30
0.0
 11
556.1447751504
 21
624.4253210914
 31
0.0
  0
LINE
  5
121
330
1F
100
AcDbEntity
  8
0
  6
Continuous
 62
     7
370
    25
100
AcDbLine
 10
556.1447751504
 20
624.4253210914
 30
0.0
 11
555.9561733876
 21
623.5047481748
 31
0.0
  0
SPLINE
  5
122
330
1F
100
AcDbEntity
  8
0
  6
Continuous
 62
     7
370
    25
100
AcDbSpline
210
0.0
220
0.0
230
1.0
 70
     8
 71
     3
 72
     9
 73
     5
 74
     0
 42
0.000000001
 43
0.00000001
 40
0.0
 40
0.0
 40
0.0
 40
0.0
 40
0.5600641881631564
 40
1.0
 40
1.0
 40
1.0
 40
1.0
 10
555.9561733876229
 20
623.5047481747819
 30
0.0
 10
556.0318672148666
 20
623.5255905163056
 30
0.0
 10
556.1670192721544
 20
623.5628047177563
 30
0.0
 10
556.306896153608
 20
623.5697163252365
 30
0.0
 10
556.3684330030076
 20
623.5727569888845
 30
0.0
  0
SPLINE
  5
123
330
1F
100
AcDbEntity
  8
0
  6
Continuous
 62
     7
370
    25
100
AcDbSpline
210
0.0
220
0.0
230
1.0
 70
     8
 71
     3
 72
    11
 73
     7
 74
     0
 42
0.000000001
 43
0.00000001
 40
0.0
 40
0.0
 40
0.0
 40
0.0
 40
0.2796170238097913
 40
0.5593571245928788
 40
0.7795591890944644
 40
1.0
 40
1.0
 40
1.0
 40
1.0
 10
556.267471464546
 20
621.5535262196537
 30
0.0
 10
556.3985887439309
 20
621.5689181743618
 30
0.0
 10
556.6608810156314
 20
621.5997088587419
 30
0.0
 10
556.9532218525036
 20
621.8389700389469
 30
0.0
 10
557.1310601026073
 20
622.131640509912
 30
0.0
 10
557.147545575949
 20
622.3379405192122
 30
0.0
 10
557.1557927786486
 20
622.4411464119613
 30
0.0
  0
LINE
  5
124
330
1F
100
AcDbEntity
  8
0
  6
Continuous
 62
     7
370
    25
100
AcDbLine
 10
555.8993825222
 20
624.7842954504
 30
0.0
 11
557.3352799581
 21
624.7842954504
 31
0.0
  0
LINE
  5
125
330
1F
100
AcDbEntity
  8
0
  6
Continuous
 62
     7
370
    25
100
AcDbLine
 10
555.5404081633
 20
623.0342954504
 30
0.0
 11
555.8993825222
 21
624.7842954504
 31
0.0
  0
SPLINE
  5
126
330
1F
100
AcDbEntity
  8
0
  6
Continuous
 62
     7
370
    25
100
AcDbSpline
210
0.0
220
0.0
230
1.0
 70
     8
 71
     3
 72
    11
 73
     7
 74
     0
 42
0.000000001
 43
0.00000001
 40
0.0
 40
0.0
 40
0.0
 40
0.0
 40
0.279688101387283
 40
0.5590254628568477
 40
0.7792915544457225
 40
0.9999999999999999
 40
0.9999999999999999
 40
0.9999999999999999
 40
0.9999999999999999
 10
556.3684330030076
 20
623.5727569888845
 30
0.0
 10
556.5358071910522
 20
623.5550008419459
 30
0.0
 10
556.8703456733037
 20
623.519510814978
 30
0.0
 10
557.2383296644007
 20
623.2044721172381
 30
0.0
 10
557.4432162981419
 20
622.8212917118057
 30
0.0
 10
557.4609963826471
 20
622.5590683170627
 30
0.0
 10
557.4698953427511
 20
622.4278250978588
 30
0.0
  0
SPLINE
  5
127
330
1F
100
AcDbEntity
  8
0
  6
Continuous
 62
     7
370
    25
100
AcDbSpline
210
0.0
220
0.0
230
1.0
 70
     8
 71
     3
 72
    11
 73
     7
 74
     0
 42
0.000000001
 43
0.00000001
 40
0.0
 40
0.0
 40
0.0
 40
0.0
 40
0.2798641432854497
 40
0.559270953694913
 40
0.7794235060773148
 40
1.0
 40
1.0
 40
1.0
 40
1.0
 10
557.4698953427511
 20
622.4278250978588
 30
0.0
 10
557.4494045718118
 20
622.2462470741044
 30
0.0
 10
557.4084565144058
 20
621.8833877477076
 30
0.0
 10
557.0940192716246
 20
621.4612661311783
 30
0.0
 10
556.67818028658
 20
621.2271025611467
 30
0.0
 10
556.3923132868586
 20
621.2054090499013
 30
0.0
 10
556.2492422978794
 20
621.1945518606793
 30
0.0
  0
SPLINE
  5
128
330
1F
100
AcDbEntity
  8
0
  6
Continuous
 62
     7
370
    25
100
AcDbSpline
210
0.0
220
0.0
230
1.0
 70
     8
 71
     3
 72
    11
 73
     7
 74
     0
 42
0.000000001
 43
0.00000001
 40
0.0
 40
0.0
 40
0.0
 40
0.0
 40
0.2796245285186064
 40
0.5590191589951335
 40
0.7793803439134613
 40
1.0
 40
1.0
 40
1.0
 40
1.0
 10
556.2492422978794
 20
621.1945518606793
 30
0.0
 10
556.0991950217201
 20
621.2099012839011
 30
0.0
 10
555.7992238333111
 20
621.2405875105566
 30
0.0
 10
555.4600421288327
 20
621.508420319506
 30
0.0
 10
555.2502317565861
 20
621.8350180654115
 30
0.0
 10
555.2043754142821
 20
622.0661151029036
 30
0.0
 10
555.1814338042897
 20
622.1817313478588
 30
0.0
  0
SPLINE
  5
129
330
1F
100
AcDbEntity
  8
0
  6
Continuous
 62
     7
370
    25
100
AcDbSpline
210
0.0
220
0.0
230
1.0
 70
     8
 71
     3
 72
     9
 73
     5
 74
     0
 42
0.000000001
 43
0.00000001
 40
0.0
 40
0.0
 40
0.0
 40
0.0
 40
0.559416157952814
 40
0.9999999999999999
 40
0.9999999999999999
 40
0.9999999999999999
 40
0.9999999999999999
 10
556.3116421376229
 20
623.21378262991
 30
0.0
 10
556.1634157558543
 20
623.1984186329587
 30
0.0
 10
555.8984495412367
 20
623.1709542904775
 30
0.0
 10
555.6499104645636
 20
623.0760907802354
 30
0.0
 10
555.540408163264
 20
623.0342954504229
 30
0.0
  0
LINE
  5
12A
330
1F
100
AcDbEntity
  8
0
  6
Continuous
 62
     7
370
    25
100
AcDbLine
 10
555.1814338043
 20
622.1817313479
 30
0.0
 11
555.4955363684
 21
622.1817313479
 31
0.0
  0
SPLINE
  5
12B
330
1F
100
AcDbEntity
  8
0
  6
Continuous
 62
     7
370
    25
100
AcDbSpline
210
0.0
220
0.0
230
1.0
 70
     8
 71
     3
 72
    11
 73
     7
 74
     0
 42
0.000000001
 43
0.00000001
 40
0.0
 40
0.0
 40
0.0
 40
0.0
 40
0.2795389690236793
 40
0.5586168329831548
 40
0.7790472620763185
 40
1.0
 40
1.0
 40
1.0
 40
1.0
 10
557.1557927786486
 20
622.4411464119613
 30
0.0
 10
557.1428451622897
 20
622.5622482064992
 30
0.0
 10
557.1169712869216
 20
622.8042520357673
 30
0.0
 10
556.8811303708197
 20
623.0670185876455
 30
0.0
 10
556.5958563797323
 20
623.1973137402471
 30
0.0
 10
556.4064549274515
 20
623.2082886709771
 30
0.0
 10
556.3116421376229
 20
623.21378262991
 30
0.0
  0
SPLINE
  5
12C
330
1F
100
AcDbEntity
  8
0
  6
Continuous
 62
     7
370
    25
100
AcDbSpline
210
0.0
220
0.0
230
1.0
 70
     8
 71
     3
 72
    11
 73
     7
 74
     0
 42
0.000000001
 43
0.00000001
 40
0.0
 40
0.0
 40
0.0
 40
0.0
 40
0.280050174434589
 40
0.5591657137139344
 40
0.7795831368803368
 40
1.0
 40
1.0
 40
1.0
 40
1.0
 10
555.4955363683922
 20
622.1817313478588
 30
0.0
 10
555.5226122368528
 20
622.0828542035333
 30
0.0
 10
555.5766736111857
 20
621.8854299059465
 30
0.0
 10
555.790473948664
 20
621.6853740878794
 30
0.0
 10
556.028598637434
 20
621.5739360843809
 30
0.0
 10
556.1878472562798
 20
621.560329502134
 30
0.0
 10
556.267471464546
 20
621.5535262196537
 30
0.0
  0
CIRCLE
  5
12D
330
1F
100
AcDbEntity
  8
0
  6
Continuous
 62
     7
370
    25
100
AcDbCircle
 10
560.2070748299
 20
616.7878911565
 30
0.0
 40
17.5
  0
LINE
  5
12E
330
1F
100
AcDbEntity
  8
0
  6
Continuous
 62
     7
370
    25
100
AcDbLine
 10
552.8929722658
 20
210.9766031427
 30
0.0
 11
552.5788697017
 21
210.9766031427
 31
0.0
  0
SPLINE
  5
12F
330
1F
100
AcDbEntity
  8
0
  6
Continuous
 62
     7
370
    25
100
AcDbSpline
210
0.0
220
0.0
230
1.0
 70
     8
 71
     3
 72
    11
 73
     7
 74
     0
 42
0.000000001
 43
0.00000001
 40
0.0
 40
0.0
 40
0.0
 40
0.0
 40
0.2802877402650423
 40
0.5596796791475022
 40
0.7797465447966496
 40
1.0
 40
1.0
 40
1.0
 40
1.0
 10
552.5788697017256
 20
210.9766031427306
 30
0.0
 10
552.6191977780152
 20
211.1112063946831
 30
0.0
 10
552.6997250418086
 20
211.3799827057475
 30
0.0
 10
552.9671852989403
 20
211.6774998161603
 30
0.0
 10
553.2907778539915
 20
211.8483431755907
 30
0.0
 10
553.5107193432294
 20
211.8654713325728
 30
0.0
 10
553.620736688905
 20
211.8740390401665
 30
0.0
  0
SPLINE
  5
130
330
1F
100
AcDbEntity
  8
0
  6
Continuous
 62
     7
370
    25
100
AcDbSpline
210
0.0
220
0.0
230
1.0
 70
     8
 71
     3
 72
    11
 73
     7
 74
     0
 42
0.000000001
 43
0.00000001
 40
0.0
 40
0.0
 40
0.0
 40
0.0
 40
0.2800849611447597
 40
0.5598683320862198
 40
0.7800991540777257
 40
1.0
 40
1.0
 40
1.0
 40
1.0
 10
553.620736688905
 20
211.8740390401665
 30
0.0
 10
553.7624451093918
 20
211.8588248169605
 30
0.0
 10
554.0457093614112
 20
211.8284127529371
 30
0.0
 10
554.3846994849881
 20
211.6035426427657
 30
0.0
 10
554.5999665363445
 20
211.298296112514
 30
0.0
 10
554.6286441894156
 20
211.0758324904141
 30
0.0
 10
554.642972265828
 20
210.9646840722178
 30
0.0
  0
SPLINE
  5
131
330
1F
100
AcDbEntity
  8
0
  6
Continuous
 62
     7
370
    25
100
AcDbSpline
210
0.0
220
0.0
230
1.0
 70
     8
 71
     3
 72
    10
 73
     6
 74
     0
 42
0.000000001
 43
0.00000001
 40
0.0
 40
0.0
 40
0.0
 40
0.0
 40
0.2805082111731817
 40
0.560792316724904
 40
1.0
 40
1.0
 40
1.0
 40
1.0
 10
554.642972265828
 20
210.9646840722178
 30
0.0
 10
554.6372805462865
 20
210.8838168062672
 30
0.0
 10
554.6259016544728
 20
210.7221468814193
 30
0.0
 10
554.4998016521132
 20
210.4535401247416
 30
0.0
 10
554.3348882514482
 20
210.3238190952708
 30
0.0
 10
554.2342182594178
 20
210.2446319888844
 30
0.0
  0
SPLINE
  5
132
330
1F
100
AcDbEntity
  8
0
  6
Continuous
 62
     7
370
    25
100
AcDbSpline
210
0.0
220
0.0
230
1.0
 70
     8
 71
     3
 72
     9
 73
     5
 74
     0
 42
0.000000001
 43
0.00000001
 40
0.0
 40
0.0
 40
0.0
 40
0.0
 40
0.559794511354832
 40
0.9999999999999999
 40
0.9999999999999999
 40
0.9999999999999999
 40
0.9999999999999999
 10
554.2342182594178
 20
210.2446319888844
 30
0.0
 10
554.3157229107748
 20
210.2020909188184
 30
0.0
 10
554.4613203571657
 20
210.1260968366989
 30
0.0
 10
554.5670030493077
 20
210.0010155661093
 30
0.0
 10
554.6135251504435
 20
209.945954104269
 30
0.0
  0
SPLINE
  5
133
330
1F
100
AcDbEntity
  8
0
  6
Continuous
 62
     7
370
    25
100
AcDbSpline
210
0.0
220
0.0
230
1.0
 70
     8
 71
     3
 72
     9
 73
     5
 74
     0
 42
0.000000001
 43
0.00000001
 40
0.0
 40
0.0
 40
0.0
 40
0.0
 40
0.5594190832925947
 40
1.0
 40
1.0
 40
1.0
 40
1.0
 10
554.6135251504435
 20
209.945954104269
 30
0.0
 10
554.6806434167045
 20
209.8388278187041
 30
0.0
 10
554.8006219234546
 20
209.6473322320064
 30
0.0
 10
554.8157807539009
 20
209.4229275102448
 30
0.0
 10
554.8224594453153
 20
209.3240590722178
 30
0.0
  0
SPLINE
  5
134
330
1F
100
AcDbEntity
  8
0
  6
Continuous
 62
     7
370
    25
100
AcDbSpline
210
0.0
220
0.0
230
1.0
 70
     8
 71
     3
 72
    11
 73
     7
 74
     0
 42
0.000000001
 43
0.00000001
 40
0.0
 40
0.0
 40
0.0
 40
0.0
 40
0.2793039999354366
 40
0.5588382577771595
 40
0.7792769515121006
 40
1.0
 40
1.0
 40
1.0
 40
1.0
 10
554.8224594453153
 20
209.3240590722178
 30
0.0
 10
554.7973501852985
 20
209.1522892285305
 30
0.0
 10
554.7471109652188
 20
208.8086079342883
 30
0.0
 10
554.4185691226197
 20
208.4310702594537
 30
0.0
 10
554.0182413077264
 20
208.2259716796314
 30
0.0
 10
553.7472200693456
 20
208.2050296331246
 30
0.0
 10
553.6116221055717
 20
208.1945518606793
 30
0.0
  0
SPLINE
  5
135
330
1F
100
AcDbEntity
  8
0
  6
Continuous
 62
     7
370
    25
100
AcDbSpline
210
0.0
220
0.0
230
1.0
 70
     8
 71
     3
 72
    11
 73
     7
 74
     0
 42
0.000000001
 43
0.00000001
 40
0.0
 40
0.0
 40
0.0
 40
0.0
 40
0.2798859005846822
 40
0.5589785364560428
 40
0.7792628697075733
 40
1.0
 40
1.0
 40
1.0
 40
1.0
 10
553.6116221055717
 20
208.1945518606793
 30
0.0
 10
553.4510254283534
 20
208.2086116754371
 30
0.0
 10
553.130287243959
 20
208.2366914560183
 30
0.0
 10
552.7514139239155
 20
208.5054094481555
 30
0.0
 10
552.5313837933352
 20
208.8589998203221
 30
0.0
 10
552.4733173481383
 20
209.1039848598247
 30
0.0
 10
552.4442543171102
 20
209.2266031427306
 30
0.0
  0
LINE
  5
136
330
1F
100
AcDbEntity
  8
0
  6
Continuous
 62
     7
370
    25
100
AcDbLine
 10
552.4442543171
 20
209.2266031427
 30
0.0
 11
552.7583568812
 21
209.2266031427
 31
0.0
  0
SPLINE
  5
137
330
1F
100
AcDbEntity
  8
0
  6
Continuous
 62
     7
370
    25
100
AcDbSpline
210
0.0
220
0.0
230
1.0
 70
     8
 71
     3
 72
     9
 73
     5
 74
     0
 42
0.000000001
 43
0.00000001
 40
0.0
 40
0.0
 40
0.0
 40
0.0
 40
0.5606944343828807
 40
1.0
 40
1.0
 40
1.0
 40
1.0
 10
552.7583568812126
 20
209.2266031427306
 30
0.0
 10
552.7903983010312
 20
209.1248461156538
 30
0.0
 10
552.8475442576411
 20
208.9433621899415
 30
0.0
 10
552.9760445912636
 20
208.8040359131154
 30
0.0
 10
553.0324955030076
 20
208.742829104269
 30
0.0
  0
SPLINE
  5
138
330
1F
100
AcDbEntity
  8
0
  6
Continuous
 62
     7
370
    25
100
AcDbSpline
210
0.0
220
0.0
230
1.0
 70
     8
 71
     3
 72
     9
 73
     5
 74
     0
 42
0.000000001
 43
0.00000001
 40
0.0
 40
0.0
 40
0.0
 40
0.0
 40
0.5587479503296382
 40
1.0
 40
1.0
 40
1.0
 40
1.0
 10
553.0324955030076
 20
208.742829104269
 30
0.0
 10
553.1330750497089
 20
208.6799222267421
 30
0.0
 10
553.3130838473107
 20
208.5673367980352
 30
0.0
 10
553.5241137172696
 20
208.5577544502532
 30
0.0
 10
553.6172310799307
 20
208.5535262196537
 30
0.0
  0
SPLINE
  5
139
330
1F
100
AcDbEntity
  8
0
  6
Continuous
 62
     7
370
    25
100
AcDbSpline
210
0.0
220
0.0
230
1.0
 70
     8
 71
     3
 72
    11
 73
     7
 74
     0
 42
0.000000001
 43
0.00000001
 40
0.0
 40
0.0
 40
0.0
 40
0.0
 40
0.2805990659720843
 40
0.5601509464763262
 40
0.78030257727682
 40
1.0
 40
1.0
 40
1.0
 40
1.0
 10
553.6172310799307
 20
208.5535262196536
 30
0.0
 10
553.7385996926433
 20
208.5616391291052
 30
0.0
 10
553.9808839748381
 20
208.5778346709265
 30
0.0
 10
554.2741518178774
 20
208.7594429641634
 30
0.0
 10
554.473154286205
 20
209.0087895752739
 30
0.0
 10
554.4966307638352
 20
209.1989358663442
 30
0.0
 10
554.5083568812126
 20
209.2939108350383
 30
0.0
  0
SPLINE
  5
13A
330
1F
100
AcDbEntity
  8
0
  6
Continuous
 62
     7
370
    25
100
AcDbSpline
210
0.0
220
0.0
230
1.0
 70
     8
 71
     3
 72
    11
 73
     7
 74
     0
 42
0.000000001
 43
0.00000001
 40
0.0
 40
0.0
 40
0.0
 40
0.0
 40
0.1255870223112599
 40
0.2511906762363286
 40
0.5006049654665252
 40
1.0
 40
1.0
 40
1.0
 40
1.0
 10
554.5083568812126
 20
209.2939108350383
 30
0.0
 10
554.5032662906651
 20
209.3549410939221
 30
0.0
 10
554.493084435418
 20
209.4770096939872
 30
0.0
 10
554.384007691923
 20
209.6977225192104
 30
0.0
 10
554.0584231471321
 20
209.9992741075221
 30
0.0
 10
553.6822864490825
 20
210.0202837346081
 30
0.0
 10
553.4314338042896
 20
210.0342954504229
 30
0.0
  0
LINE
  5
13B
330
1F
100
AcDbEntity
  8
0
  6
Continuous
 62
     7
370
    25
100
AcDbLine
 10
553.4314338043
 20
210.0342954504
 30
0.0
 11
553.4314338043
 21
210.3932698094
 31
0.0
  0
SPLINE
  5
13C
330
1F
100
AcDbEntity
  8
0
  6
Continuous
 62
     7
370
    25
100
AcDbSpline
210
0.0
220
0.0
230
1.0
 70
     8
 71
     3
 72
    11
 73
     7
 74
     0
 42
0.000000001
 43
0.00000001
 40
0.0
 40
0.0
 40
0.0
 40
0.0
 40
0.4994184848717906
 40
0.7490159550700237
 40
0.8745437054092647
 40
1.0
 40
1.0
 40
1.0
 40
1.0
 10
553.4314338042896
 20
210.3932698093973
 30
0.0
 10
553.6291546978658
 20
210.411554214301
 30
0.0
 10
553.9256917873515
 20
210.4389767295196
 30
0.0
 10
554.2155815259564
 20
210.6443316499096
 30
0.0
 10
554.3147780986192
 20
210.8185066823609
 30
0.0
 10
554.3241733923107
 20
210.9169024424935
 30
0.0
 10
554.3288697017256
 20
210.9660863158075
 30
0.0
  0
SPLINE
  5
13D
330
1F
100
AcDbEntity
  8
0
  6
Continuous
 62
     7
370
    25
100
AcDbSpline
210
0.0
220
0.0
230
1.0
 70
     8
 71
     3
 72
    10
 73
     6
 74
     0
 42
0.000000001
 43
0.00000001
 40
0.0
 40
0.0
 40
0.0
 40
0.0
 40
0.2788589916259467
 40
0.5600742373462625
 40
1.0
 40
1.0
 40
1.0
 40
1.0
 10
554.3288697017256
 20
210.9660863158075
 30
0.0
 10
554.3111353698071
 20
211.0576966793316
 30
0.0
 10
554.2755168575037
 20
211.2416914796593
 30
0.0
 10
554.0075821211102
 20
211.4683585983392
 30
0.0
 10
553.7699244205525
 20
211.4973678444275
 30
0.0
 10
553.6249434196743
 20
211.5150646811921
 30
0.0
  0
SPLINE
  5
13E
330
1F
100
AcDbEntity
  8
0
  6
Continuous
 62
     7
370
    25
100
AcDbSpline
210
0.0
220
0.0
230
1.0
 70
     8
 71
     3
 72
    10
 73
     6
 74
     0
 42
0.000000001
 43
0.00000001
 40
0.0
 40
0.0
 40
0.0
 40
0.0
 40
0.28063596314822
 40
0.5603644085668301
 40
1.0
 40
1.0
 40
1.0
 40
1.0
 10
553.6249434196743
 20
211.5150646811921
 30
0.0
 10
553.5339261173543
 20
211.5078302058199
 30
0.0
 10
553.352185843543
 20
211.4933846498484
 30
0.0
 10
553.0628492237026
 20
211.3183600008179
 30
0.0
 10
552.9574105581479
 20
211.1062394901157
 30
0.0
 10
552.8929722658281
 20
210.9766031427306
 30
0.0
  0
LINE
  5
13F
330
1F
100
AcDbEntity
  8
0
  6
Continuous
 62
     7
370
    25
100
AcDbLine
 10
559.3993825222
 20
210.8419877581
 30
0.0
 11
559.7134850863
 21
210.8419877581
 31
0.0
  0
LINE
  5
140
330
1F
100
AcDbEntity
  8
0
  6
Continuous
 62
     7
370
    25
100
AcDbLine
 10
559.7134850863
 20
210.8419877581
 30
0.0
 11
559.7134850863
 21
210.3974765402
 31
0.0
  0
SPLINE
  5
141
330
1F
100
AcDbEntity
  8
0
  6
Continuous
 62
     7
370
    25
100
AcDbSpline
210
0.0
220
0.0
230
1.0
 70
     8
 71
     3
 72
     9
 73
     5
 74
     0
 42
0.000000001
 43
0.00000001
 40
0.0
 40
0.0
 40
0.0
 40
0.0
 40
0.560148165252198
 40
1.0
 40
1.0
 40
1.0
 40
1.0
 10
559.7134850863409
 20
210.3974765401665
 30
0.0
 10
559.7701828008812
 20
210.4742755585677
 30
0.0
 10
559.8714019390619
 20
210.6113803875491
 30
0.0
 10
560.0081179335369
 20
210.7126211054263
 30
0.0
 10
560.0682527145461
 20
210.7571520209357
 30
0.0
  0
SPLINE
  5
142
330
1F
100
AcDbEntity
  8
0
  6
Continuous
 62
     7
370
    25
100
AcDbSpline
210
0.0
220
0.0
230
1.0
 70
     8
 71
     3
 72
     9
 73
     5
 74
     0
 42
0.000000001
 43
0.00000001
 40
0.0
 40
0.0
 40
0.0
 40
0.0
 40
0.5597432622766948
 40
1.0
 40
1.0
 40
1.0
 40
1.0
 10
560.0682527145461
 20
210.7571520209357
 30
0.0
 10
560.1626222763572
 20
210.7987178496854
 30
0.0
 10
560.3312166448313
 20
210.8729765885589
 30
0.0
 10
560.5147114708136
 20
210.8826158174994
 30
0.0
 10
560.5954963042897
 20
210.886859552987
 30
0.0
  0
SPLINE
  5
143
330
1F
100
AcDbEntity
  8
0
  6
Continuous
 62
     7
370
    25
100
AcDbSpline
210
0.0
220
0.0
230
1.0
 70
     8
 71
     3
 72
    10
 73
     6
 74
     0
 42
0.000000001
 43
0.00000001
 40
0.0
 40
0.0
 40
0.0
 40
0.0
 40
0.2808091187319809
 40
0.5615074020671137
 40
1.0
 40
1.0
 40
1.0
 40
1.0
 10
560.5954963042897
 20
210.886859552987
 30
0.0
 10
560.6976828233948
 20
210.8763611282448
 30
0.0
 10
560.9020155285721
 20
210.8553684224902
 30
0.0
 10
561.2361929737611
 20
210.6679785213485
 30
0.0
 10
561.3438561701987
 20
210.4202263880028
 30
0.0
 10
561.4094987081357
 20
210.2691712517049
 30
0.0
  0
SPLINE
  5
144
330
1F
100
AcDbEntity
  8
0
  6
Continuous
 62
     7
370
    25
100
AcDbSpline
210
0.0
220
0.0
230
1.0
 70
     8
 71
     3
 72
    10
 73
     6
 74
     0
 42
0.000000001
 43
0.00000001
 40
0.0
 40
0.0
 40
0.0
 40
0.0
 40
0.2812634147174308
 40
0.5620938163030653
 40
1.0
 40
1.0
 40
1.0
 40
1.0
 10
561.4094987081357
 20
210.2691712517049
 30
0.0
 10
561.4675846248572
 20
210.3627756344268
 30
0.0
 10
561.5836670333572
 20
210.5498402932262
 30
0.0
 10
561.8910950635261
 20
210.8127152689524
 30
0.0
 10
562.1747665397919
 20
210.8587884481175
 30
0.0
 10
562.3475996696743
 20
210.886859552987
 30
0.0
  0
SPLINE
  5
145
330
1F
100
AcDbEntity
  8
0
  6
Continuous
 62
     7
370
    25
100
AcDbSpline
210
0.0
220
0.0
230
1.0
 70
     8
 71
     3
 72
    11
 73
     7
 74
     0
 42
0.000000001
 43
0.00000001
 40
0.0
 40
0.0
 40
0.0
 40
0.0
 40
0.1868852632170371
 40
0.3735789994304817
 40
0.5602676092233677
 40
1.0
 40
1.0
 40
1.0
 40
1.0
 10
562.3475996696743
 20
210.886859552987
 30
0.0
 10
562.4537346219388
 20
210.8771789395137
 30
0.0
 10
562.6658957554016
 20
210.8578276336216
 30
0.0
 10
562.9419184843347
 20
210.6802717942053
 30
0.0
 10
563.205320580947
 20
210.2892642905742
 30
0.0
 10
563.2101176558141
 20
209.9252449144043
 30
0.0
 10
563.2134850863409
 20
209.6697121170895
 30
0.0
  0
LINE
  5
146
330
1F
100
AcDbEntity
  8
0
  6
Continuous
 62
     7
370
    25
100
AcDbLine
 10
563.2134850863
 20
209.6697121171
 30
0.0
 11
563.2134850863
 21
208.2842954504
 31
0.0
  0
LINE
  5
147
330
1F
100
AcDbEntity
  8
0
  6
Continuous
 62
     7
370
    25
100
AcDbLine
 10
563.2134850863
 20
208.2842954504
 30
0.0
 11
562.8993825222
 21
208.2842954504
 31
0.0
  0
LINE
  5
148
330
1F
100
AcDbEntity
  8
0
  6
Continuous
 62
     7
370
    25
100
AcDbLine
 10
562.8993825222
 20
208.2842954504
 30
0.0
 11
562.8993825222
 21
209.6711143607
 31
0.0
  0
SPLINE
  5
149
330
1F
100
AcDbEntity
  8
0
  6
Continuous
 62
     7
370
    25
100
AcDbSpline
210
0.0
220
0.0
230
1.0
 70
     8
 71
     3
 72
    11
 73
     7
 74
     0
 42
0.000000001
 43
0.00000001
 40
0.0
 40
0.0
 40
0.0
 40
0.0
 40
0.1865439701482415
 40
0.3733497993475678
 40
0.560130263126273
 40
1.0
 40
1.0
 40
1.0
 40
1.0
 10
560.5408088042896
 20
210.5727569888844
 30
0.0
 10
560.4377213531848
 20
210.5597171511296
 30
0.0
 10
560.2314017430969
 20
210.5336191710909
 30
0.0
 10
559.971823367611
 20
210.3474940604692
 30
0.0
 10
559.7190637342278
 20
209.9651552995392
 30
0.0
 10
559.7157859138189
 20
209.6098910009001
 30
0.0
 10
559.7134850863409
 20
209.3605174055511
 30
0.0
  0
LINE
  5
14A
330
1F
100
AcDbEntity
  8
0
  6
Continuous
 62
     7
370
    25
100
AcDbLine
 10
559.7134850863
 20
209.3605174056
 30
0.0
 11
559.7134850863
 21
208.2842954504
 31
0.0
  0
LINE
  5
14B
330
1F
100
AcDbEntity
  8
0
  6
Continuous
 62
     7
370
    25
100
AcDbLine
 10
559.7134850863
 20
208.2842954504
 30
0.0
 11
559.3993825222
 21
208.2842954504
 31
0.0
  0
LINE
  5
14C
330
1F
100
AcDbEntity
  8
0
  6
Continuous
 62
     7
370
    25
100
AcDbLine
 10
559.3993825222
 20
208.2842954504
 30
0.0
 11
559.3993825222
 21
210.8419877581
 31
0.0
  0
SPLINE
  5
14D
330
1F
100
AcDbEntity
  8
0
  6
Continuous
 62
     7
370
    25
100
AcDbSpline
210
0.0
220
0.0
230
1.0
 70
     8
 71
     3
 72
    11
 73
     7
 74
     0
 42
0.000000001
 43
0.00000001
 40
0.0
 40
0.0
 40
0.0
 40
0.0
 40
0.500537276865843
 40
0.6258968119147624
 40
0.751367827346376
 40
1.0
 40
1.0
 40
1.0
 40
1.0
 10
561.1493825222383
 20
209.5848763799101
 30
0.0
 10
561.1589471444512
 20
209.8146755400458
 30
0.0
 10
561.1709072258014
 20
210.1020278879273
 30
0.0
 10
560.9956468184273
 20
210.3906911581194
 30
0.0
 10
560.8209655516476
 20
210.5357428256966
 30
0.0
 10
560.6526636710128
 20
210.5579787822937
 30
0.0
 10
560.5408088042896
 20
210.5727569888844
 30
0.0
  0
SPLINE
  5
14E
330
1F
100
AcDbEntity
  8
0
  6
Continuous
 62
     7
370
    25
100
AcDbSpline
210
0.0
220
0.0
230
1.0
 70
     8
 71
     3
 72
    11
 73
     7
 74
     0
 42
0.000000001
 43
0.00000001
 40
0.0
 40
0.0
 40
0.0
 40
0.0
 40
0.4994453881352772
 40
0.6249333480045054
 40
0.7505609926737437
 40
1.0
 40
1.0
 40
1.0
 40
1.0
 10
562.8993825222384
 20
209.6711143606793
 30
0.0
 10
562.9066076884968
 20
209.8890317743173
 30
0.0
 10
562.9156482111388
 20
210.1617019443267
 30
0.0
 10
562.7274905366315
 20
210.4173719220927
 30
0.0
 10
562.5564928076013
 20
210.5434218469083
 30
0.0
 10
562.3981911078129
 20
210.5610399954752
 30
0.0
 10
562.2929121696743
 20
210.5727569888844
 30
0.0
  0
LINE
  5
14F
330
1F
100
AcDbEntity
  8
0
  6
Continuous
 62
     7
370
    25
100
AcDbLine
 10
561.1493825222
 20
208.2842954504
 30
0.0
 11
561.1493825222
 21
209.5848763799
 31
0.0
  0
LINE
  5
150
330
1F
100
AcDbEntity
  8
0
  6
Continuous
 62
     7
370
    25
100
AcDbLine
 10
561.4634850863
 20
209.2791872773
 30
0.0
 11
561.4634850863
 21
208.2842954504
 31
0.0
  0
LINE
  5
151
330
1F
100
AcDbEntity
  8
0
  6
Continuous
 62
     7
370
    25
100
AcDbLine
 10
561.4634850863
 20
208.2842954504
 30
0.0
 11
561.1493825222
 21
208.2842954504
 31
0.0
  0
SPLINE
  5
152
330
1F
100
AcDbEntity
  8
0
  6
Continuous
 62
     7
370
    25
100
AcDbSpline
210
0.0
220
0.0
230
1.0
 70
     8
 71
     3
 72
    12
 73
     8
 74
     0
 42
0.000000001
 43
0.00000001
 40
0.0
 40
0.0
 40
0.0
 40
0.0
 40
0.1253168236461634
 40
0.2506621621102696
 40
0.37608637178503
 40
0.5015150308073465
 40
1.0
 40
1.0
 40
1.0
 40
1.0
 10
562.2929121696743
 20
210.5727569888844
 30
0.0
 10
562.220166572281
 20
210.567127903559
 30
0.0
 10
562.0746588248288
 20
210.5558684520558
 30
0.0
 10
561.8748018644642
 20
210.4599035926504
 30
0.0
 10
561.7055122287745
 20
210.3207712194886
 30
0.0
 10
561.4587641127715
 20
209.9546231708944
 30
0.0
 10
561.4613883852494
 20
209.5791650582918
 30
0.0
 10
561.4634850863409
 20
209.2791872773459
 30
0.0
  0
SPLINE
  5
153
330
1F
100
AcDbEntity
  8
0
  6
Continuous
 62
     7
370
    25
100
AcDbSpline
210
0.0
220
0.0
230
1.0
 70
     8
 71
     3
 72
     9
 73
     5
 74
     0
 42
0.000000001
 43
0.00000001
 40
0.0
 40
0.0
 40
0.0
 40
0.0
 40
0.5600641881631564
 40
1.0
 40
1.0
 40
1.0
 40
1.0
 10
555.9561733876229
 20
210.5047481747819
 30
0.0
 10
556.0318672148666
 20
210.5255905163055
 30
0.0
 10
556.1670192721544
 20
210.5628047177563
 30
0.0
 10
556.306896153608
 20
210.5697163252366
 30
0.0
 10
556.3684330030076
 20
210.5727569888844
 30
0.0
  0
SPLINE
  5
154
330
1F
100
AcDbEntity
  8
0
  6
Continuous
 62
     7
370
    25
100
AcDbSpline
210
0.0
220
0.0
230
1.0
 70
     8
 71
     3
 72
    11
 73
     7
 74
     0
 42
0.000000001
 43
0.00000001
 40
0.0
 40
0.0
 40
0.0
 40
0.0
 40
0.2798641432854497
 40
0.559270953694913
 40
0.7794235060773148
 40
1.0
 40
1.0
 40
1.0
 40
1.0
 10
557.4698953427511
 20
209.4278250978588
 30
0.0
 10
557.4494045718118
 20
209.2462470741044
 30
0.0
 10
557.4084565144058
 20
208.8833877477076
 30
0.0
 10
557.0940192716246
 20
208.4612661311783
 30
0.0
 10
556.67818028658
 20
208.2271025611467
 30
0.0
 10
556.3923132868586
 20
208.2054090499013
 30
0.0
 10
556.2492422978794
 20
208.1945518606793
 30
0.0
  0
LINE
  5
155
330
1F
100
AcDbEntity
  8
0
  6
Continuous
 62
     7
370
    25
100
AcDbLine
 10
555.1814338043
 20
209.1817313479
 30
0.0
 11
555.4955363684
 21
209.1817313479
 31
0.0
  0
SPLINE
  5
156
330
1F
100
AcDbEntity
  8
0
  6
Continuous
 62
     7
370
    25
100
AcDbSpline
210
0.0
220
0.0
230
1.0
 70
     8
 71
     3
 72
    11
 73
     7
 74
     0
 42
0.000000001
 43
0.00000001
 40
0.0
 40
0.0
 40
0.0
 40
0.0
 40
0.280050174434589
 40
0.5591657137139344
 40
0.7795831368803368
 40
1.0
 40
1.0
 40
1.0
 40
1.0
 10
555.4955363683922
 20
209.1817313478588
 30
0.0
 10
555.5226122368528
 20
209.0828542035332
 30
0.0
 10
555.5766736111857
 20
208.8854299059464
 30
0.0
 10
555.790473948664
 20
208.6853740878794
 30
0.0
 10
556.028598637434
 20
208.5739360843809
 30
0.0
 10
556.1878472562798
 20
208.560329502134
 30
0.0
 10
556.267471464546
 20
208.5535262196537
 30
0.0
  0
SPLINE
  5
157
330
1F
100
AcDbEntity
  8
0
  6
Continuous
 62
     7
370
    25
100
AcDbSpline
210
0.0
220
0.0
230
1.0
 70
     8
 71
     3
 72
    11
 73
     7
 74
     0
 42
0.000000001
 43
0.00000001
 40
0.0
 40
0.0
 40
0.0
 40
0.0
 40
0.2796170238097913
 40
0.5593571245928788
 40
0.7795591890944644
 40
1.0
 40
1.0
 40
1.0
 40
1.0
 10
556.267471464546
 20
208.5535262196536
 30
0.0
 10
556.3985887439309
 20
208.5689181743618
 30
0.0
 10
556.6608810156314
 20
208.5997088587418
 30
0.0
 10
556.9532218525036
 20
208.8389700389467
 30
0.0
 10
557.1310601026073
 20
209.131640509912
 30
0.0
 10
557.147545575949
 20
209.3379405192122
 30
0.0
 10
557.1557927786486
 20
209.4411464119613
 30
0.0
  0
SPLINE
  5
158
330
1F
100
AcDbEntity
  8
0
  6
Continuous
 62
     7
370
    25
100
AcDbSpline
210
0.0
220
0.0
230
1.0
 70
     8
 71
     3
 72
    11
 73
     7
 74
     0
 42
0.000000001
 43
0.00000001
 40
0.0
 40
0.0
 40
0.0
 40
0.0
 40
0.2795389690236793
 40
0.5586168329831548
 40
0.7790472620763185
 40
1.0
 40
1.0
 40
1.0
 40
1.0
 10
557.1557927786486
 20
209.4411464119613
 30
0.0
 10
557.1428451622897
 20
209.5622482064993
 30
0.0
 10
557.1169712869216
 20
209.8042520357674
 30
0.0
 10
556.8811303708197
 20
210.0670185876456
 30
0.0
 10
556.5958563797323
 20
210.1973137402471
 30
0.0
 10
556.4064549274515
 20
210.2082886709771
 30
0.0
 10
556.3116421376229
 20
210.2137826299101
 30
0.0
  0
SPLINE
  5
159
330
1F
100
AcDbEntity
  8
0
  6
Continuous
 62
     7
370
    25
100
AcDbSpline
210
0.0
220
0.0
230
1.0
 70
     8
 71
     3
 72
     9
 73
     5
 74
     0
 42
0.000000001
 43
0.00000001
 40
0.0
 40
0.0
 40
0.0
 40
0.0
 40
0.559416157952814
 40
0.9999999999999999
 40
0.9999999999999999
 40
0.9999999999999999
 40
0.9999999999999999
 10
556.3116421376229
 20
210.2137826299101
 30
0.0
 10
556.1634157558543
 20
210.1984186329586
 30
0.0
 10
555.8984495412367
 20
210.1709542904776
 30
0.0
 10
555.6499104645636
 20
210.0760907802355
 30
0.0
 10
555.540408163264
 20
210.0342954504229
 30
0.0
  0
LINE
  5
15A
330
1F
100
AcDbEntity
  8
0
  6
Continuous
 62
     7
370
    25
100
AcDbLine
 10
557.3352799581
 20
211.4253210914
 30
0.0
 11
556.1447751504
 21
211.4253210914
 31
0.0
  0
LINE
  5
15B
330
1F
100
AcDbEntity
  8
0
  6
Continuous
 62
     7
370
    25
100
AcDbLine
 10
556.1447751504
 20
211.4253210914
 30
0.0
 11
555.9561733876
 21
210.5047481748
 31
0.0
  0
SPLINE
  5
15C
330
1F
100
AcDbEntity
  8
0
  6
Continuous
 62
     7
370
    25
100
AcDbSpline
210
0.0
220
0.0
230
1.0
 70
     8
 71
     3
 72
    11
 73
     7
 74
     0
 42
0.000000001
 43
0.00000001
 40
0.0
 40
0.0
 40
0.0
 40
0.0
 40
0.2796245285186064
 40
0.5590191589951335
 40
0.7793803439134613
 40
1.0
 40
1.0
 40
1.0
 40
1.0
 10
556.2492422978794
 20
208.1945518606793
 30
0.0
 10
556.0991950217201
 20
208.2099012839012
 30
0.0
 10
555.7992238333111
 20
208.2405875105565
 30
0.0
 10
555.4600421288327
 20
208.5084203195059
 30
0.0
 10
555.2502317565861
 20
208.8350180654114
 30
0.0
 10
555.2043754142821
 20
209.0661151029036
 30
0.0
 10
555.1814338042897
 20
209.1817313478588
 30
0.0
  0
LINE
  5
15D
330
1F
100
AcDbEntity
  8
0
  6
Continuous
 62
     7
370
    25
100
AcDbLine
 10
555.5404081633
 20
210.0342954504
 30
0.0
 11
555.8993825222
 21
211.7842954504
 31
0.0
  0
LINE
  5
15E
330
1F
100
AcDbEntity
  8
0
  6
Continuous
 62
     7
370
    25
100
AcDbLine
 10
557.3352799581
 20
211.7842954504
 30
0.0
 11
557.3352799581
 21
211.4253210914
 31
0.0
  0
SPLINE
  5
15F
330
1F
100
AcDbEntity
  8
0
  6
Continuous
 62
     7
370
    25
100
AcDbSpline
210
0.0
220
0.0
230
1.0
 70
     8
 71
     3
 72
    11
 73
     7
 74
     0
 42
0.000000001
 43
0.00000001
 40
0.0
 40
0.0
 40
0.0
 40
0.0
 40
0.279688101387283
 40
0.5590254628568477
 40
0.7792915544457225
 40
0.9999999999999999
 40
0.9999999999999999
 40
0.9999999999999999
 40
0.9999999999999999
 10
556.3684330030076
 20
210.5727569888844
 30
0.0
 10
556.5358071910522
 20
210.555000841946
 30
0.0
 10
556.8703456733037
 20
210.5195108149781
 30
0.0
 10
557.2383296644007
 20
210.2044721172381
 30
0.0
 10
557.4432162981419
 20
209.8212917118057
 30
0.0
 10
557.4609963826471
 20
209.5590683170628
 30
0.0
 10
557.4698953427511
 20
209.4278250978588
 30
0.0
  0
LINE
  5
160
330
1F
100
AcDbEntity
  8
0
  6
Continuous
 62
     7
370
    25
100
AcDbLine
 10
555.8993825222
 20
211.7842954504
 30
0.0
 11
557.3352799581
 21
211.7842954504
 31
0.0
  0
LINE
  5
161
330
1F
100
AcDbEntity
  8
0
  6
Continuous
 62
     7
370
    25
100
AcDbLine
 10
555.0579281145
 20
193.5200707736
 30
0.0
 11
554.5806644927
 21
193.7980154851
 31
0.0
  0
LINE
  5
162
330
1F
100
AcDbEntity
  8
0
  6
Continuous
 62
     7
370
    25
100
AcDbLine
 10
554.5806644927
 20
193.7980154851
 30
0.0
 11
553.455364012
 21
191.8649225364
 31
0.0
  0
LINE
  5
163
330
1F
100
AcDbEntity
  8
0
  6
Continuous
 62
     7
370
    25
100
AcDbLine
 10
553.455364012
 20
191.8649225364
 30
0.0
 11
553.237014653
 21
191.9921260621
 31
0.0
  0
LINE
  5
164
330
1F
100
AcDbEntity
  8
0
  6
Continuous
 62
     7
370
    25
100
AcDbLine
 10
553.237014653
 20
191.9921260621
 30
0.0
 11
554.3623151338
 21
193.9252190108
 31
0.0
  0
LINE
  5
165
330
1F
100
AcDbEntity
  8
0
  6
Continuous
 62
     7
370
    25
100
AcDbLine
 10
554.3623151338
 20
193.9252190108
 30
0.0
 11
553.8835491081
 21
194.2036645236
 31
0.0
  0
LINE
  5
166
330
1F
100
AcDbEntity
  8
0
  6
Continuous
 62
     7
370
    25
100
AcDbLine
 10
553.8835491081
 20
194.2036645236
 30
0.0
 11
554.0042422171
 21
194.4114970557
 31
0.0
  0
LINE
  5
167
330
1F
100
AcDbEntity
  8
0
  6
Continuous
 62
     7
370
    25
100
AcDbLine
 10
554.0042422171
 20
194.4114970557
 30
0.0
 11
555.1786212235
 21
193.7279033057
 31
0.0
  0
LINE
  5
168
330
1F
100
AcDbEntity
  8
0
  6
Continuous
 62
     7
370
    25
100
AcDbLine
 10
555.1786212235
 20
193.7279033057
 30
0.0
 11
555.0579281145
 21
193.5200707736
 31
0.0
  0
LINE
  5
169
330
1F
100
AcDbEntity
  8
0
  6
Continuous
 62
     7
370
    25
100
AcDbLine
 10
557.1795047011
 20
191.8838427901
 30
0.0
 11
557.5911633549
 21
191.7962025657
 31
0.0
  0
SPLINE
  5
16A
330
1F
100
AcDbEntity
  8
0
  6
Continuous
 62
     7
370
    25
100
AcDbSpline
210
0.0
220
0.0
230
1.0
 70
     8
 71
     3
 72
    11
 73
     7
 74
     0
 42
0.000000001
 43
0.00000001
 40
0.0
 40
0.0
 40
0.0
 40
0.0
 40
0.4990852027493056
 40
0.6247854232084372
 40
0.7505539693395435
 40
1.0
 40
1.0
 40
1.0
 40
1.0
 10
557.5911633549441
 20
191.7962025657408
 30
0.0
 10
557.7383256272149
 20
191.7671242851265
 30
0.0
 10
557.9225523725772
 20
191.7307223125581
 30
0.0
 10
558.1204839355509
 20
191.8244905011246
 30
0.0
 10
558.2305145461806
 20
191.921606155831
 30
0.0
 10
558.2667158158112
 20
192.0255664138303
 30
0.0
 10
558.2907827459698
 20
192.0946801298434
 30
0.0
  0
SPLINE
  5
16B
330
1F
100
AcDbEntity
  8
0
  6
Continuous
 62
     7
370
    25
100
AcDbSpline
210
0.0
220
0.0
230
1.0
 70
     8
 71
     3
 72
    11
 73
     7
 74
     0
 42
0.000000001
 43
0.00000001
 40
0.0
 40
0.0
 40
0.0
 40
0.0
 40
0.2495279978551693
 40
0.3753778677299404
 40
0.501069786724622
 40
1.0
 40
1.0
 40
1.0
 40
1.0
 10
558.2907827459698
 20
192.0946801298434
 30
0.0
 10
558.2946908699513
 20
192.1657797111829
 30
0.0
 10
558.3005700629062
 20
192.2727384872287
 30
0.0
 10
558.2395193120176
 20
192.401611213071
 30
0.0
 10
558.1011970994437
 20
192.564196609187
 30
0.0
 10
557.9206642681012
 20
192.5991289458091
 30
0.0
 10
557.776459829303
 20
192.6270318926639
 30
0.0
  0
LINE
  5
16C
330
1F
100
AcDbEntity
  8
0
  6
Continuous
 62
     7
370
    25
100
AcDbLine
 10
557.7764598293
 20
192.6270318927
 30
0.0
 11
557.3452699255
 21
192.7131697132
 31
0.0
  0
LINE
  5
16D
330
1F
100
AcDbEntity
  8
0
  6
Continuous
 62
     7
370
    25
100
AcDbLine
 10
557.1484550216
 20
192.9991272452
 30
0.0
 11
557.6342322652
 21
192.9019717965
 31
0.0
  0
SPLINE
  5
16E
330
1F
100
AcDbEntity
  8
0
  6
Continuous
 62
     7
370
    25
100
AcDbSpline
210
0.0
220
0.0
230
1.0
 70
     8
 71
     3
 72
     9
 73
     5
 74
     0
 42
0.000000001
 43
0.00000001
 40
0.0
 40
0.0
 40
0.0
 40
0.0
 40
0.5603018652254497
 40
1.0
 40
1.0
 40
1.0
 40
1.0
 10
557.6342322652005
 20
192.90197179651
 30
0.0
 10
557.7402519037496
 20
192.8814279709537
 30
0.0
 10
557.9294706894239
 20
192.8447623326051
 30
0.0
 10
558.111211983031
 20
192.7808396838752
 30
0.0
 10
558.1911232908416
 20
192.7527330144588
 30
0.0
  0
SPLINE
  5
16F
330
1F
100
AcDbEntity
  8
0
  6
Continuous
 62
     7
370
    25
100
AcDbSpline
210
0.0
220
0.0
230
1.0
 70
     8
 71
     3
 72
    11
 73
     7
 74
     0
 42
0.000000001
 43
0.00000001
 40
0.0
 40
0.0
 40
0.0
 40
0.0
 40
0.2797926998321945
 40
0.5594382739304354
 40
0.7795788446031165
 40
1.0
 40
1.0
 40
1.0
 40
1.0
 10
558.1911232908416
 20
192.7527330144588
 30
0.0
 10
558.2604410150711
 20
192.7116597220056
 30
0.0
 10
558.3990400136117
 20
192.6295347350118
 30
0.0
 10
558.5229358199816
 20
192.4356447774089
 30
0.0
 10
558.5695799388424
 20
192.2318531783467
 30
0.0
 10
558.5519881089883
 20
192.1067104266367
 30
0.0
 10
558.5431865921236
 20
192.0440992003562
 30
0.0
  0
SPLINE
  5
170
330
1F
100
AcDbEntity
  8
0
  6
Continuous
 62
     7
370
    25
100
AcDbSpline
210
0.0
220
0.0
230
1.0
 70
     8
 71
     3
 72
    11
 73
     7
 74
     0
 42
0.000000001
 43
0.00000001
 40
0.0
 40
0.0
 40
0.0
 40
0.0
 40
0.2801196586260683
 40
0.5592799232203957
 40
0.7794314120205851
 40
1.0
 40
1.0
 40
1.0
 40
1.0
 10
558.5431865921236
 20
192.0440992003562
 30
0.0
 10
558.5213591577399
 20
191.9650699362889
 30
0.0
 10
558.4777790467042
 20
191.8072820789262
 30
0.0
 10
558.3160930878552
 20
191.6373413747905
 30
0.0
 10
558.1251440397835
 20
191.5452400753763
 30
0.0
 10
557.9975625490441
 20
191.5322640342726
 30
0.0
 10
557.9337114318672
 20
191.5257698734331
 30
0.0
  0
SPLINE
  5
171
330
1F
100
AcDbEntity
  8
0
  6
Continuous
 62
     7
370
    25
100
AcDbSpline
210
0.0
220
0.0
230
1.0
 70
     8
 71
     3
 72
     9
 73
     5
 74
     0
 42
0.000000001
 43
0.00000001
 40
0.0
 40
0.0
 40
0.0
 40
0.0
 40
0.5597062821770465
 40
0.9999999999999999
 40
0.9999999999999999
 40
0.9999999999999999
 40
0.9999999999999999
 10
557.9337114318672
 20
191.5257698734331
 30
0.0
 10
557.8155442371839
 20
191.5344058139281
 30
0.0
 10
557.6044206560374
 20
191.5498352289087
 30
0.0
 10
557.3970226592496
 20
191.5918891936255
 30
0.0
 10
557.305706624175
 20
191.6104052900998
 30
0.0
  0
LINE
  5
172
330
1F
100
AcDbEntity
  8
0
  6
Continuous
 62
     7
370
    25
100
AcDbLine
 10
557.3057066242
 20
191.6104052901
 30
0.0
 11
557.1319285793
 21
191.6449605786
 31
0.0
  0
LINE
  5
173
330
1F
100
AcDbEntity
  8
0
  6
Continuous
 62
     7
370
    25
100
AcDbLine
 10
557.1319285793
 20
191.6449605786
 30
0.0
 11
556.9050655985
 21
190.5101448734
 31
0.0
  0
LINE
  5
174
330
1F
100
AcDbEntity
  8
0
  6
Continuous
 62
     7
370
    25
100
AcDbLine
 10
556.9050655985
 20
190.5101448734
 30
0.0
 11
556.6611753742
 21
190.5587225978
 31
0.0
  0
LINE
  5
175
330
1F
100
AcDbEntity
  8
0
  6
Continuous
 62
     7
370
    25
100
AcDbLine
 10
556.6611753742
 20
190.5587225978
 30
0.0
 11
557.1484550216
 21
192.9991272452
 31
0.0
  0
LINE
  5
176
330
1F
100
AcDbEntity
  8
0
  6
Continuous
 62
     7
370
    25
100
AcDbLine
 10
557.3452699255
 20
192.7131697132
 30
0.0
 11
557.1795047011
 21
191.8838427901
 31
0.0
  0
LINE
  5
177
330
1F
100
AcDbEntity
  8
0
  6
Continuous
 62
     7
370
    25
100
AcDbLine
 10
559.7818507929
 20
192.6047334794
 30
0.0
 11
559.8219148955
 21
191.5615644089
 31
0.0
  0
LINE
  5
178
330
1F
100
AcDbEntity
  8
0
  6
Continuous
 62
     7
370
    25
100
AcDbLine
 10
559.8219148955
 20
191.5615644089
 30
0.0
 11
561.0859373313
 21
191.6101421333
 31
0.0
  0
LINE
  5
179
330
1F
100
AcDbEntity
  8
0
  6
Continuous
 62
     7
370
    25
100
AcDbLine
 10
561.0859373313
 20
191.6101421333
 30
0.0
 11
561.0458732288
 21
192.6533112038
 31
0.0
  0
LINE
  5
17A
330
1F
100
AcDbEntity
  8
0
  6
Continuous
 62
     7
370
    25
100
AcDbLine
 10
561.0458732288
 20
192.6533112038
 30
0.0
 11
561.2962738698
 21
192.6633272294
 31
0.0
  0
LINE
  5
17B
330
1F
100
AcDbEntity
  8
0
  6
Continuous
 62
     7
370
    25
100
AcDbLine
 10
559.8775038378
 20
190.118255114
 30
0.0
 11
559.6271031967
 21
190.1087398897
 31
0.0
  0
LINE
  5
17C
330
1F
100
AcDbEntity
  8
0
  6
Continuous
 62
     7
370
    25
100
AcDbLine
 10
559.5314501519
 20
192.5952182551
 30
0.0
 11
559.7818507929
 21
192.6047334794
 31
0.0
  0
LINE
  5
17D
330
1F
100
AcDbEntity
  8
0
  6
Continuous
 62
     7
370
    25
100
AcDbLine
 10
561.2962738698
 20
192.6633272294
 30
0.0
 11
561.3919269147
 21
190.176848864
 31
0.0
  0
LINE
  5
17E
330
1F
100
AcDbEntity
  8
0
  6
Continuous
 62
     7
370
    25
100
AcDbLine
 10
561.3919269147
 20
190.176848864
 30
0.0
 11
561.1415262737
 21
190.1668328384
 31
0.0
  0
LINE
  5
17F
330
1F
100
AcDbEntity
  8
0
  6
Continuous
 62
     7
370
    25
100
AcDbLine
 10
561.1415262737
 20
190.1668328384
 30
0.0
 11
561.0954525557
 21
191.3667527102
 31
0.0
  0
LINE
  5
180
330
1F
100
AcDbEntity
  8
0
  6
Continuous
 62
     7
370
    25
100
AcDbLine
 10
561.0954525557
 20
191.3667527102
 30
0.0
 11
559.8314301198
 21
191.3181749858
 31
0.0
  0
LINE
  5
181
330
1F
100
AcDbEntity
  8
0
  6
Continuous
 62
     7
370
    25
100
AcDbLine
 10
559.8314301198
 20
191.3181749858
 30
0.0
 11
559.8775038378
 21
190.118255114
 31
0.0
  0
LINE
  5
182
330
1F
100
AcDbEntity
  8
0
  6
Continuous
 62
     7
370
    25
100
AcDbLine
 10
559.6271031967
 20
190.1087398897
 30
0.0
 11
559.5314501519
 21
192.5952182551
 31
0.0
  0
SPLINE
  5
183
330
1F
100
AcDbEntity
  8
0
  6
Continuous
 62
     7
370
    25
100
AcDbSpline
210
0.0
220
0.0
230
1.0
 70
     8
 71
     3
 72
    11
 73
     7
 74
     0
 42
0.000000001
 43
0.00000001
 40
0.0
 40
0.0
 40
0.0
 40
0.0
 40
0.2796613318902449
 40
0.5593708389412665
 40
0.7796493272858757
 40
1.0
 40
1.0
 40
1.0
 40
1.0
 10
561.8892994173815
 20
191.4535397612494
 30
0.0
 10
561.9384348290239
 20
191.3048828075831
 30
0.0
 10
562.0367141164979
 20
191.0075432922319
 30
0.0
 10
562.3873048565216
 20
190.729114489506
 30
0.0
 10
562.7686614258811
 20
190.5923207668853
 30
0.0
 10
563.0120675857885
 20
190.6215933697659
 30
0.0
 10
563.133790603279
 20
190.6362320689417
 30
0.0
  0
SPLINE
  5
184
330
1F
100
AcDbEntity
  8
0
  6
Continuous
 62
     7
370
    25
100
AcDbSpline
210
0.0
220
0.0
230
1.0
 70
     8
 71
     3
 72
    11
 73
     7
 74
     0
 42
0.000000001
 43
0.00000001
 40
0.0
 40
0.0
 40
0.0
 40
0.0
 40
0.2796599066902092
 40
0.5591611231807185
 40
0.7794969075617469
 40
1.0
 40
1.0
 40
1.0
 40
1.0
 10
563.133790603279
 20
190.6362320689417
 30
0.0
 10
563.2833979249755
 20
190.6871248695381
 30
0.0
 10
563.5825276751993
 20
190.7888815921235
 30
0.0
 10
563.8705665098433
 20
191.140099398495
 30
0.0
 10
563.9952532687988
 20
191.5309950949026
 30
0.0
 10
563.9658203434717
 20
191.7768030708264
 30
0.0
 10
563.9510982955867
 20
191.8997537035571
 30
0.0
  0
SPLINE
  5
185
330
1F
100
AcDbEntity
  8
0
  6
Continuous
 62
     7
370
    25
100
AcDbSpline
210
0.0
220
0.0
230
1.0
 70
     8
 71
     3
 72
    11
 73
     7
 74
     0
 42
0.000000001
 43
0.00000001
 40
0.0
 40
0.0
 40
0.0
 40
0.0
 40
0.2796889082015374
 40
0.5591090126616117
 40
0.7796641885216642
 40
1.0
 40
1.0
 40
1.0
 40
1.0
 10
563.9510982955867
 20
191.8997537035571
 30
0.0
 10
563.9013321750126
 20
192.0493741373519
 30
0.0
 10
563.8018477631456
 20
192.348471207561
 30
0.0
 10
563.4487048971617
 20
192.6308255353377
 30
0.0
 10
563.0625656816778
 20
192.7615799190124
 30
0.0
 10
562.8172064538503
 20
192.7359030553473
 30
0.0
 10
562.6945878789201
 20
192.7230710112493
 30
0.0
  0
SPLINE
  5
186
330
1F
100
AcDbEntity
  8
0
  6
Continuous
 62
     7
370
    25
100
AcDbSpline
210
0.0
220
0.0
230
1.0
 70
     8
 71
     3
 72
    11
 73
     7
 74
     0
 42
0.000000001
 43
0.00000001
 40
0.0
 40
0.0
 40
0.0
 40
0.0
 40
0.2794307182324025
 40
0.5590954197120768
 40
0.7794760642147371
 40
0.9999999999999999
 40
0.9999999999999999
 40
0.9999999999999999
 40
0.9999999999999999
 10
562.6945878789201
 20
192.7230710112493
 30
0.0
 10
562.5466077104683
 20
192.6697764453804
 30
0.0
 10
562.2505234613459
 20
192.5631426870685
 30
0.0
 10
561.9687164756276
 20
192.2102146244656
 30
0.0
 10
561.8442504643031
 20
191.8209502265617
 30
0.0
 10
561.8742798465671
 20
191.5760364481784
 30
0.0
 10
561.8892994173815
 20
191.4535397612494
 30
0.0
  0
SPLINE
  5
187
330
1F
100
AcDbEntity
  8
0
  6
Continuous
 62
     7
370
    25
100
AcDbSpline
210
0.0
220
0.0
230
1.0
 70
     8
 71
     3
 72
    11
 73
     7
 74
     0
 42
0.000000001
 43
0.00000001
 40
0.0
 40
0.0
 40
0.0
 40
0.0
 40
0.2797502484930256
 40
0.5593369297581249
 40
0.7795671923589651
 40
1.0
 40
1.0
 40
1.0
 40
1.0
 10
562.6324885199456
 20
192.9594492163776
 30
0.0
 10
562.8279366092463
 20
192.9795831615252
 30
0.0
 10
563.2187185112658
 20
193.0198392797
 30
0.0
 10
563.7205688449797
 20
192.7657512648214
 30
0.0
 10
564.0699060327139
 20
192.3949973706162
 30
0.0
 10
564.1586226453985
 20
192.1002700390347
 30
0.0
 10
564.2030013404584
 20
191.9528386394545
 30
0.0
  0
SPLINE
  5
188
330
1F
100
AcDbEntity
  8
0
  6
Continuous
 62
     7
370
    25
100
AcDbSpline
210
0.0
220
0.0
230
1.0
 70
     8
 71
     3
 72
    11
 73
     7
 74
     0
 42
0.000000001
 43
0.00000001
 40
0.0
 40
0.0
 40
0.0
 40
0.0
 40
0.2795853946967609
 40
0.5593117102135112
 40
0.7795704595761235
 40
1.0
 40
1.0
 40
1.0
 40
1.0
 10
564.2030013404584
 20
191.9528386394545
 30
0.0
 10
564.2211692167831
 20
191.7589590679316
 30
0.0
 10
564.2575141266777
 20
191.3711022027989
 30
0.0
 10
563.997486616019
 20
190.8783944720504
 30
0.0
 10
563.6304168921615
 20
190.5327841575339
 30
0.0
 10
563.3384329195472
 20
190.4445092330452
 30
0.0
 10
563.192384353279
 20
190.4003546650955
 30
0.0
  0
SPLINE
  5
189
330
1F
100
AcDbEntity
  8
0
  6
Continuous
 62
     7
370
    25
100
AcDbSpline
210
0.0
220
0.0
230
1.0
 70
     8
 71
     3
 72
    11
 73
     7
 74
     0
 42
0.000000001
 43
0.00000001
 40
0.0
 40
0.0
 40
0.0
 40
0.0
 40
0.2796754780685981
 40
0.559336359182742
 40
0.7796171212390687
 40
1.0
 40
1.0
 40
1.0
 40
1.0
 10
563.192384353279
 20
190.4003546650955
 30
0.0
 10
562.9987486067843
 20
190.3813431054797
 30
0.0
 10
562.6114872201227
 20
190.3433209785084
 30
0.0
 10
562.1178718392516
 20
190.5992848416274
 30
0.0
 10
561.7683969882601
 20
190.96237421262
 30
0.0
 10
561.679734623033
 20
191.2540715548655
 30
0.0
 10
561.6353931673815
 20
191.3999540240699
 30
0.0
  0
SPLINE
  5
18A
330
1F
100
AcDbEntity
  8
0
  6
Continuous
 62
     7
370
    25
100
AcDbSpline
210
0.0
220
0.0
230
1.0
 70
     8
 71
     3
 72
    11
 73
     7
 74
     0
 42
0.000000001
 43
0.00000001
 40
0.0
 40
0.0
 40
0.0
 40
0.0
 40
0.2797089870275242
 40
0.5593166732041048
 40
0.7796787964274712
 40
1.0
 40
1.0
 40
1.0
 40
1.0
 10
561.6353931673815
 20
191.3999540240699
 30
0.0
 10
561.618550433694
 20
191.5930167610781
 30
0.0
 10
561.5848710661703
 20
191.9790723144967
 30
0.0
 10
561.828818397053
 20
192.4785269870084
 30
0.0
 10
562.1980448719526
 20
192.8214079083874
 30
0.0
 10
562.4876829353956
 20
192.9134382955415
 30
0.0
 10
562.6324885199456
 20
192.9594492163776
 30
0.0
  0
LINE
  5
18B
330
1F
100
AcDbEntity
  8
0
  6
Continuous
 62
     7
370
    25
100
AcDbLine
 10
564.172758834
 20
193.2965737433
 30
0.0
 11
565.0466570712
 21
191.2372788715
 31
0.0
  0
LINE
  5
18C
330
1F
100
AcDbEntity
  8
0
  6
Continuous
 62
     7
370
    25
100
AcDbLine
 10
565.0466570712
 20
191.2372788715
 30
0.0
 11
565.9220577122
 21
191.6088734228
 31
0.0
  0
LINE
  5
18D
330
1F
100
AcDbEntity
  8
0
  6
Continuous
 62
     7
370
    25
100
AcDbLine
 10
565.9220577122
 20
191.6088734228
 30
0.0
 11
566.0152067507
 21
191.38902166
 31
0.0
  0
LINE
  5
18E
330
1F
100
AcDbEntity
  8
0
  6
Continuous
 62
     7
370
    25
100
AcDbLine
 10
564.9104391225
 20
190.92027166
 30
0.0
 11
563.9433918468
 21
193.1994182946
 31
0.0
  0
LINE
  5
18F
330
1F
100
AcDbEntity
  8
0
  6
Continuous
 62
     7
370
    25
100
AcDbLine
 10
563.9433918468
 20
193.1994182946
 30
0.0
 11
564.172758834
 21
193.2965737433
 31
0.0
  0
LINE
  5
190
330
1F
100
AcDbEntity
  8
0
  6
Continuous
 62
     7
370
    25
100
AcDbLine
 10
566.0152067507
 20
191.38902166
 30
0.0
 11
564.9104391225
 21
190.92027166
 31
0.0
  0
LINE
  5
191
330
1F
100
AcDbEntity
  8
0
  6
Continuous
 62
     7
370
    25
100
AcDbLine
 10
567.7455363684
 20
208.2842954504
 30
0.0
 11
567.4314338043
 21
208.2842954504
 31
0.0
  0
LINE
  5
192
330
1F
100
AcDbEntity
  8
0
  6
Continuous
 62
     7
370
    25
100
AcDbLine
 10
567.4314338043
 20
208.2842954504
 30
0.0
 11
567.4314338043
 21
209.6711143607
 31
0.0
  0
SPLINE
  5
193
330
1F
100
AcDbEntity
  8
0
  6
Continuous
 62
     7
370
    25
100
AcDbSpline
210
0.0
220
0.0
230
1.0
 70
     8
 71
     3
 72
    11
 73
     7
 74
     0
 42
0.000000001
 43
0.00000001
 40
0.0
 40
0.0
 40
0.0
 40
0.0
 40
0.4994453881352775
 40
0.6249333480045058
 40
0.7505609926737487
 40
1.0
 40
1.0
 40
1.0
 40
1.0
 10
567.4314338042897
 20
209.6711143606793
 30
0.0
 10
567.4386589705482
 20
209.8890317743173
 30
0.0
 10
567.4476994931902
 20
210.1617019443267
 30
0.0
 10
567.2595418186828
 20
210.4173719220927
 30
0.0
 10
567.0885440896526
 20
210.5434218469083
 30
0.0
 10
566.9302423898641
 20
210.5610399954752
 30
0.0
 10
566.8249634517255
 20
210.5727569888844
 30
0.0
  0
LINE
  5
194
330
1F
100
AcDbEntity
  8
0
  6
Continuous
 62
     7
370
    25
100
AcDbLine
 10
563.9314338043
 20
210.8419877581
 30
0.0
 11
564.2455363684
 21
210.8419877581
 31
0.0
  0
LINE
  5
195
330
1F
100
AcDbEntity
  8
0
  6
Continuous
 62
     7
370
    25
100
AcDbLine
 10
564.2455363684
 20
210.8419877581
 30
0.0
 11
564.2455363684
 21
210.3974765402
 31
0.0
  0
SPLINE
  5
196
330
1F
100
AcDbEntity
  8
0
  6
Continuous
 62
     7
370
    25
100
AcDbSpline
210
0.0
220
0.0
230
1.0
 70
     8
 71
     3
 72
     9
 73
     5
 74
     0
 42
0.000000001
 43
0.00000001
 40
0.0
 40
0.0
 40
0.0
 40
0.0
 40
0.560148165252204
 40
1.0
 40
1.0
 40
1.0
 40
1.0
 10
564.2455363683921
 20
210.3974765401665
 30
0.0
 10
564.3022340829326
 20
210.4742755585677
 30
0.0
 10
564.4034532211132
 20
210.611380387549
 30
0.0
 10
564.5401692155881
 20
210.7126211054263
 30
0.0
 10
564.6003039965973
 20
210.7571520209357
 30
0.0
  0
SPLINE
  5
197
330
1F
100
AcDbEntity
  8
0
  6
Continuous
 62
     7
370
    25
100
AcDbSpline
210
0.0
220
0.0
230
1.0
 70
     8
 71
     3
 72
    10
 73
     6
 74
     0
 42
0.000000001
 43
0.00000001
 40
0.0
 40
0.0
 40
0.0
 40
0.0
 40
0.2808091187319861
 40
0.5615074020671121
 40
1.0
 40
1.0
 40
1.0
 40
1.0
 10
565.1275475863408
 20
210.886859552987
 30
0.0
 10
565.2297341054459
 20
210.8763611282448
 30
0.0
 10
565.4340668106233
 20
210.8553684224902
 30
0.0
 10
565.7682442558124
 20
210.6679785213485
 30
0.0
 10
565.8759074522499
 20
210.4202263880028
 30
0.0
 10
565.9415499901871
 20
210.2691712517049
 30
0.0
  0
SPLINE
  5
198
330
1F
100
AcDbEntity
  8
0
  6
Continuous
 62
     7
370
    25
100
AcDbSpline
210
0.0
220
0.0
230
1.0
 70
     8
 71
     3
 72
    10
 73
     6
 74
     0
 42
0.000000001
 43
0.00000001
 40
0.0
 40
0.0
 40
0.0
 40
0.0
 40
0.2812634147174466
 40
0.5620938163030657
 40
1.0
 40
1.0
 40
1.0
 40
1.0
 10
565.9415499901871
 20
210.2691712517049
 30
0.0
 10
565.9996359069083
 20
210.3627756344269
 30
0.0
 10
566.1157183154085
 20
210.5498402932262
 30
0.0
 10
566.4231463455774
 20
210.8127152689524
 30
0.0
 10
566.7068178218433
 20
210.8587884481176
 30
0.0
 10
566.8796509517256
 20
210.886859552987
 30
0.0
  0
SPLINE
  5
199
330
1F
100
AcDbEntity
  8
0
  6
Continuous
 62
     7
370
    25
100
AcDbSpline
210
0.0
220
0.0
230
1.0
 70
     8
 71
     3
 72
    11
 73
     7
 74
     0
 42
0.000000001
 43
0.00000001
 40
0.0
 40
0.0
 40
0.0
 40
0.0
 40
0.1868852632170395
 40
0.3735789994304738
 40
0.5602676092233716
 40
1.0
 40
1.0
 40
1.0
 40
1.0
 10
566.8796509517256
 20
210.886859552987
 30
0.0
 10
566.9857859039902
 20
210.8771789395137
 30
0.0
 10
567.1979470374529
 20
210.8578276336216
 30
0.0
 10
567.473969766386
 20
210.6802717942054
 30
0.0
 10
567.7373718629983
 20
210.2892642905742
 30
0.0
 10
567.7421689378654
 20
209.9252449144043
 30
0.0
 10
567.7455363683922
 20
209.6697121170896
 30
0.0
  0
LINE
  5
19A
330
1F
100
AcDbEntity
  8
0
  6
Continuous
 62
     7
370
    25
100
AcDbLine
 10
567.7455363684
 20
209.6697121171
 30
0.0
 11
567.7455363684
 21
208.2842954504
 31
0.0
  0
SPLINE
  5
19B
330
1F
100
AcDbEntity
  8
0
  6
Continuous
 62
     7
370
    25
100
AcDbSpline
210
0.0
220
0.0
230
1.0
 70
     8
 71
     3
 72
    12
 73
     8
 74
     0
 42
0.000000001
 43
0.00000001
 40
0.0
 40
0.0
 40
0.0
 40
0.0
 40
0.1253168236461701
 40
0.25066216211027
 40
0.3760863717850278
 40
0.5015150308073446
 40
0.9999999999999999
 40
0.9999999999999999
 40
0.9999999999999999
 40
0.9999999999999999
 10
566.8249634517255
 20
210.5727569888844
 30
0.0
 10
566.7522178543322
 20
210.567127903559
 30
0.0
 10
566.6067101068801
 20
210.5558684520559
 30
0.0
 10
566.4068531465153
 20
210.4599035926502
 30
0.0
 10
566.2375635108259
 20
210.3207712194887
 30
0.0
 10
565.9908153948229
 20
209.9546231708942
 30
0.0
 10
565.9934396673007
 20
209.5791650582918
 30
0.0
 10
565.9955363683922
 20
209.279187277346
 30
0.0
  0
LINE
  5
19C
330
1F
100
AcDbEntity
  8
0
  6
Continuous
 62
     7
370
    25
100
AcDbLine
 10
564.2455363684
 20
209.3605174056
 30
0.0
 11
564.2455363684
 21
208.2842954504
 31
0.0
  0
LINE
  5
19D
330
1F
100
AcDbEntity
  8
0
  6
Continuous
 62
     7
370
    25
100
AcDbLine
 10
564.2455363684
 20
208.2842954504
 30
0.0
 11
563.9314338043
 21
208.2842954504
 31
0.0
  0
SPLINE
  5
19E
330
1F
100
AcDbEntity
  8
0
  6
Continuous
 62
     7
370
    25
100
AcDbSpline
210
0.0
220
0.0
230
1.0
 70
     8
 71
     3
 72
     9
 73
     5
 74
     0
 42
0.000000001
 43
0.00000001
 40
0.0
 40
0.0
 40
0.0
 40
0.0
 40
0.5597432622766948
 40
1.0
 40
1.0
 40
1.0
 40
1.0
 10
564.6003039965973
 20
210.7571520209357
 30
0.0
 10
564.6946735584086
 20
210.7987178496854
 30
0.0
 10
564.8632679268826
 20
210.8729765885589
 30
0.0
 10
565.0467627528648
 20
210.8826158174994
 30
0.0
 10
565.1275475863408
 20
210.886859552987
 30
0.0
  0
SPLINE
  5
19F
330
1F
100
AcDbEntity
  8
0
  6
Continuous
 62
     7
370
    25
100
AcDbSpline
210
0.0
220
0.0
230
1.0
 70
     8
 71
     3
 72
    11
 73
     7
 74
     0
 42
0.000000001
 43
0.00000001
 40
0.0
 40
0.0
 40
0.0
 40
0.0
 40
0.1865439701482412
 40
0.3733497993475671
 40
0.5601302631262743
 40
1.0
 40
1.0
 40
1.0
 40
1.0
 10
565.0728600863409
 20
210.5727569888844
 30
0.0
 10
564.969772635236
 20
210.5597171511296
 30
0.0
 10
564.7634530251481
 20
210.5336191710908
 30
0.0
 10
564.5038746496623
 20
210.3474940604693
 30
0.0
 10
564.251115016279
 20
209.9651552995391
 30
0.0
 10
564.2478371958701
 20
209.6098910009002
 30
0.0
 10
564.2455363683921
 20
209.3605174055511
 30
0.0
  0
LINE
  5
1A0
330
1F
100
AcDbEntity
  8
0
  6
Continuous
 62
     7
370
    25
100
AcDbLine
 10
565.6814338043
 20
208.2842954504
 30
0.0
 11
565.6814338043
 21
209.5848763799
 31
0.0
  0
LINE
  5
1A1
330
1F
100
AcDbEntity
  8
0
  6
Continuous
 62
     7
370
    25
100
AcDbLine
 10
565.9955363684
 20
209.2791872773
 30
0.0
 11
565.9955363684
 21
208.2842954504
 31
0.0
  0
LINE
  5
1A2
330
1F
100
AcDbEntity
  8
0
  6
Continuous
 62
     7
370
    25
100
AcDbLine
 10
563.9314338043
 20
208.2842954504
 30
0.0
 11
563.9314338043
 21
210.8419877581
 31
0.0
  0
LINE
  5
1A3
330
1F
100
AcDbEntity
  8
0
  6
Continuous
 62
     7
370
    25
100
AcDbLine
 10
565.9955363684
 20
208.2842954504
 30
0.0
 11
565.6814338043
 21
208.2842954504
 31
0.0
  0
SPLINE
  5
1A4
330
1F
100
AcDbEntity
  8
0
  6
Continuous
 62
     7
370
    25
100
AcDbSpline
210
0.0
220
0.0
230
1.0
 70
     8
 71
     3
 72
    11
 73
     7
 74
     0
 42
0.000000001
 43
0.00000001
 40
0.0
 40
0.0
 40
0.0
 40
0.0
 40
0.5005372768658433
 40
0.6258968119147629
 40
0.7513678273463807
 40
1.0
 40
1.0
 40
1.0
 40
1.0
 10
565.6814338042896
 20
209.5848763799101
 30
0.0
 10
565.6909984265023
 20
209.8146755400458
 30
0.0
 10
565.7029585078527
 20
210.1020278879272
 30
0.0
 10
565.5276981004786
 20
210.3906911581194
 30
0.0
 10
565.353016833699
 20
210.5357428256966
 30
0.0
 10
565.184714953064
 20
210.5579787822937
 30
0.0
 10
565.0728600863409
 20
210.5727569888844
 30
0.0
  0
LINE
  5
1A5
330
1F
100
AcDbEntity
  8
0
  6
Continuous
 62
     7
370
    25
100
AcDbLine
 10
555.8968299867
 20
192.9021662168
 30
0.0
 11
555.171168929
 21
192.2245820822
 31
0.0
  0
LINE
  5
1A6
330
1F
100
AcDbEntity
  8
0
  6
Continuous
 62
     7
370
    25
100
AcDbLine
 10
555.171168929
 20
192.2245820822
 30
0.0
 11
555.9584285444
 21
191.9125828834
 31
0.0
  0
LINE
  5
1A7
330
1F
100
AcDbEntity
  8
0
  6
Continuous
 62
     7
370
    25
100
AcDbLine
 10
555.9584285444
 20
191.9125828834
 30
0.0
 11
555.8968299867
 21
192.9021662168
 31
0.0
  0
LINE
  5
1A8
330
1F
100
AcDbEntity
  8
0
  6
Continuous
 62
     7
370
    25
100
AcDbLine
 10
556.1186849547
 20
193.3794298386
 30
0.0
 11
556.2804437688
 21
190.6520660565
 31
0.0
  0
LINE
  5
1A9
330
1F
100
AcDbEntity
  8
0
  6
Continuous
 62
     7
370
    25
100
AcDbLine
 10
555.971950179
 20
191.6506638129
 30
0.0
 11
554.979362038
 21
192.0437928193
 31
0.0
  0
LINE
  5
1AA
330
1F
100
AcDbEntity
  8
0
  6
Continuous
 62
     7
370
    25
100
AcDbLine
 10
554.3198067495
 20
191.4283080437
 30
0.0
 11
554.0628956919
 21
191.529970704
 31
0.0
  0
LINE
  5
1AB
330
1F
100
AcDbEntity
  8
0
  6
Continuous
 62
     7
370
    25
100
AcDbLine
 10
556.0335487367
 20
190.7497223065
 30
0.0
 11
555.971950179
 21
191.6506638129
 31
0.0
  0
LINE
  5
1AC
330
1F
100
AcDbEntity
  8
0
  6
Continuous
 62
     7
370
    25
100
AcDbLine
 10
554.979362038
 20
192.0437928193
 30
0.0
 11
554.3198067495
 21
191.4283080437
 31
0.0
  0
LINE
  5
1AD
330
1F
100
AcDbEntity
  8
0
  6
Continuous
 62
     7
370
    25
100
AcDbLine
 10
554.0628956919
 20
191.529970704
 30
0.0
 11
556.0620944098
 21
193.401465095
 31
0.0
  0
LINE
  5
1AE
330
1F
100
AcDbEntity
  8
0
  6
Continuous
 62
     7
370
    25
100
AcDbLine
 10
556.0620944098
 20
193.401465095
 30
0.0
 11
556.1186849547
 21
193.3794298386
 31
0.0
  0
LINE
  5
1AF
330
1F
100
AcDbEntity
  8
0
  6
Continuous
 62
     7
370
    25
100
AcDbLine
 10
556.2804437688
 20
190.6520660565
 30
0.0
 11
556.0335487367
 21
190.7497223065
 31
0.0
  0
LINE
  5
1B0
330
1F
100
AcDbEntity
  8
0
  6
Continuous
 62
     7
370
    25
100
AcDbLine
 10
566.4028083638
 20
194.4192570079
 30
0.0
 11
566.5230006715
 21
194.2059156617
 31
0.0
  0
LINE
  5
1B1
330
1F
100
AcDbEntity
  8
0
  6
Continuous
 62
     7
370
    25
100
AcDbLine
 10
566.5230006715
 20
194.2059156617
 30
0.0
 11
565.499362851
 21
193.6289925848
 31
0.0
  0
LINE
  5
1B2
330
1F
100
AcDbEntity
  8
0
  6
Continuous
 62
     7
370
    25
100
AcDbLine
 10
565.499362851
 20
193.6289925848
 30
0.0
 11
565.8809734279
 21
192.9524100527
 31
0.0
  0
LINE
  5
1B3
330
1F
100
AcDbEntity
  8
0
  6
Continuous
 62
     7
370
    25
100
AcDbLine
 10
565.1628243895
 20
193.7206392194
 30
0.0
 11
566.4028083638
 21
194.4192570079
 31
0.0
  0
LINE
  5
1B4
330
1F
100
AcDbEntity
  8
0
  6
Continuous
 62
     7
370
    25
100
AcDbLine
 10
565.8809734279
 20
192.9524100527
 30
0.0
 11
566.8955968254
 21
193.5243251168
 31
0.0
  0
LINE
  5
1B5
330
1F
100
AcDbEntity
  8
0
  6
Continuous
 62
     7
370
    25
100
AcDbLine
 10
566.8955968254
 20
193.5243251168
 30
0.0
 11
567.0147875305
 21
193.3124861745
 31
0.0
  0
LINE
  5
1B6
330
1F
100
AcDbEntity
  8
0
  6
Continuous
 62
     7
370
    25
100
AcDbLine
 10
567.0147875305
 20
193.3124861745
 30
0.0
 11
566.0001641331
 21
192.7405711104
 31
0.0
  0
LINE
  5
1B7
330
1F
100
AcDbEntity
  8
0
  6
Continuous
 62
     7
370
    25
100
AcDbLine
 10
566.0001641331
 20
192.7405711104
 30
0.0
 11
566.4784293574
 21
191.8917129373
 31
0.0
  0
LINE
  5
1B8
330
1F
100
AcDbEntity
  8
0
  6
Continuous
 62
     7
370
    25
100
AcDbLine
 10
566.4784293574
 20
191.8917129373
 30
0.0
 11
567.4930527549
 21
192.4636280014
 31
0.0
  0
LINE
  5
1B9
330
1F
100
AcDbEntity
  8
0
  6
Continuous
 62
     7
370
    25
100
AcDbLine
 10
567.4930527549
 20
192.4636280014
 30
0.0
 11
567.6132450626
 21
192.2502866553
 31
0.0
  0
LINE
  5
1BA
330
1F
100
AcDbEntity
  8
0
  6
Continuous
 62
     7
370
    25
100
AcDbLine
 10
567.6132450626
 20
192.2502866553
 30
0.0
 11
566.3822755113
 21
191.5566768796
 31
0.0
  0
LINE
  5
1BB
330
1F
100
AcDbEntity
  8
0
  6
Continuous
 62
     7
370
    25
100
AcDbLine
 10
566.3822755113
 20
191.5566768796
 30
0.0
 11
565.1628243895
 21
193.7206392194
 31
0.0
  0
CIRCLE
  5
1BC
330
1F
100
AcDbEntity
  8
0
  6
Continuous
 62
     7
370
    25
100
AcDbCircle
 10
560.2070748299
 20
203.7878911565
 30
0.0
 40
1.0
  0
CIRCLE
  5
1BD
330
1F
100
AcDbEntity
  8
0
  6
Continuous
 62
     7
370
    25
100
AcDbCircle
 10
560.2070748299
 20
203.7878911565
 30
0.0
 40
17.37026209902425
  0
CIRCLE
  5
1BE
330
1F
100
AcDbEntity
  8
0
  6
Continuous
 62
     7
370
    25
100
AcDbCircle
 10
560.2070748299
 20
203.7878911565
 30
0.0
 40
15.37026209902425
  0
CIRCLE
  5
1BF
330
1F
100
AcDbEntity
  8
0
  6
Continuous
 62
     7
370
    25
100
AcDbCircle
 10
560.2070748299
 20
203.7878911565
 30
0.0
 40
17.5
  0
LINE
  5
1C0
330
1F
100
AcDbEntity
  8
0
  6
Continuous
 62
     7
370
    25
100
AcDbLine
 10
565.4320748299
 20
530.2878911565
 30
0.0
 11
565.4320748299
 21
290.2878911565
 31
0.0
  0
LINE
  5
1C1
330
1F
100
AcDbEntity
  8
0
  6
Continuous
 62
     7
370
    25
100
AcDbLine
 10
565.4320748299
 20
290.2878911565
 30
0.0
 11
563.9320748299
 21
290.2878911565
 31
0.0
  0
LINE
  5
1C2
330
1F
100
AcDbEntity
  8
0
  6
Continuous
 62
     7
370
    25
100
AcDbLine
 10
563.9320748299
 20
290.2878911565
 30
0.0
 11
563.9320748299
 21
530.2878911565
 31
0.0
  0
LINE
  5
1C3
330
1F
100
AcDbEntity
  8
0
  6
Continuous
 62
     7
370
    25
100
AcDbLine
 10
565.4320748299
 20
530.2878911565
 30
0.0
 11
563.9320748299
 21
530.2878911565
 31
0.0
  0
LINE
  5
1C4
330
1F
100
AcDbEntity
  8
0
  6
Continuous
 62
     7
370
    25
100
AcDbLine
 10
615.4320748299
 20
581.7878911565
 30
0.0
 11
685.4320748299
 21
581.7878911565
 31
0.0
  0
LINE
  5
1C5
330
1F
100
AcDbEntity
  8
0
  6
Continuous
 62
     7
370
    25
100
AcDbLine
 10
685.4320748299
 20
581.7878911565
 30
0.0
 11
685.4320748299
 21
580.2878911565
 31
0.0
  0
LINE
  5
1C6
330
1F
100
AcDbEntity
  8
0
  6
Continuous
 62
     7
370
    25
100
AcDbLine
 10
685.4320748299
 20
580.2878911565
 30
0.0
 11
615.4320748299
 21
580.2878911565
 31
0.0
  0
LINE
  5
1C7
330
1F
100
AcDbEntity
  8
0
  6
Continuous
 62
     7
370
    25
100
AcDbLine
 10
615.4320748299
 20
581.7878911565
 30
0.0
 11
615.4320748299
 21
580.2878911565
 31
0.0
  0
ARC
  5
1C8
330
1F
100
AcDbEntity
  8
0
  6
Continuous
 62
     7
370
    25
100
AcDbCircle
 10
615.4320748299
 20
290.2878911565
 30
0.0
 40
50.0
100
AcDbArc
 50
180.0
 51
270.0
  0
LINE
  5
1C9
330
1F
100
AcDbEntity
  8
0
  6
Continuous
 62
     7
370
    25
100
AcDbLine
 10
615.4320748299
 20
240.2878911565
 30
0.0
 11
615.4320748299
 21
238.7878911565
 31
0.0
  0
ARC
  5
1CA
330
1F
100
AcDbEntity
  8
0
  6
Continuous
 62
     7
370
    25
100
AcDbCircle
 10
615.4320748299
 20
290.2878911565
 30
0.0
 40
51.5
100
AcDbArc
 50
180.0
 51
270.0
  0
ARC
  5
1CB
330
1F
100
AcDbEntity
  8
0
  6
Continuous
 62
     7
370
    25
100
AcDbCircle
 10
685.4320748299
 20
530.2878911565
 30
0.0
 40
50.00000000000011
100
AcDbArc
 50
0.0
 51
90.0
  0
ARC
  5
1CC
330
1F
100
AcDbEntity
  8
0
  6
Continuous
 62
     7
370
    25
100
AcDbCircle
 10
685.4320748299
 20
290.2878911565
 30
0.0
 40
50.00000000000011
100
AcDbArc
 50
270.0
 51
0.0
  0
LINE
  5
1CD
330
1F
100
AcDbEntity
  8
0
  6
Continuous
 62
     7
370
    25
100
AcDbLine
 10
685.4320748299
 20
240.2878911565
 30
0.0
 11
685.4320748299
 21
238.7878911565
 31
0.0
  0
ARC
  5
1CE
330
1F
100
AcDbEntity
  8
0
  6
Continuous
 62
     7
370
    25
100
AcDbCircle
 10
615.4320748299
 20
530.2878911565
 30
0.0
 40
50.0
100
AcDbArc
 50
90.0
 51
180.0
  0
ARC
  5
1CF
330
1F
100
AcDbEntity
  8
0
  6
Continuous
 62
     7
370
    25
100
AcDbCircle
 10
615.4320748299
 20
530.2878911565
 30
0.0
 40
51.5
100
AcDbArc
 50
90.0
 51
180.0
  0
LINE
  5
1D0
330
1F
100
AcDbEntity
  8
0
  6
Continuous
 62
     7
370
    25
100
AcDbLine
 10
615.4320748299
 20
240.2878911565
 30
0.0
 11
685.4320748299
 21
240.2878911565
 31
0.0
  0
LINE
  5
1D1
330
1F
100
AcDbEntity
  8
0
  6
Continuous
 62
     7
370
    25
100
AcDbLine
 10
685.4320748299
 20
238.7878911565
 30
0.0
 11
615.4320748299
 21
238.7878911565
 31
0.0
  0
LINE
  5
1D2
330
1F
100
AcDbEntity
  8
0
  6
Continuous
 62
     7
370
    25
100
AcDbLine
 10
735.4320748299
 20
290.2878911565
 30
0.0
 11
735.4320748299
 21
530.2878911565
 31
0.0
  0
LINE
  5
1D3
330
1F
100
AcDbEntity
  8
0
  6
Continuous
 62
     7
370
    25
100
AcDbLine
 10
565.4320748299
 20
530.2878911565
 30
0.0
 11
567.5279410811
 21
530.2878911565
 31
0.0
  0
SPLINE
  5
1D4
330
1F
100
AcDbEntity
  8
0
  6
Continuous
 62
     7
370
    25
100
AcDbSpline
210
0.0
220
0.0
230
1.0
 70
     8
 71
     3
 72
    24
 73
    20
 74
     0
 42
0.000000001
 43
0.00000001
 40
0.0
 40
0.0
 40
0.0
 40
0.0
 40
0.0568129086105969
 40
0.1174893747162476
 40
0.1820314090114649
 40
0.2498913090369812
 40
0.2891073361020604
 40
0.3310654565517021
 40
0.3828317011519687
 40
0.4444060978806351
 40
0.5127416194963962
 40
0.5709741347499734
 40
0.638146432167507
 40
0.6973550281186118
 40
0.7486003490480672
 40
0.8158345508320627
 40
0.8803956242685927
 40
0.9417832211066175
 40
1.0
 40
1.0
 40
1.0
 40
1.0
 10
568.3310567637463
 20
441.308351009478
 30
0.0
 10
568.3179138440908
 20
442.9951745649568
 30
0.0
 10
568.2907342215362
 20
446.4835339825007
 30
0.0
 10
568.243410408496
 20
451.8854760079322
 30
0.0
 10
568.1900326394012
 20
457.6132225464733
 30
0.0
 10
568.1401259909593
 20
462.7026119925793
 30
0.0
 10
568.0948382423735
 20
467.1207740959476
 30
0.0
 10
568.0539353760253
 20
471.0613123598902
 30
0.0
 10
568.0060869436045
 20
475.6642744186768
 30
0.0
 10
567.9503305200624
 20
481.0488110431606
 30
0.0
 10
567.8927894002508
 20
486.6246593083168
 30
0.0
 10
567.8348608991993
 20
492.3668602891117
 30
0.0
 10
567.781389337211
 20
497.8393262518714
 30
0.0
 10
567.7319061967188
 20
503.1056347858367
 30
0.0
 10
567.6847639950036
 20
508.3750568451332
 30
0.0
 10
567.6396058738836
 20
513.8051325755004
 30
0.0
 10
567.5961466144093
 20
519.5383443200054
 30
0.0
 10
567.5585734355878
 20
525.0059686902913
 30
0.0
 10
567.537969792327
 20
528.558645201481
 30
0.0
 10
567.5279410811131
 20
530.2878911564626
 30
0.0
  0
SPLINE
  5
1D5
330
1F
100
AcDbEntity
  8
0
  6
Continuous
 62
     7
370
    25
100
AcDbSpline
210
0.0
220
0.0
230
1.0
 70
     8
 71
     3
 72
    18
 73
    14
 74
     0
 42
0.000000001
 43
0.00000001
 40
0.0
 40
0.0
 40
0.0
 40
0.0
 40
0.0897547501063258
 40
0.1869555096623351
 40
0.2834432441727712
 40
0.3810106492998868
 40
0.4702422965630477
 40
0.5512778299730561
 40
0.6362990636865887
 40
0.7333318300396349
 40
0.8240315836081247
 40
0.9121087328432939
 40
1.0
 40
1.0
 40
1.0
 40
1.0
 10
568.3313717581893
 20
379.2636010285559
 30
0.0
 10
568.3492295046352
 20
381.1221917071052
 30
0.0
 10
568.3864264672945
 20
384.9935608229482
 30
0.0
 10
568.47326740375
 20
390.8427024437037
 30
0.0
 10
568.5720572482103
 20
396.8450782354057
 30
0.0
 10
568.6446950856913
 20
402.7040435979134
 30
0.0
 10
568.6809967188851
 20
408.2608267054889
 30
0.0
 10
568.6747083569314
 20
413.5634641409999
 30
0.0
 10
568.62917898273
 20
419.0173034779476
 30
0.0
 10
568.5553792982475
 20
424.6549294367488
 30
0.0
 10
568.468221636856
 20
430.3441795303546
 30
0.0
 10
568.3810250070403
 20
435.8426478625817
 30
0.0
 10
568.348068467484
 20
439.4878955769809
 30
0.0
 10
568.3316076043241
 20
441.3085941278229
 30
0.0
  0
SPLINE
  5
1D6
330
1F
100
AcDbEntity
  8
0
  6
Continuous
 62
     7
370
    25
100
AcDbSpline
210
0.0
220
0.0
230
1.0
 70
     8
 71
     3
 72
    23
 73
    19
 74
     0
 42
0.000000001
 43
0.00000001
 40
0.0
 40
0.0
 40
0.0
 40
0.0
 40
0.0730918568625611
 40
0.1511193007726136
 40
0.2340872006526927
 40
0.3020181611694017
 40
0.3476930811268127
 40
0.3982619382080776
 40
0.4537248897972532
 40
0.5164439411985617
 40
0.583591843719468
 40
0.6409138288470535
 40
0.6884099169230269
 40
0.7260801442120102
 40
0.7584623069601415
 40
0.8121474725690554
 40
0.9106660126385633
 40
0.9999999999999999
 40
0.9999999999999999
 40
0.9999999999999999
 40
0.9999999999999999
 10
567.5279410811131
 20
290.2878911564625
 30
0.0
 10
567.5406768954313
 20
292.4588275335819
 30
0.0
 10
567.5670085202817
 20
296.947294531335
 30
0.0
 10
567.61695461244
 20
303.8956444863749
 30
0.0
 10
567.6714735778573
 20
310.6877420685407
 30
0.0
 10
567.7231251528559
 20
316.5172718511409
 30
0.0
 10
567.768566781124
 20
321.3847175967456
 30
0.0
 10
567.8119274254549
 20
325.8818243286881
 30
0.0
 10
567.8615346134461
 20
330.8835471262982
 30
0.0
 10
567.9176788135236
 20
336.3759199905626
 30
0.0
 10
567.9749613203667
 20
341.9234597772187
 30
0.0
 10
568.0278531863046
 20
347.0200752679234
 30
0.0
 10
568.0717185379768
 20
351.2432993617875
 30
0.0
 10
568.107798481621
 20
354.7275808268251
 30
0.0
 10
568.1449855832358
 20
358.3959790893975
 30
0.0
 10
568.198550031159
 20
363.8697434944388
 30
0.0
 10
568.2654915553554
 20
371.0348466909218
 30
0.0
 10
568.3097497165605
 20
376.6117412668303
 30
0.0
 10
568.3307968542691
 20
379.263854796383
 30
0.0
  0
LINE
  5
1D7
330
1F
100
AcDbEntity
  8
0
  6
Continuous
 62
     7
370
    25
100
AcDbLine
 10
565.4320748299
 20
290.2878911565
 30
0.0
 11
567.5258969336
 21
290.2878911565
 31
0.0
  0
SPLINE
  5
1D8
330
1F
100
AcDbEntity
  8
0
  6
Continuous
 62
     7
370
    25
100
AcDbSpline
210
0.0
220
0.0
230
1.0
 70
     8
 71
     3
 72
    21
 73
    17
 74
     0
 42
0.000000001
 43
0.00000001
 40
0.0
 40
0.0
 40
0.0
 40
0.0
 40
0.0827987112226111
 40
0.1658336994390072
 40
0.2491019003005806
 40
0.311723968935347
 40
0.3744742676675733
 40
0.437351451344921
 40
0.5003541560356158
 40
0.5771199138911753
 40
0.6564899018053733
 40
0.7384593763089518
 40
0.8016595486630069
 40
0.8663180537890954
 40
0.9324324152323578
 40
1.0
 40
1.0
 40
1.0
 40
1.0
 10
615.432074829931
 20
242.2812358152795
 30
0.0
 10
613.3512812337893
 20
242.3579798894521
 30
0.0
 10
609.1837562237752
 20
242.5116870370895
 30
0.0
 10
603.0293041777979
 20
243.773413060435
 30
0.0
 10
597.5667344950901
 20
245.6078379209477
 30
0.0
 10
592.820853140328
 20
247.8490784775841
 30
0.0
 10
588.7581477510598
 20
250.2807561969118
 30
0.0
 10
584.9478970433385
 20
253.1081102503154
 30
0.0
 10
581.1753767103662
 20
256.5350144361009
 30
0.0
 10
577.5243675050965
 20
260.6702717321079
 30
0.0
 10
574.138171017069
 20
265.6160390772557
 30
0.0
 10
571.5618854217057
 20
270.6486552970849
 30
0.0
 10
569.7063747790736
 20
275.5885831216952
 30
0.0
 10
568.4680710106179
 20
280.3049863003066
 30
0.0
 10
567.6668026713189
 20
285.2331538355626
 30
0.0
 10
567.5745625178022
 20
288.59081195957
 30
0.0
 10
567.5279410811131
 20
290.2878911564625
 30
0.0
  0
LINE
  5
1D9
330
1F
100
AcDbEntity
  8
0
  6
Continuous
 62
     7
370
    25
100
AcDbLine
 10
615.4320748299
 20
240.2878911565
 30
0.0
 11
615.4320748299
 21
242.2812358153
 31
0.0
  0
LINE
  5
1DA
330
1F
100
AcDbEntity
  8
0
  6
Continuous
 62
     7
370
    25
100
AcDbLine
 10
685.4320748299
 20
580.2878911565
 30
0.0
 11
685.4320748299
 21
578.2945464976
 31
0.0
  0
SPLINE
  5
1DB
330
1F
100
AcDbEntity
  8
0
  6
Continuous
 62
     7
370
    25
100
AcDbSpline
210
0.0
220
0.0
230
1.0
 70
     8
 71
     3
 72
     9
 73
     5
 74
     0
 42
0.000000001
 43
0.00000001
 40
0.0
 40
0.0
 40
0.0
 40
0.0
 40
0.4999574487587554
 40
1.0
 40
1.0
 40
1.0
 40
1.0
 10
615.432074829931
 20
578.2945464976456
 30
0.0
 10
627.0977485700574
 20
578.2820435620584
 30
0.0
 10
650.4310817748907
 20
578.2570355626415
 30
0.0
 10
673.7644152367168
 20
578.2820421432701
 30
0.0
 10
685.4320748299309
 20
578.2945464976456
 30
0.0
  0
LINE
  5
1DC
330
1F
100
AcDbEntity
  8
0
  6
Continuous
 62
     7
370
    25
100
AcDbLine
 10
615.4320748299
 20
580.2878911565
 30
0.0
 11
615.4320748299
 21
578.2945464976
 31
0.0
  0
SPLINE
  5
1DD
330
1F
100
AcDbEntity
  8
0
  6
Continuous
 62
     7
370
    25
100
AcDbSpline
210
0.0
220
0.0
230
1.0
 70
     8
 71
     3
 72
     9
 73
     5
 74
     0
 42
0.000000001
 43
0.00000001
 40
0.0
 40
0.0
 40
0.0
 40
0.0
 40
0.5
 40
1.0
 40
1.0
 40
1.0
 40
1.0
 10
685.4320748299309
 20
242.2812358152795
 30
0.0
 10
673.7654081632644
 20
242.293568470414
 30
0.0
 10
650.432074829931
 20
242.318233780683
 30
0.0
 10
627.0987414965978
 20
242.293568470414
 30
0.0
 10
615.432074829931
 20
242.2812358152795
 30
0.0
  0
LINE
  5
1DE
330
1F
100
AcDbEntity
  8
0
  6
Continuous
 62
     7
370
    25
100
AcDbLine
 10
685.4320748299
 20
240.2878911565
 30
0.0
 11
685.4320748299
 21
242.2812358153
 31
0.0
  0
SPLINE
  5
1DF
330
1F
100
AcDbEntity
  8
0
  6
Continuous
 62
     7
370
    25
100
AcDbSpline
210
0.0
220
0.0
230
1.0
 70
     8
 71
     3
 72
    21
 73
    17
 74
     0
 42
0.000000001
 43
0.00000001
 40
0.0
 40
0.0
 40
0.0
 40
0.0
 40
0.0675014150070961
 40
0.1335523573282447
 40
0.1981502016476976
 40
0.2612924785797551
 40
0.322976872930735
 40
0.3832012223099567
 40
0.4419635161149724
 40
0.4992618949207455
 40
0.5832854961147759
 40
0.6670864361738332
 40
0.7506614961895884
 40
0.8340075129612259
 40
0.9171213718936548
 40
1.0
 40
1.0
 40
1.0
 40
1.0
 10
567.5279410811131
 20
530.2878911564626
 30
0.0
 10
567.5744628640908
 20
531.9832839716664
 30
0.0
 10
567.6665067684019
 20
535.3376389439887
 30
0.0
 10
568.466219846274
 20
540.2611525232779
 30
0.0
 10
569.702057344197
 20
544.9732647080546
 30
0.0
 10
571.3758754462923
 20
549.433752378312
 30
0.0
 10
573.428205637208
 20
553.609838567799
 30
0.0
 10
575.8139702122122
 20
557.4760913510237
 30
0.0
 10
578.4843677560924
 20
561.0142193632659
 30
0.0
 10
581.868367542449
 20
564.7360553135427
 30
0.0
 10
586.1253632356259
 20
568.4822629431825
 30
0.0
 10
591.3881362776292
 20
572.0007402308936
 30
0.0
 10
597.0527529262728
 20
574.7941052910728
 30
0.0
 10
603.0176399940688
 20
576.7995591595292
 30
0.0
 10
609.1778629107631
 20
578.0636475315704
 30
0.0
 10
613.3493079992173
 20
578.2176529235226
 30
0.0
 10
615.432074829931
 20
578.2945464976456
 30
0.0
  0
SPLINE
  5
1E0
330
1F
100
AcDbEntity
  8
0
  6
Continuous
 62
     7
370
    25
100
AcDbSpline
210
0.0
220
0.0
230
1.0
 70
     8
 71
     3
 72
    21
 73
    17
 74
     0
 42
0.000000001
 43
0.00000001
 40
0.0
 40
0.0
 40
0.0
 40
0.0
 40
0.0675014148738211
 40
0.1335523570584111
 40
0.1981502012380211
 40
0.2612924780269483
 40
0.3229768722315096
 40
0.3832012214610247
 40
0.4419635151130451
 40
0.4992618937625352
 40
0.5832874344650083
 40
0.6670895386812415
 40
0.7506649871128566
 40
0.8340106163142451
 40
0.9171233115905004
 40
1.0
 40
1.0
 40
1.0
 40
1.0
 10
733.3362085787487
 20
290.2878911564626
 30
0.0
 10
733.2896867957369
 20
288.5924983406716
 30
0.0
 10
733.1976428913624
 20
285.238143367342
 30
0.0
 10
732.3979298130467
 20
280.3146297868562
 30
0.0
 10
731.1620923145551
 20
275.6025176013904
 30
0.0
 10
729.4882742121733
 20
271.14202993119
 30
0.0
 10
727.4359440204328
 20
266.9659437415234
 30
0.0
 10
725.0501794476976
 20
263.0996909611703
 30
0.0
 10
722.3797818966775
 20
259.5615629426635
 30
0.0
 10
718.9957493372721
 20
255.83969094309
 30
0.0
 10
714.7386886017017
 20
252.0934375492763
 30
0.0
 10
709.4758281175743
 20
248.5749319488433
 30
0.0
 10
703.8111705199086
 20
245.7815832062378
 30
0.0
 10
697.8463008602871
 20
243.7761694958696
 30
0.0
 10
691.6861597989299
 20
242.5121243940059
 30
0.0
 10
687.5147928432722
 20
242.3581256887577
 30
0.0
 10
685.4320748299309
 20
242.2812358152795
 30
0.0
  0
LINE
  5
1E1
330
1F
100
AcDbEntity
  8
0
  6
Continuous
 62
     7
370
    25
100
AcDbLine
 10
735.4320748299
 20
290.2878911565
 30
0.0
 11
733.3362085787
 21
290.2878911565
 31
0.0
  0
LINE
  5
1E2
330
1F
100
AcDbEntity
  8
0
  6
Continuous
 62
     7
370
    25
100
AcDbLine
 10
735.4320748299
 20
530.2878911565
 30
0.0
 11
733.3382527258
 21
530.2878911565
 31
0.0
  0
SPLINE
  5
1E3
330
1F
100
AcDbEntity
  8
0
  6
Continuous
 62
     7
370
    25
100
AcDbSpline
210
0.0
220
0.0
230
1.0
 70
     8
 71
     3
 72
    21
 73
    17
 74
     0
 42
0.000000001
 43
0.00000001
 40
0.0
 40
0.0
 40
0.0
 40
0.0
 40
0.082800370835468
 40
0.1658363547763989
 40
0.2491048874353747
 40
0.3117267690838554
 40
0.3744765071443921
 40
0.437352756582572
 40
0.5003541536238831
 40
0.5771199118760942
 40
0.6564899001890587
 40
0.7384593750935037
 40
0.801659547749675
 40
0.8663180531790461
 40
0.932432414926756
 40
1.0
 40
1.0
 40
1.0
 40
1.0
 10
685.4320748299309
 20
578.2945464976456
 30
0.0
 10
687.5129101891349
 20
578.217799260671
 30
0.0
 10
691.6805020414217
 20
578.0640863981487
 30
0.0
 10
697.8350241213944
 20
576.802323390544
 30
0.0
 10
703.2976129142896
 20
574.9678652456638
 30
0.0
 10
708.0434745593303
 20
572.7266075869396
 30
0.0
 10
712.1061338885555
 20
570.2949356033702
 30
0.0
 10
715.9163199251744
 20
567.4676130980732
 30
0.0
 10
719.6887947208875
 20
564.0407432201749
 30
0.0
 10
723.3397821620524
 20
559.9055105718197
 30
0.0
 10
726.7259786425459
 20
554.9597432353778
 30
0.0
 10
729.3022642398777
 20
549.9271270123396
 30
0.0
 10
731.1577748816534
 20
544.9871991883034
 30
0.0
 10
732.3960786497579
 20
540.2707960101217
 30
0.0
 10
733.197346988623
 20
535.3426284759674
 30
0.0
 10
733.289587142088
 20
531.984970352841
 30
0.0
 10
733.3362085787488
 20
530.2878911564625
 30
0.0
  0
SPLINE
  5
1E4
330
1F
100
AcDbEntity
  8
0
  6
Continuous
 62
     7
370
    25
100
AcDbSpline
210
0.0
220
0.0
230
1.0
 70
     8
 71
     3
 72
    24
 73
    20
 74
     0
 42
0.000000001
 43
0.00000001
 40
0.0
 40
0.0
 40
0.0
 40
0.0
 40
0.0568325305224737
 40
0.117521736146919
 40
0.1820696208425099
 40
0.2499276976597607
 40
0.2890991084484464
 40
0.3310434602699585
 40
0.3828146685602232
 40
0.4444127611340313
 40
0.5127772872662307
 40
0.5710001055816675
 40
0.6381654076580312
 40
0.6973730317891118
 40
0.7486234039263332
 40
0.8158505689794749
 40
0.8804052753438536
 40
0.9417875346340576
 40
1.0
 40
1.0
 40
1.0
 40
1.0
 10
732.5333528058297
 20
379.2638547530101
 30
0.0
 10
732.5465014584445
 20
377.5765201012269
 30
0.0
 10
732.5736910357705
 20
374.0873476868471
 30
0.0
 10
732.621016798321
 20
368.684495374316
 30
0.0
 10
732.6743852972317
 20
362.9564853403022
 30
0.0
 10
732.7242620915173
 20
357.8685036118951
 30
0.0
 10
732.7695158300273
 20
353.4523028949134
 30
0.0
 10
732.8103874506664
 20
349.5135046560414
 30
0.0
 10
732.8582219413657
 20
344.9102830912659
 30
0.0
 10
732.913973366479
 20
339.5242492527667
 30
0.0
 10
732.9715030940185
 20
333.9473448741336
 30
0.0
 10
733.0294104586583
 20
328.2050039387225
 30
0.0
 10
733.0828542189072
 20
322.7332764458185
 30
0.0
 10
733.1323158841477
 20
317.4672618994496
 30
0.0
 10
733.1794383529588
 20
312.1981365111396
 30
0.0
 10
733.2245781906163
 20
306.7685263820317
 30
0.0
 10
733.2680201051164
 20
301.0361035180693
 30
0.0
 10
733.3055813129046
 20
295.5691790914144
 30
0.0
 10
733.3261814890008
 20
292.0169370457923
 30
0.0
 10
733.3362085787489
 20
290.2878911564627
 30
0.0
  0
SPLINE
  5
1E5
330
1F
100
AcDbEntity
  8
0
  6
Continuous
 62
     7
370
    25
100
AcDbSpline
210
0.0
220
0.0
230
1.0
 70
     8
 71
     3
 72
    18
 73
    14
 74
     0
 42
0.000000001
 43
0.00000001
 40
0.0
 40
0.0
 40
0.0
 40
0.0
 40
0.089696280707941
 40
0.1868268840854579
 40
0.2832696196391895
 40
0.3808185569291415
 40
0.4700178221581194
 40
0.5510619521364674
 40
0.6361096363268349
 40
0.7331593803375949
 40
0.823910433186736
 40
0.912049457433805
 40
1.0
 40
1.0
 40
1.0
 40
1.0
 10
732.5325420556488
 20
441.3085941399918
 30
0.0
 10
732.514702885518
 20
439.4512102224119
 30
0.0
 10
732.47754597618
 20
435.5824963010199
 30
0.0
 10
732.390800746849
 20
429.7369013009155
 30
0.0
 10
732.2920975966657
 20
423.7372422028288
 30
0.0
 10
732.2194917652494
 20
417.8802584320214
 30
0.0
 10
732.1831672842502
 20
412.3243657610336
 30
0.0
 10
732.1894197456404
 20
407.0216696628449
 30
0.0
 10
732.234939825727
 20
401.5667408255676
 30
0.0
 10
732.3087769224901
 20
395.9271633065839
 30
0.0
 10
732.3960079611207
 20
390.2352562443493
 30
0.0
 10
732.4833106692903
 20
384.7332768231814
 30
0.0
 10
732.5163005949511
 20
381.0855247783194
 30
0.0
 10
732.5327779020033
 20
379.2636009852261
 30
0.0
  0
SPLINE
  5
1E6
330
1F
100
AcDbEntity
  8
0
  6
Continuous
 62
     7
370
    25
100
AcDbSpline
210
0.0
220
0.0
230
1.0
 70
     8
 71
     3
 72
    23
 73
    19
 74
     0
 42
0.000000001
 43
0.00000001
 40
0.0
 40
0.0
 40
0.0
 40
0.0
 40
0.0730973966641184
 40
0.1511319738065532
 40
0.234108610388383
 40
0.3020361941856915
 40
0.3477113166585769
 40
0.398284075856474
 40
0.4537546293147673
 40
0.5164722683986536
 40
0.5835858809271114
 40
0.6408923146515747
 40
0.68839159004451
 40
0.726083743563746
 40
0.7584999934962829
 40
0.8121858725847766
 40
0.9106934180446494
 40
0.9999999999999999
 40
0.9999999999999999
 40
0.9999999999999999
 40
0.9999999999999999
 10
733.3362085787488
 20
530.2878911564625
 30
0.0
 10
733.323470545057
 20
528.1166999747034
 30
0.0
 10
733.2971341191087
 20
523.6276699437376
 30
0.0
 10
733.2471701658736
 20
516.6784005912805
 30
0.0
 10
733.1926297823724
 20
509.8856585848768
 30
0.0
 10
733.1409563204941
 20
504.0557322409888
 30
0.0
 10
733.0954955811779
 20
499.1880729614762
 30
0.0
 10
733.0521132975508
 20
494.6904424042858
 30
0.0
 10
733.0024820002252
 20
489.6882242969987
 30
0.0
 10
732.9463222089955
 20
484.1964692960011
 30
0.0
 10
732.8890313463326
 20
478.6502309401484
 30
0.0
 10
732.8361328032356
 20
473.5547973712424
 30
0.0
 10
732.7922478635364
 20
469.331122670373
 30
0.0
 10
732.7561372009066
 20
465.8449474137093
 30
0.0
 10
732.7189195457331
 20
462.174720880684
 30
0.0
 10
732.6653298383865
 20
456.7000304276821
 30
0.0
 10
732.5983799593265
 20
449.5357529276541
 30
0.0
 10
732.5541326967817
 20
443.9597629073406
 30
0.0
 10
732.5330928962452
 20
441.3083510216392
 30
0.0
  0
SPLINE
  5
1E7
330
1F
100
AcDbEntity
  8
0
  6
Continuous
 62
     7
370
    25
100
AcDbSpline
210
0.0
220
0.0
230
1.0
 70
     8
 71
     3
 72
    11
 73
     7
 74
     0
 42
0.000000001
 43
0.00000001
 40
0.0
 40
0.0
 40
0.0
 40
0.0
 40
0.2499771458791741
 40
0.499963258738877
 40
0.7499770212394395
 40
1.0
 40
1.0
 40
1.0
 40
1.0
 10
685.6727734657374
 20
559.4311641796751
 30
0.0
 10
679.8000229792589
 20
559.4323746896762
 30
0.0
 10
668.054311343687
 20
559.434795753101
 30
0.0
 10
650.4340148847105
 20
559.4361331503227
 30
0.0
 10
632.8126414844662
 20
559.434796296353
 30
0.0
 10
621.0652034638972
 20
559.4323749001109
 30
0.0
 10
615.1913761941248
 20
559.4311641796751
 30
0.0
  0
SPLINE
  5
1E8
330
1F
100
AcDbEntity
  8
0
  6
Continuous
 62
     7
370
    25
100
AcDbSpline
210
0.0
220
0.0
230
1.0
 70
     8
 71
     3
 72
    15
 73
    11
 74
     0
 42
0.000000001
 43
0.00000001
 40
0.0
 40
0.0
 40
0.0
 40
0.0
 40
0.1250000000000003
 40
0.2500000000000011
 40
0.3750000000000004
 40
0.4999999999999998
 40
0.6250000000000002
 40
0.7499999999999998
 40
0.8749999999999999
 40
1.0
 40
1.0
 40
1.0
 40
1.0
 10
615.1913761941247
 20
559.4311641796751
 30
0.0
 10
615.1943770230081
 20
560.6025679963185
 30
0.0
 10
615.200378680775
 20
562.9453756296053
 30
0.0
 10
615.2185737426465
 20
566.3103767252284
 30
0.0
 10
615.2428586703934
 20
569.4327566220599
 30
0.0
 10
615.2731598150317
 20
572.2116520180588
 30
0.0
 10
615.3083545321077
 20
574.5656211089064
 30
0.0
 10
615.3473993410516
 20
576.4063480086348
 30
0.0
 10
615.3890693841478
 20
577.7329329651324
 30
0.0
 10
615.4177396813366
 20
578.1073419868078
 30
0.0
 10
615.432074829931
 20
578.2945464976456
 30
0.0
  0
SPLINE
  5
1E9
330
1F
100
AcDbEntity
  8
0
  6
Continuous
 62
     7
370
    25
100
AcDbSpline
210
0.0
220
0.0
230
1.0
 70
     8
 71
     3
 72
    15
 73
    11
 74
     0
 42
0.000000001
 43
0.00000001
 40
0.0
 40
0.0
 40
0.0
 40
0.0
 40
0.1250000000000002
 40
0.2500000000000011
 40
0.3750000000000004
 40
0.4999999999999998
 40
0.6250000000000002
 40
0.7499999999999998
 40
0.8749999999999999
 40
1.0
 40
1.0
 40
1.0
 40
1.0
 10
685.6727734657374
 20
559.4311641796751
 30
0.0
 10
685.669772636854
 20
560.6025679963186
 30
0.0
 10
685.6637709790872
 20
562.9453756296055
 30
0.0
 10
685.6455759172154
 20
566.3103767252284
 30
0.0
 10
685.6212909894685
 20
569.4327566220599
 30
0.0
 10
685.5909898448302
 20
572.2116520180588
 30
0.0
 10
685.5557951277542
 20
574.5656211089065
 30
0.0
 10
685.5167503188103
 20
576.4063480086348
 30
0.0
 10
685.4750802757143
 20
577.7329329651324
 30
0.0
 10
685.4464099785254
 20
578.1073419868078
 30
0.0
 10
685.4320748299309
 20
578.2945464976456
 30
0.0
  0
SPLINE
  5
1EA
330
1F
100
AcDbEntity
  8
0
  6
Continuous
 62
     7
370
    25
100
AcDbSpline
210
0.0
220
0.0
230
1.0
 70
     8
 71
     3
 72
    15
 73
    11
 74
     0
 42
0.000000001
 43
0.00000001
 40
0.0
 40
0.0
 40
0.0
 40
0.0
 40
0.1179244626479777
 40
0.2417113463704137
 40
0.3697400135698328
 40
0.5000000000000001
 40
0.6302599864301683
 40
0.7582886536295866
 40
0.8820755373520227
 40
1.0
 40
1.0
 40
1.0
 40
1.0
 10
567.5279410811131
 20
290.2878911564625
 30
0.0
 10
567.7083180972295
 20
290.2351392749921
 30
0.0
 10
568.0780392767097
 20
290.1270130388621
 30
0.0
 10
569.3945120635076
 20
289.9664340327324
 30
0.0
 10
571.3037783179742
 20
289.8110033738893
 30
0.0
 10
573.8116657040817
 20
289.6693296324817
 30
0.0
 10
576.7871548961854
 20
289.5489356851458
 30
0.0
 10
580.0721947608652
 20
289.4561142351186
 30
0.0
 10
583.4821102689856
 20
289.3908043862907
 30
0.0
 10
585.790838168024
 20
289.3709191773901
 30
0.0
 10
586.917204393618
 20
289.3612177189791
 30
0.0
  0
SPLINE
  5
1EB
330
1F
100
AcDbEntity
  8
0
  6
Continuous
 62
     7
370
    25
100
AcDbSpline
210
0.0
220
0.0
230
1.0
 70
     8
 71
     3
 72
    15
 73
    11
 74
     0
 42
0.000000001
 43
0.00000001
 40
0.0
 40
0.0
 40
0.0
 40
0.0
 40
0.123419813111484
 40
0.2492402224769207
 40
0.3737188684665503
 40
0.4988931497217226
 40
0.6240564738744299
 40
0.749286182934173
 40
0.8746307494022152
 40
1.0
 40
1.0
 40
1.0
 40
1.0
 10
586.917204393618
 20
289.3612177189792
 30
0.0
 10
587.0146656737243
 20
287.536382541127
 30
0.0
 10
587.2114839197104
 20
283.8512179452226
 30
0.0
 10
588.889923070322
 20
278.5383331555763
 30
0.0
 10
591.4939514686761
 20
273.6125143248238
 30
0.0
 10
595.039926155269
 20
269.3126942047886
 30
0.0
 10
599.3497312389482
 20
265.7608916664067
 30
0.0
 10
604.2799849121739
 20
263.1500404222994
 30
0.0
 10
609.6263718264681
 20
261.4585727618602
 30
0.0
 10
613.3362529856252
 20
261.2492765449011
 30
0.0
 10
615.1913761941247
 20
261.1446181332499
 30
0.0
  0
SPLINE
  5
1EC
330
1F
100
AcDbEntity
  8
0
  6
Continuous
 62
     7
370
    25
100
AcDbSpline
210
0.0
220
0.0
230
1.0
 70
     8
 71
     3
 72
    15
 73
    11
 74
     0
 42
0.000000001
 43
0.00000001
 40
0.0
 40
0.0
 40
0.0
 40
0.0
 40
0.1181598875065521
 40
0.2419938395807515
 40
0.3699219779461015
 40
0.5
 40
0.6300780220538986
 40
0.7580061604192502
 40
0.8818401124934463
 40
1.0
 40
1.0
 40
1.0
 40
1.0
 10
615.432074829931
 20
242.2812358152796
 30
0.0
 10
615.4185263675798
 20
242.4552388150164
 30
0.0
 10
615.3907788426459
 20
242.8116004779585
 30
0.0
 10
615.3495618251474
 20
244.0845734837023
 30
0.0
 10
615.3096228632742
 20
245.93093379474
 30
0.0
 10
615.2730914616227
 20
248.3581949251684
 30
0.0
 10
615.2418345336746
 20
251.2434573728199
 30
0.0
 10
615.2174355935605
 20
254.4392130615515
 30
0.0
 10
615.1999127866027
 20
257.7696386679334
 30
0.0
 10
615.1941768948561
 20
260.0373487536329
 30
0.0
 10
615.1913761941247
 20
261.1446181332499
 30
0.0
  0
SPLINE
  5
1ED
330
1F
100
AcDbEntity
  8
0
  6
Continuous
 62
     7
370
    25
100
AcDbSpline
210
0.0
220
0.0
230
1.0
 70
     8
 71
     3
 72
    15
 73
    11
 74
     0
 42
0.000000001
 43
0.00000001
 40
0.0
 40
0.0
 40
0.0
 40
0.0
 40
0.1234198130758574
 40
0.2492402224767963
 40
0.3737188684354804
 40
0.4988931497212695
 40
0.6240564738708879
 40
0.7492861829342943
 40
0.8746307494323842
 40
1.0
 40
1.0
 40
1.0
 40
1.0
 10
713.9469452662438
 20
531.2145645939459
 30
0.0
 10
713.8494839862153
 20
533.039399771274
 30
0.0
 10
713.652665740329
 20
536.7245643671821
 30
0.0
 10
711.9742265899048
 20
542.0374491564384
 30
0.0
 10
709.3701981914611
 20
546.9632679877245
 30
0.0
 10
705.8242235049179
 20
551.2630881077409
 30
0.0
 10
701.5144184211484
 20
554.8148906467782
 30
0.0
 10
696.584164747297
 20
557.4257418907242
 30
0.0
 10
691.2377778329667
 20
559.117209551244
 30
0.0
 10
687.5278966737975
 20
559.3265057681004
 30
0.0
 10
685.6727734657374
 20
559.4311641796751
 30
0.0
  0
SPLINE
  5
1EE
330
1F
100
AcDbEntity
  8
0
  6
Continuous
 62
     7
370
    25
100
AcDbSpline
210
0.0
220
0.0
230
1.0
 70
     8
 71
     3
 72
    15
 73
    11
 74
     0
 42
0.000000001
 43
0.00000001
 40
0.0
 40
0.0
 40
0.0
 40
0.0
 40
0.1179244626479779
 40
0.2417113463704134
 40
0.369740013569832
 40
0.5000000000000001
 40
0.6302599864301678
 40
0.7582886536295865
 40
0.8820755373520219
 40
1.0
 40
1.0
 40
1.0
 40
1.0
 10
713.9469452662438
 20
531.2145645939459
 30
0.0
 10
715.0733114918378
 20
531.2048631355351
 30
0.0
 10
717.3820393908765
 20
531.1849779266345
 30
0.0
 10
720.7919548989968
 20
531.1196680778064
 30
0.0
 10
724.0769947636766
 20
531.0268466277794
 30
0.0
 10
727.0524839557802
 20
530.9064526804432
 30
0.0
 10
729.5603713418878
 20
530.7647789390358
 30
0.0
 10
731.4696375963545
 20
530.6093482801926
 30
0.0
 10
732.7861103831524
 20
530.4487692740629
 30
0.0
 10
733.1558315626324
 20
530.3406430379329
 30
0.0
 10
733.3362085787488
 20
530.2878911564625
 30
0.0
  0
SPLINE
  5
1EF
330
1F
100
AcDbEntity
  8
0
  6
Continuous
 62
     7
370
    25
100
AcDbSpline
210
0.0
220
0.0
230
1.0
 70
     8
 71
     3
 72
    15
 73
    11
 74
     0
 42
0.000000001
 43
0.00000001
 40
0.0
 40
0.0
 40
0.0
 40
0.0
 40
0.1256475460384112
 40
0.251291953158694
 40
0.3764394398263498
 40
0.5015637593462875
 40
0.626741053688533
 40
0.7512639319715185
 40
0.8768180576802417
 40
1.0
 40
1.0
 40
1.0
 40
1.0
 10
615.1913761941248
 20
559.4311641796752
 30
0.0
 10
613.3321274617973
 20
559.3260032807793
 30
0.0
 10
609.613676444763
 20
559.1156841101098
 30
0.0
 10
604.2611209792088
 20
557.4182726716327
 30
0.0
 10
599.3308233894553
 20
554.8020168060928
 30
0.0
 10
595.0250449410161
 20
551.2481238296008
 30
0.0
 10
591.4820961133871
 20
546.9456626961652
 30
0.0
 10
588.8833517900256
 20
542.0206721402815
 30
0.0
 10
587.2102088220665
 20
536.7135698783616
 30
0.0
 10
587.0142495853012
 20
533.0358750250452
 30
0.0
 10
586.9172043936181
 20
531.214564593946
 30
0.0
  0
SPLINE
  5
1F0
330
1F
100
AcDbEntity
  8
0
  6
Continuous
 62
     7
370
    25
100
AcDbSpline
210
0.0
220
0.0
230
1.0
 70
     8
 71
     3
 72
    15
 73
    11
 74
     0
 42
0.000000001
 43
0.00000001
 40
0.0
 40
0.0
 40
0.0
 40
0.0
 40
0.1179244626479776
 40
0.2417113463704132
 40
0.3697400135698332
 40
0.4999999999999999
 40
0.6302599864301683
 40
0.7582886536295862
 40
0.8820755373520224
 40
1.0
 40
1.0
 40
1.0
 40
1.0
 10
567.5279410811131
 20
530.2878911564626
 30
0.0
 10
567.7083180972295
 20
530.340643037933
 30
0.0
 10
568.0780392767098
 20
530.4487692740629
 30
0.0
 10
569.3945120635077
 20
530.6093482801926
 30
0.0
 10
571.3037783179741
 20
530.764778939036
 30
0.0
 10
573.8116657040819
 20
530.9064526804432
 30
0.0
 10
576.7871548961854
 20
531.0268466277794
 30
0.0
 10
580.0721947608652
 20
531.1196680778065
 30
0.0
 10
583.4821102689857
 20
531.1849779266344
 30
0.0
 10
585.7908381680242
 20
531.2048631355351
 30
0.0
 10
586.9172043936181
 20
531.214564593946
 30
0.0
  0
SPLINE
  5
1F1
330
1F
100
AcDbEntity
  8
0
  6
Continuous
 62
     7
370
    25
100
AcDbSpline
210
0.0
220
0.0
230
1.0
 70
     8
 71
     3
 72
    15
 73
    11
 74
     0
 42
0.000000001
 43
0.00000001
 40
0.0
 40
0.0
 40
0.0
 40
0.0
 40
0.1181598875065521
 40
0.2419938395807509
 40
0.3699219779461021
 40
0.4999999999999997
 40
0.6300780220538983
 40
0.7580061604192486
 40
0.8818401124934475
 40
1.0
 40
1.0
 40
1.0
 40
1.0
 10
685.4320748299309
 20
242.2812358152796
 30
0.0
 10
685.4456232922822
 20
242.4552388150163
 30
0.0
 10
685.4733708172162
 20
242.8116004779584
 30
0.0
 10
685.5145878347148
 20
244.0845734837023
 30
0.0
 10
685.5545267965878
 20
245.93093379474
 30
0.0
 10
685.5910581982394
 20
248.3581949251683
 30
0.0
 10
685.6223151261873
 20
251.2434573728198
 30
0.0
 10
685.6467140663015
 20
254.4392130615515
 30
0.0
 10
685.6642368732593
 20
257.7696386679335
 30
0.0
 10
685.6699727650058
 20
260.0373487536329
 30
0.0
 10
685.6727734657374
 20
261.1446181332499
 30
0.0
  0
SPLINE
  5
1F2
330
1F
100
AcDbEntity
  8
0
  6
Continuous
 62
     7
370
    25
100
AcDbSpline
210
0.0
220
0.0
230
1.0
 70
     8
 71
     3
 72
    15
 73
    11
 74
     0
 42
0.000000001
 43
0.00000001
 40
0.0
 40
0.0
 40
0.0
 40
0.0
 40
0.1256475460135706
 40
0.2512919531591417
 40
0.3764394398299638
 40
0.5015637593460477
 40
0.6267410536792789
 40
0.7512639319704317
 40
0.8768180577152627
 40
1.0
 40
1.0
 40
1.0
 40
1.0
 10
685.6727734657374
 20
261.1446181332499
 30
0.0
 10
687.5320221977162
 20
261.2497790319857
 30
0.0
 10
691.2504732147951
 20
261.4600982023769
 30
0.0
 10
696.6030286803494
 20
263.1575096412129
 30
0.0
 10
701.5333262704308
 20
265.7737655068764
 30
0.0
 10
705.8391047187964
 20
269.3276584832666
 30
0.0
 10
709.3820535463539
 20
273.6301196166988
 30
0.0
 10
711.9807978699242
 20
278.5551101730254
 30
0.0
 10
713.6539408384846
 20
283.8622124349847
 30
0.0
 10
713.8499000748079
 20
287.539907288371
 30
0.0
 10
713.9469452662438
 20
289.3612177189792
 30
0.0
  0
SPLINE
  5
1F3
330
1F
100
AcDbEntity
  8
0
  6
Continuous
 62
     7
370
    25
100
AcDbSpline
210
0.0
220
0.0
230
1.0
 70
     8
 71
     3
 72
    15
 73
    11
 74
     0
 42
0.000000001
 43
0.00000001
 40
0.0
 40
0.0
 40
0.0
 40
0.0
 40
0.1179244626479768
 40
0.2417113463704137
 40
0.3697400135698317
 40
0.4999999999999997
 40
0.6302599864301676
 40
0.7582886536295861
 40
0.8820755373520236
 40
1.0
 40
1.0
 40
1.0
 40
1.0
 10
713.9469452662439
 20
289.3612177189793
 30
0.0
 10
715.0733114918379
 20
289.3709191773901
 30
0.0
 10
717.3820393908765
 20
289.3908043862909
 30
0.0
 10
720.7919548989968
 20
289.4561142351187
 30
0.0
 10
724.0769947636767
 20
289.5489356851459
 30
0.0
 10
727.0524839557803
 20
289.6693296324819
 30
0.0
 10
729.5603713418878
 20
289.8110033738894
 30
0.0
 10
731.4696375963546
 20
289.9664340327324
 30
0.0
 10
732.7861103831524
 20
290.1270130388623
 30
0.0
 10
733.1558315626324
 20
290.2351392749923
 30
0.0
 10
733.3362085787488
 20
290.2878911564627
 30
0.0
  0
SPLINE
  5
1F4
330
1F
100
AcDbEntity
  8
0
  6
Continuous
 62
     7
370
    25
100
AcDbSpline
210
0.0
220
0.0
230
1.0
 70
     8
 71
     3
 72
    10
 73
     6
 74
     0
 42
0.000000001
 43
0.00000001
 40
0.0
 40
0.0
 40
0.0
 40
0.0
 40
0.3335559911238619
 40
0.6664440088603708
 40
1.0
 40
1.0
 40
1.0
 40
1.0
 10
615.1913761941247
 20
261.1446181332499
 30
0.0
 10
623.0277010270296
 20
261.1449600790171
 30
0.0
 10
638.6846578059409
 20
261.1456432857768
 30
0.0
 10
662.1794918531801
 20
261.1456432856019
 30
0.0
 10
677.836448632462
 20
261.1449600789588
 30
0.0
 10
685.6727734657374
 20
261.1446181332499
 30
0.0
  0
SPLINE
  5
1F5
330
1F
100
AcDbEntity
  8
0
  6
Continuous
 62
     7
370
    25
100
AcDbSpline
210
0.0
220
0.0
230
1.0
 70
     8
 71
     3
 72
    15
 73
    11
 74
     0
 42
0.000000001
 43
0.00000001
 40
0.0
 40
0.0
 40
0.0
 40
0.0
 40
0.1183406769963077
 40
0.2422101980457957
 40
0.3700607383040961
 40
0.4999990010416571
 40
0.6299374211672373
 40
0.7577884037928555
 40
0.8816585729296498
 40
0.9999999999999999
 40
0.9999999999999999
 40
0.9999999999999999
 40
0.9999999999999999
 10
568.3314018014538
 20
379.2675843723965
 30
0.0
 10
568.4944047116122
 20
379.2467921157771
 30
0.0
 10
568.8280259832964
 20
379.2042361939971
 30
0.0
 10
569.9262760878166
 20
379.1410000644085
 30
0.0
 10
571.4864564516652
 20
379.0796640632772
 30
0.0
 10
573.5123786286946
 20
379.0234000713383
 30
0.0
 10
575.9039513906761
 20
378.9749976315453
 30
0.0
 10
578.5425844249011
 20
378.9368485473721
 30
0.0
 10
581.2877249490541
 20
378.9090208347049
 30
0.0
 10
583.1547964191562
 20
378.8994343516106
 30
0.0
 10
584.067023189774
 20
378.8947505209941
 30
0.0
  0
SPLINE
  5
1F6
330
1F
100
AcDbEntity
  8
0
  6
Continuous
 62
     7
370
    25
100
AcDbSpline
210
0.0
220
0.0
230
1.0
 70
     8
 71
     3
 72
    15
 73
    11
 74
     0
 42
0.000000001
 43
0.00000001
 40
0.0
 40
0.0
 40
0.0
 40
0.0
 40
0.1170422073189169
 40
0.2385789276908431
 40
0.3660960707302726
 40
0.5005414785579169
 40
0.6148610359259011
 40
0.7361190249707195
 40
0.8644744050203681
 40
1.0
 40
1.0
 40
1.0
 40
1.0
 10
584.0668380487161
 20
378.8946629436692
 30
0.0
 10
584.1902583559755
 20
375.4001495764633
 30
0.0
 10
584.4418384076141
 20
368.276930773202
 30
0.0
 10
584.8936433243016
 20
357.3508163363961
 30
0.0
 10
585.3929679909111
 20
345.9079456786712
 30
0.0
 10
585.8780242810901
 20
334.6816747787897
 30
0.0
 10
586.2873444006228
 20
323.6405786088955
 30
0.0
 10
586.6164588191552
 20
312.7798161805736
 30
0.0
 10
586.875081789565
 20
301.2842257072154
 30
0.0
 10
586.9029114615407
 20
293.4069016733432
 30
0.0
 10
586.917204393618
 20
289.3612177189791
 30
0.0
  0
SPLINE
  5
1F7
330
1F
100
AcDbEntity
  8
0
  6
Continuous
 62
     7
370
    25
100
AcDbSpline
210
0.0
220
0.0
230
1.0
 70
     8
 71
     3
 72
    15
 73
    11
 74
     0
 42
0.000000001
 43
0.00000001
 40
0.0
 40
0.0
 40
0.0
 40
0.0
 40
0.1170372395610183
 40
0.2385661474879258
 40
0.3660721902521326
 40
0.5005029684262466
 40
0.6148327522231869
 40
0.7361005521099283
 40
0.8644653546688967
 40
1.0
 40
1.0
 40
1.0
 40
1.0
 10
716.799026949708
 20
441.6774792697204
 30
0.0
 10
716.6756320499369
 20
445.1719894666832
 30
0.0
 10
716.4241065870292
 20
452.2951225666571
 30
0.0
 10
715.9721413833229
 20
463.2209688254895
 30
0.0
 10
715.4725647088994
 20
474.6632993065529
 30
0.0
 10
714.9871795175992
 20
485.8895572366738
 30
0.0
 10
714.5774970055052
 20
496.9312582889139
 30
0.0
 10
714.2480376165817
 20
507.7933389759446
 30
0.0
 10
713.9891323577364
 20
519.2902431765809
 30
0.0
 10
713.9612600495335
 20
527.1684435903948
 30
0.0
 10
713.9469452662438
 20
531.2145645939459
 30
0.0
  0
SPLINE
  5
1F8
330
1F
100
AcDbEntity
  8
0
  6
Continuous
 62
     7
370
    25
100
AcDbSpline
210
0.0
220
0.0
230
1.0
 70
     8
 71
     3
 72
    15
 73
    11
 74
     0
 42
0.000000001
 43
0.00000001
 40
0.0
 40
0.0
 40
0.0
 40
0.0
 40
0.1183429853863617
 40
0.242212397351738
 40
0.3700609645182161
 40
0.4999964036563708
 40
0.6299324094107016
 40
0.757782569148817
 40
0.8816543142892079
 40
1.0
 40
1.0
 40
1.0
 40
1.0
 10
716.7988472149383
 20
441.6773942605372
 30
0.0
 10
717.7109950521672
 20
441.6684754707688
 30
0.0
 10
719.5778865597044
 20
441.6502213981322
 30
0.0
 10
722.3227824585546
 20
441.6132630603825
 30
0.0
 10
724.9611645895
 20
441.5693376092186
 30
0.0
 10
727.3525034811604
 20
441.5193374690576
 30
0.0
 10
729.37822514659
 20
441.4657357379999
 30
0.0
 10
730.9382550702369
 20
441.4111877315067
 30
0.0
 10
732.0364050725653
 20
441.3580077225818
 30
0.0
 10
732.3700019928909
 20
441.3246495725815
 30
0.0
 10
732.5329950365715
 20
441.3083510216392
 30
0.0
  0
SPLINE
  5
1F9
330
1F
100
AcDbEntity
  8
0
  6
Continuous
 62
     7
370
    25
100
AcDbSpline
210
0.0
220
0.0
230
1.0
 70
     8
 71
     3
 72
    16
 73
    12
 74
     0
 42
0.000000001
 43
0.00000001
 40
0.0
 40
0.0
 40
0.0
 40
0.0
 40
0.101868700164095
 40
0.1997352617622597
 40
0.2936204763815356
 40
0.3835643907612254
 40
0.4696372682998913
 40
0.5648973358417797
 40
0.7179464954534872
 40
0.862259099961227
 40
1.0
 40
1.0
 40
1.0
 40
1.0
 10
713.9469452662439
 20
289.3612177189793
 30
0.0
 10
713.9535072138412
 20
292.4021582255008
 30
0.0
 10
713.9663733083228
 20
298.3645691239922
 30
0.0
 10
714.1191813157977
 20
307.1290407447086
 30
0.0
 10
714.3281120421575
 20
315.5364786793796
 30
0.0
 10
714.5810094504117
 20
323.5909803460704
 30
0.0
 10
714.8729179635351
 20
331.685755852799
 30
0.0
 10
715.2824042158487
 20
341.662426314653
 30
0.0
 10
715.8000735276028
 20
353.3765475132038
 30
0.0
 10
716.3507076856804
 20
366.3611143342408
 30
0.0
 10
716.6507741000388
 20
374.7822158514021
 30
0.0
 10
716.7973116091246
 20
378.8946628999032
 30
0.0
  0
SPLINE
  5
1FA
330
1F
100
AcDbEntity
  8
0
  6
Continuous
 62
     7
370
    25
100
AcDbSpline
210
0.0
220
0.0
230
1.0
 70
     8
 71
     3
 72
    15
 73
    11
 74
     0
 42
0.000000001
 43
0.00000001
 40
0.0
 40
0.0
 40
0.0
 40
0.0
 40
0.1183431192699375
 40
0.2422144924870619
 40
0.3700661388142433
 40
0.500004678050904
 40
0.6299425581529154
 40
0.7577922924699206
 40
0.881660681439447
 40
1.0
 40
1.0
 40
1.0
 40
1.0
 10
716.7971363414907
 20
378.891419731003
 30
0.0
 10
717.7093803754016
 20
378.8960844759985
 30
0.0
 10
719.5764828065455
 20
378.9056318738417
 30
0.0
 10
722.3216574478815
 20
378.9333872702343
 30
0.0
 10
724.9603050013824
 20
378.9714542964369
 30
0.0
 10
727.3518732420049
 20
379.0197670140145
 30
0.0
 10
729.377776975852
 20
379.0759379353532
 30
0.0
 10
730.9379334067698
 20
379.1371820761187
 30
0.0
 10
732.0361616769381
 20
379.2003310328717
 30
0.0
 10
732.3697777344562
 20
379.2428344207971
 30
0.0
 10
732.532777901999
 20
379.2636009852261
 30
0.0
  0
SPLINE
  5
1FB
330
1F
100
AcDbEntity
  8
0
  6
Continuous
 62
     7
370
    25
100
AcDbSpline
210
0.0
220
0.0
230
1.0
 70
     8
 71
     3
 72
    16
 73
    12
 74
     0
 42
0.000000001
 43
0.00000001
 40
0.0
 40
0.0
 40
0.0
 40
0.0
 40
0.1018754267674689
 40
0.1997489177244044
 40
0.2936412730306843
 40
0.3835925452543917
 40
0.4696730099457254
 40
0.5649283763438053
 40
0.7179627387703578
 40
0.8622652050530719
 40
0.9999999999999999
 40
0.9999999999999999
 40
0.9999999999999999
 40
0.9999999999999999
 10
586.9172043936181
 20
531.214564593946
 30
0.0
 10
586.9106302848048
 20
528.1732978666029
 30
0.0
 10
586.8977403155342
 20
522.2102334007759
 30
0.0
 10
586.7447620620279
 20
513.444781649186
 30
0.0
 10
586.5356066415328
 20
505.0363621481535
 30
0.0
 10
586.2824476973259
 20
496.9808759919931
 30
0.0
 10
585.9902691182104
 20
488.8854693658832
 30
0.0
 10
585.5804821462468
 20
478.9087543577862
 30
0.0
 10
585.0625158181729
 20
467.1950474425792
 30
0.0
 10
584.5116458911654
 20
454.2108807675422
 30
0.0
 10
584.211635032181
 20
445.7899147127478
 30
0.0
 10
584.0651227097883
 20
441.6774792573921
 30
0.0
  0
SPLINE
  5
1FC
330
1F
100
AcDbEntity
  8
0
  6
Continuous
 62
     7
370
    25
100
AcDbSpline
210
0.0
220
0.0
230
1.0
 70
     8
 71
     3
 72
    15
 73
    11
 74
     0
 42
0.000000001
 43
0.00000001
 40
0.0
 40
0.0
 40
0.0
 40
0.0
 40
0.1183456857109339
 40
0.2422174308516385
 40
0.3700675905901532
 40
0.5000035963448307
 40
0.6299390354831429
 40
0.7577876026494871
 40
0.8816570146143982
 40
1.0
 40
1.0
 40
1.0
 40
1.0
 10
568.3311546234198
 20
441.308351009478
 30
0.0
 10
568.4941476671202
 20
441.3246495604112
 30
0.0
 10
568.8277445874862
 20
441.358007710393
 30
0.0
 10
569.9258945898315
 20
441.41118771929
 30
0.0
 10
571.4859245134587
 20
441.4657357257559
 30
0.0
 10
573.5116461788283
 20
441.5193374567884
 30
0.0
 10
575.9029850703939
 20
441.5693375969275
 30
0.0
 10
578.5413672012185
 20
441.613263048074
 30
0.0
 10
581.2862630999323
 20
441.6502213858109
 30
0.0
 10
583.1531546073757
 20
441.6684754584431
 30
0.0
 10
584.0653024445573
 20
441.6773942482092
 30
0.0
  0
SPLINE
  5
1FD
330
1F
100
AcDbEntity
  8
0
  6
Continuous
 62
     7
370
    25
100
AcDbSpline
210
0.0
220
0.0
230
1.0
 70
     8
 71
     3
 72
    15
 73
    11
 74
     0
 42
0.000000001
 43
0.00000001
 40
0.0
 40
0.0
 40
0.0
 40
0.0
 40
0.1249999999999999
 40
0.2500000000000008
 40
0.3749999999999997
 40
0.5000000000000006
 40
0.6249999999999994
 40
0.7500000000000002
 40
0.8750000000000001
 40
1.0
 40
1.0
 40
1.0
 40
1.0
 10
584.0653025841946
 20
441.677394182165
 30
0.0
 10
582.9875862987524
 20
439.1970021599657
 30
0.0
 10
580.8321537278679
 20
434.2362181155671
 30
0.0
 10
578.6640850843779
 20
426.4006903781005
 30
0.0
 10
577.3123395270339
 20
418.3961092258169
 30
0.0
 10
576.8684412461878
 20
410.285875092918
 30
0.0
 10
577.3127840598021
 20
402.175665302896
 30
0.0
 10
578.6649683575607
 20
394.1711582537276
 30
0.0
 10
580.8334664741818
 20
386.3357493629481
 30
0.0
 10
582.9891709494374
 20
381.3750834683175
 30
0.0
 10
584.0670231870652
 20
378.8947505210022
 30
0.0
  0
SPLINE
  5
1FE
330
1F
100
AcDbEntity
  8
0
  6
Continuous
 62
     7
370
    25
100
AcDbSpline
210
0.0
220
0.0
230
1.0
 70
     8
 71
     3
 72
    15
 73
    11
 74
     0
 42
0.000000001
 43
0.00000001
 40
0.0
 40
0.0
 40
0.0
 40
0.0
 40
0.1249999999999999
 40
0.2499999999999999
 40
0.3749999999999997
 40
0.4999999999999997
 40
0.625
 40
0.7500000000000001
 40
0.875
 40
1.0
 40
1.0
 40
1.0
 40
1.0
 10
716.7971264555099
 20
378.8947504844575
 30
0.0
 10
717.8749786953007
 20
381.3750834331865
 30
0.0
 10
720.0306831748821
 20
386.3357493306446
 30
0.0
 10
722.1991812964833
 20
394.1711582268066
 30
0.0
 10
723.5513655979775
 20
402.175665281923
 30
0.0
 10
723.9957084139105
 20
410.2858750783255
 30
0.0
 10
723.5518101339635
 20
418.3961092177813
 30
0.0
 10
722.2000645760601
 20
426.4006903765494
 30
0.0
 10
720.0319959306988
 20
434.236218120259
 30
0.0
 10
717.8765633574567
 20
439.1970021683404
 30
0.0
 10
716.7988470708357
 20
441.677394192381
 30
0.0
  0
ARC
  5
1FF
330
1F
100
AcDbEntity
  8
0
  6
Continuous
 62
     7
370
    25
100
AcDbCircle
 10
650.4320748299
 20
410.2878911565
 30
0.0
 40
73.4155934289034
100
AcDbArc
 50
25.3127521999
 51
154.6872478089
  0
ARC
  5
200
330
1F
100
AcDbEntity
  8
0
  6
Continuous
 62
     7
370
    25
100
AcDbCircle
 10
650.4320748299
 20
410.2878911565
 30
0.0
 40
73.41559342890343
100
AcDbArc
 50
205.315892654
 51
334.6841073144
  0
CIRCLE
  5
201
330
1F
100
AcDbEntity
  8
0
  6
Continuous
 62
     7
370
    25
100
AcDbCircle
 10
650.4320748299
 20
410.2878911565
 30
0.0
 40
58.61177143234625
  0
CIRCLE
  5
202
330
1F
100
AcDbEntity
  8
0
  6
Continuous
 62
     7
370
    25
100
AcDbCircle
 10
650.4320748299
 20
410.2878911565
 30
0.0
 40
57.5
  0
ARC
  5
203
330
1F
100
AcDbEntity
  8
0
  6
Continuous
 62
     7
370
    25
100
AcDbCircle
 10
483.4320748299
 20
560.2878911565
 30
0.0
 40
50.0
100
AcDbArc
 50
0.0
 51
90.0
  0
LINE
  5
204
330
1F
100
AcDbEntity
  8
0
  6
Continuous
 62
     7
370
    25
100
AcDbLine
 10
483.4320748299
 20
610.2878911565
 30
0.0
 11
483.4320748299
 21
611.7878911565
 31
0.0
  0
ARC
  5
205
330
1F
100
AcDbEntity
  8
0
  6
Continuous
 62
     7
370
    25
100
AcDbCircle
 10
483.4320748299
 20
560.2878911565
 30
0.0
 40
51.5
100
AcDbArc
 50
0.0
 51
90.0
  0
LINE
  5
206
330
1F
100
AcDbEntity
  8
0
  6
Continuous
 62
     7
370
    25
100
AcDbLine
 10
534.9320748299
 20
560.2878911565
 30
0.0
 11
533.4320748299
 21
560.2878911565
 31
0.0
  0
ARC
  5
207
330
1F
100
AcDbEntity
  8
0
  6
Continuous
 62
     7
370
    25
100
AcDbCircle
 10
483.4320748299
 20
260.2878911565
 30
0.0
 40
51.50000000000003
100
AcDbArc
 50
270.0
 51
0.0
  0
LINE
  5
208
330
1F
100
AcDbEntity
  8
0
  6
Continuous
 62
     7
370
    25
100
AcDbLine
 10
483.4320748299
 20
208.7878911565
 30
0.0
 11
483.4320748299
 21
210.2878911565
 31
0.0
  0
ARC
  5
209
330
1F
100
AcDbEntity
  8
0
  6
Continuous
 62
     7
370
    25
100
AcDbCircle
 10
483.4320748299
 20
260.2878911565
 30
0.0
 40
49.99999999999997
100
AcDbArc
 50
270.0
 51
0.0
  0
LINE
  5
20A
330
1F
100
AcDbEntity
  8
0
  6
Continuous
 62
     7
370
    25
100
AcDbLine
 10
534.9320748299
 20
260.2878911565
 30
0.0
 11
533.4320748299
 21
260.2878911565
 31
0.0
  0
LINE
  5
20B
330
1F
100
AcDbEntity
  8
0
  6
Continuous
 62
     7
370
    25
100
AcDbLine
 10
243.4320748299
 20
611.7878911565
 30
0.0
 11
483.4320748299
 21
611.7878911565
 31
0.0
  0
ARC
  5
20C
330
1F
100
AcDbEntity
  8
0
  6
Continuous
 62
     7
370
    25
100
AcDbCircle
 10
243.4320748299
 20
560.2878911565
 30
0.0
 40
51.5
100
AcDbArc
 50
90.0
 51
180.0
  0
ARC
  5
20D
330
1F
100
AcDbEntity
  8
0
  6
Continuous
 62
     7
370
    25
100
AcDbCircle
 10
243.4320748299
 20
260.2878911565
 30
0.0
 40
51.49999999999997
100
AcDbArc
 50
180.0
 51
270.0
  0
LINE
  5
20E
330
1F
100
AcDbEntity
  8
0
  6
Continuous
 62
     7
370
    25
100
AcDbLine
 10
483.4320748299
 20
208.7878911565
 30
0.0
 11
243.4320748299
 21
208.7878911565
 31
0.0
  0
ARC
  5
20F
330
1F
100
AcDbEntity
  8
0
  6
Continuous
 62
     7
370
    25
100
AcDbCircle
 10
243.4320748299
 20
560.2878911565
 30
0.0
 40
50.0
100
AcDbArc
 50
90.0
 51
180.0
  0
LINE
  5
210
330
1F
100
AcDbEntity
  8
0
  6
Continuous
 62
     7
370
    25
100
AcDbLine
 10
193.4320748299
 20
560.2878911565
 30
0.0
 11
191.9320748299
 21
560.2878911565
 31
0.0
  0
LINE
  5
211
330
1F
100
AcDbEntity
  8
0
  6
Continuous
 62
     7
370
    25
100
AcDbLine
 10
243.4320748299
 20
610.2878911565
 30
0.0
 11
243.4320748299
 21
611.7878911565
 31
0.0
  0
LINE
  5
212
330
1F
100
AcDbEntity
  8
0
  6
Continuous
 62
     7
370
    25
100
AcDbLine
 10
243.4320748299
 20
208.7878911565
 30
0.0
 11
243.4320748299
 21
210.2878911565
 31
0.0
  0
LINE
  5
213
330
1F
100
AcDbEntity
  8
0
  6
Continuous
 62
     7
370
    25
100
AcDbLine
 10
243.4320748299
 20
210.2878911565
 30
0.0
 11
483.4320748299
 21
210.2878911565
 31
0.0
  0
ARC
  5
214
330
1F
100
AcDbEntity
  8
0
  6
Continuous
 62
     7
370
    25
100
AcDbCircle
 10
243.4320748299
 20
260.2878911565
 30
0.0
 40
49.99999999999997
100
AcDbArc
 50
180.0
 51
270.0
  0
LINE
  5
215
330
1F
100
AcDbEntity
  8
0
  6
Continuous
 62
     7
370
    25
100
AcDbLine
 10
193.4320748299
 20
260.2878911565
 30
0.0
 11
191.9320748299
 21
260.2878911565
 31
0.0
  0
LINE
  5
216
330
1F
100
AcDbEntity
  8
0
  6
Continuous
 62
     7
370
    25
100
AcDbLine
 10
193.4320748299
 20
560.2878911565
 30
0.0
 11
193.4320748299
 21
260.2878911565
 31
0.0
  0
LINE
  5
217
330
1F
100
AcDbEntity
  8
0
  6
Continuous
 62
     7
370
    25
100
AcDbLine
 10
483.4320748299
 20
610.2878911565
 30
0.0
 11
243.4320748299
 21
610.2878911565
 31
0.0
  0
LINE
  5
218
330
1F
100
AcDbEntity
  8
0
  6
Continuous
 62
     7
370
    25
100
AcDbLine
 10
533.4320748299
 20
260.2878911565
 30
0.0
 11
533.4320748299
 21
560.2878911565
 31
0.0
  0
LINE
  5
219
330
1F
100
AcDbEntity
  8
0
  6
Continuous
 62
     7
370
    25
100
AcDbLine
 10
193.4320748299
 20
560.2878911565
 30
0.0
 11
201.441181864
 21
560.2878911565
 31
0.0
  0
SPLINE
  5
21A
330
1F
100
AcDbEntity
  8
0
  6
Continuous
 62
     7
370
    25
100
AcDbSpline
210
0.0
220
0.0
230
1.0
 70
     8
 71
     3
 72
    17
 73
    13
 74
     0
 42
0.000000001
 43
0.00000001
 40
0.0
 40
0.0
 40
0.0
 40
0.0
 40
0.1002972882296373
 40
0.2005942778429215
 40
0.3010143023796799
 40
0.4014340406503524
 40
0.5022504801593649
 40
0.6030669239335423
 40
0.7040227599056391
 40
0.8049788918595774
 40
0.9024758841762358
 40
1.0
 40
1.0
 40
1.0
 40
1.0
 10
201.4411818639668
 20
260.2878911564628
 30
0.0
 10
201.560966664032
 20
270.2959406833623
 30
0.0
 10
201.8005359075257
 20
290.3120099400719
 30
0.0
 10
202.0754776464743
 20
320.3973714928966
 30
0.0
 10
202.280142139762
 20
350.5209363835251
 30
0.0
 10
202.4044592499258
 20
380.7175354061495
 30
0.0
 10
202.4449618375502
 20
410.9640092624405
 30
0.0
 10
202.4005854155287
 20
441.26392603352
 30
0.0
 10
202.2719165741661
 20
471.5671233993939
 30
0.0
 10
202.0643570264931
 20
501.5165683107259
 30
0.0
 10
201.7910845602228
 20
531.0969569442036
 30
0.0
 10
201.5578269098654
 20
550.5566776006784
 30
0.0
 10
201.4411818639668
 20
560.2878911564626
 30
0.0
  0
LINE
  5
21B
330
1F
100
AcDbEntity
  8
0
  6
Continuous
 62
     7
370
    25
100
AcDbLine
 10
193.4320748299
 20
260.2878911565
 30
0.0
 11
201.441181864
 21
260.2878911565
 31
0.0
  0
LINE
  5
21C
330
1F
100
AcDbEntity
  8
0
  6
Continuous
 62
     7
370
    25
100
AcDbLine
 10
243.4320748299
 20
610.2878911565
 30
0.0
 11
243.4320748299
 21
602.2603611614
 31
0.0
  0
SPLINE
  5
21D
330
1F
100
AcDbEntity
  8
0
  6
Continuous
 62
     7
370
    25
100
AcDbSpline
210
0.0
220
0.0
230
1.0
 70
     8
 71
     3
 72
    17
 73
    13
 74
     0
 42
0.000000001
 43
0.00000001
 40
0.0
 40
0.0
 40
0.0
 40
0.0
 40
0.1036840528330375
 40
0.2102667622276601
 40
0.3139762931752489
 40
0.4205880655841452
 40
0.5238453999280955
 40
0.6299661672500465
 40
0.7331400226786788
 40
0.8391691684324373
 40
0.9189379997691306
 40
1.0
 40
1.0
 40
1.0
 40
1.0
 10
201.4411818639668
 20
560.2878911564626
 30
0.0
 10
201.5441379631629
 20
562.5687067608876
 30
0.0
 10
201.7529284669873
 20
567.194101884601
 30
0.0
 10
203.5004420776945
 20
573.9187990834007
 30
0.0
 10
206.2764087165843
 20
580.3309394636505
 30
0.0
 10
210.0553130049051
 20
586.135162270476
 30
0.0
 10
214.7662565380704
 20
591.2763967242654
 30
0.0
 10
220.2013707236516
 20
595.5273819250084
 30
0.0
 10
226.31120669021
 20
598.8615224212814
 30
0.0
 10
232.3387809552535
 20
600.940078853189
 30
0.0
 10
238.1132993428949
 20
602.0779641692696
 30
0.0
 10
241.6496715377275
 20
602.1992371301218
 30
0.0
 10
243.4320748299317
 20
602.2603611614084
 30
0.0
  0
LINE
  5
21E
330
1F
100
AcDbEntity
  8
0
  6
Continuous
 62
     7
370
    25
100
AcDbLine
 10
243.4320748299
 20
210.2878911565
 30
0.0
 11
243.4320748299
 21
218.3154211515
 31
0.0
  0
SPLINE
  5
21F
330
1F
100
AcDbEntity
  8
0
  6
Continuous
 62
     7
370
    25
100
AcDbSpline
210
0.0
220
0.0
230
1.0
 70
     8
 71
     3
 72
    13
 73
     9
 74
     0
 42
0.000000001
 43
0.00000001
 40
0.0
 40
0.0
 40
0.0
 40
0.0
 40
0.1743462012182734
 40
0.3488154826773329
 40
0.5236513563142277
 40
0.6986036154787078
 40
0.8492714919093056
 40
0.9999999999999999
 40
0.9999999999999999
 40
0.9999999999999999
 40
0.9999999999999999
 10
483.4320748299307
 20
219.6020060813502
 30
0.0
 10
469.4687529484564
 20
219.6670959390581
 30
0.0
 10
441.5322517351743
 20
219.7973216048604
 30
0.0
 10
399.5688597668805
 20
219.7761021578255
 30
0.0
 10
357.5769498137055
 20
219.5941760350414
 30
0.0
 10
317.5354392801148
 20
219.2631195471938
 30
0.0
 10
279.4749620604449
 20
218.8352967234321
 30
0.0
 10
255.4479817359879
 20
218.4887362479161
 30
0.0
 10
243.4320748299313
 20
218.3154211515167
 30
0.0
  0
LINE
  5
220
330
1F
100
AcDbEntity
  8
0
  6
Continuous
 62
     7
370
    25
100
AcDbLine
 10
483.4320748299
 20
210.2878911565
 30
0.0
 11
483.4320748299
 21
219.6020060814
 31
0.0
  0
LINE
  5
221
330
1F
100
AcDbEntity
  8
0
  6
Continuous
 62
     7
370
    25
100
AcDbLine
 10
533.4320748299
 20
560.2878911565
 30
0.0
 11
524.0654252715
 21
560.2878911565
 31
0.0
  0
SPLINE
  5
222
330
1F
100
AcDbEntity
  8
0
  6
Continuous
 62
     7
370
    25
100
AcDbSpline
210
0.0
220
0.0
230
1.0
 70
     8
 71
     3
 72
    17
 73
    13
 74
     0
 42
0.000000001
 43
0.00000001
 40
0.0
 40
0.0
 40
0.0
 40
0.0
 40
0.1039779861448104
 40
0.2108733928885864
 40
0.3148488686723703
 40
0.4217416688463786
 40
0.5257165288746994
 40
0.632608277673573
 40
0.7369144933992321
 40
0.8441657984698606
 40
0.9214963024514673
 40
1.0
 40
1.0
 40
1.0
 40
1.0
 10
483.4320748299311
 20
600.973776231575
 30
0.0
 10
485.6467927830835
 20
600.8706573631284
 30
0.0
 10
490.1383693791341
 20
600.6615263108124
 30
0.0
 10
496.6650318798083
 20
598.9529709480672
 30
0.0
 10
502.88504790307
 20
596.2450881876689
 30
0.0
 10
508.5192549051681
 20
592.5585563428104
 30
0.0
 10
513.5120909926707
 20
587.9571817917034
 30
0.0
 10
517.6423299323143
 20
582.6344406009572
 30
0.0
 10
520.8720066983147
 20
576.6429312748718
 30
0.0
 10
522.8446590403169
 20
570.7940070888735
 30
0.0
 10
523.8978865509429
 20
565.276925958907
 30
0.0
 10
524.0092994416946
 20
561.9592284891346
 30
0.0
 10
524.0654252715364
 20
560.2878911564619
 30
0.0
  0
LINE
  5
223
330
1F
100
AcDbEntity
  8
0
  6
Continuous
 62
     7
370
    25
100
AcDbLine
 10
483.4320748299
 20
610.2878911565
 30
0.0
 11
483.4320748299
 21
600.9737762316
 31
0.0
  0
SPLINE
  5
224
330
1F
100
AcDbEntity
  8
0
  6
Continuous
 62
     7
370
    25
100
AcDbSpline
210
0.0
220
0.0
230
1.0
 70
     8
 71
     3
 72
    17
 73
    13
 74
     0
 42
0.000000001
 43
0.00000001
 40
0.0
 40
0.0
 40
0.0
 40
0.0
 40
0.1074260594320192
 40
0.2148526997280484
 40
0.3222642737223153
 40
0.4296539555188763
 40
0.5370276521416723
 40
0.644394523182502
 40
0.75176454885374
 40
0.8591473788841278
 40
0.9665505465172817
 40
1.0
 40
1.0
 40
1.0
 40
1.0
 10
533.2295491945356
 20
407.1878911564625
 30
0.0
 10
533.2372587605344
 20
407.2221747374533
 30
0.0
 10
533.2526779342184
 20
407.2907420848098
 30
0.0
 10
533.2716622309131
 20
407.8252854194002
 30
0.0
 10
533.2854261392739
 20
408.6124833087533
 30
0.0
 10
533.2929845809717
 20
409.5951058328339
 30
0.0
 10
533.2940144521974
 20
410.6543897707967
 30
0.0
 10
533.2884588411222
 20
411.6709726758689
 30
0.0
 10
533.2765958349618
 20
412.5382099739808
 30
0.0
 10
533.259004881173
 20
413.1269267475277
 30
0.0
 10
533.2423327360244
 20
413.4057410798898
 30
0.0
 10
533.2319289669593
 20
413.3608440622878
 30
0.0
 10
533.2294582966473
 20
413.3501819908979
 30
0.0
  0
LINE
  5
225
330
1F
100
AcDbEntity
  8
0
  6
Continuous
 62
     7
370
    25
100
AcDbLine
 10
533.3756665913
 20
397.7878911565
 30
0.0
 11
532.9930481146
 21
397.7878911565
 31
0.0
  0
SPLINE
  5
226
330
1F
100
AcDbEntity
  8
0
  6
Continuous
 62
     7
370
    25
100
AcDbSpline
210
0.0
220
0.0
230
1.0
 70
     8
 71
     3
 72
    17
 73
    13
 74
     0
 42
0.000000001
 43
0.00000001
 40
0.0
 40
0.0
 40
0.0
 40
0.0
 40
0.0740640077495179
 40
0.1814969431858083
 40
0.2889118247579375
 40
0.396274060857592
 40
0.5035723786411953
 40
0.6108274724882848
 40
0.7180828011004323
 40
0.8253816495165329
 40
0.9327443748459522
 40
0.9999999999999999
 40
0.9999999999999999
 40
0.9999999999999999
 40
0.9999999999999999
 10
532.9930481146458
 20
397.7878911564625
 30
0.0
 10
532.9878948355021
 20
397.7772484064817
 30
0.0
 10
532.9752665098091
 20
397.7511679033155
 30
0.0
 10
532.9559132065314
 20
397.50209699536
 30
0.0
 10
532.9382526189501
 20
397.044003602406
 30
0.0
 10
532.9267265364549
 20
396.4407755277611
 30
0.0
 10
532.922895259849
 20
395.7650515355443
 30
0.0
 10
532.9272644421028
 20
395.0921277229926
 30
0.0
 10
532.9392416451643
 20
394.4968291600286
 30
0.0
 10
532.957208973271
 20
394.05017232281
 30
0.0
 10
532.9762342620372
 20
393.8195858542053
 30
0.0
 10
532.9883728445368
 20
393.7967042034435
 30
0.0
 10
532.9930481146458
 20
393.7878911564625
 30
0.0
  0
LINE
  5
227
330
1F
100
AcDbEntity
  8
0
  6
Continuous
 62
     7
370
    25
100
AcDbLine
 10
532.9930481146
 20
393.7878911565
 30
0.0
 11
533.3756665913
 21
393.7878911565
 31
0.0
  0
SPLINE
  5
228
330
1F
100
AcDbEntity
  8
0
  6
Continuous
 62
     7
370
    25
100
AcDbSpline
210
0.0
220
0.0
230
1.0
 70
     8
 71
     3
 72
    17
 73
    13
 74
     0
 42
0.000000001
 43
0.00000001
 40
0.0
 40
0.0
 40
0.0
 40
0.0
 40
0.1073802933874055
 40
0.2147607566167822
 40
0.3221368944420741
 40
0.4295072075045162
 40
0.5368735323287526
 40
0.6442382235266145
 40
0.751603662109904
 40
0.8589722343022375
 40
0.966346082313868
 40
1.0
 40
1.0
 40
1.0
 40
1.0
 10
533.3756665912504
 20
393.7878911564625
 30
0.0
 10
533.3782806328805
 20
393.8100053040471
 30
0.0
 10
533.3835087202755
 20
393.854233634194
 30
0.0
 10
533.3898274814637
 20
394.19902407633
 30
0.0
 10
533.3943538239328
 20
394.7067734668461
 30
0.0
 10
533.3968133674964
 20
395.3407268292754
 30
0.0
 10
533.3971475064513
 20
396.0239520718613
 30
0.0
 10
533.3953455554865
 20
396.6807127534253
 30
0.0
 10
533.3914546370253
 20
397.2372970637159
 30
0.0
 10
533.3856392660402
 20
397.6284168395314
 30
0.0
 10
533.3799615339644
 20
397.7760455737973
 30
0.0
 10
533.3764940486332
 20
397.7856090038279
 30
0.0
 10
533.3756665912504
 20
397.7878911564625
 30
0.0
  0
LINE
  5
229
330
1F
100
AcDbEntity
  8
0
  6
Continuous
 62
     7
370
    25
100
AcDbLine
 10
532.9930481146
 20
414.7878911565
 30
0.0
 11
533.3756665913
 21
414.7878911565
 31
0.0
  0
SPLINE
  5
22A
330
1F
100
AcDbEntity
  8
0
  6
Continuous
 62
     7
370
    25
100
AcDbSpline
210
0.0
220
0.0
230
1.0
 70
     8
 71
     3
 72
    17
 73
    13
 74
     0
 42
0.000000001
 43
0.00000001
 40
0.0
 40
0.0
 40
0.0
 40
0.0
 40
0.1073802933874067
 40
0.2147607566167833
 40
0.3221368944420757
 40
0.4295072075045169
 40
0.5368735323287533
 40
0.6442382235266149
 40
0.7516036621099044
 40
0.8589722343022383
 40
0.966346082313868
 40
1.0
 40
1.0
 40
1.0
 40
1.0
 10
533.3756665912504
 20
414.7878911564625
 30
0.0
 10
533.3782806328805
 20
414.8100053040471
 30
0.0
 10
533.3835087202755
 20
414.854233634194
 30
0.0
 10
533.3898274814637
 20
415.1990240763299
 30
0.0
 10
533.3943538239328
 20
415.706773466846
 30
0.0
 10
533.3968133674964
 20
416.3407268292753
 30
0.0
 10
533.3971475064513
 20
417.0239520718613
 30
0.0
 10
533.3953455554865
 20
417.6807127534253
 30
0.0
 10
533.3914546370253
 20
418.2372970637159
 30
0.0
 10
533.3856392660402
 20
418.6284168395313
 30
0.0
 10
533.3799615339644
 20
418.7760455737972
 30
0.0
 10
533.3764940486332
 20
418.7856090038279
 30
0.0
 10
533.3756665912504
 20
418.7878911564625
 30
0.0
  0
LINE
  5
22B
330
1F
100
AcDbEntity
  8
0
  6
Continuous
 62
     7
370
    25
100
AcDbLine
 10
533.3756665913
 20
418.7878911565
 30
0.0
 11
532.9930481146
 21
418.7878911565
 31
0.0
  0
SPLINE
  5
22C
330
1F
100
AcDbEntity
  8
0
  6
Continuous
 62
     7
370
    25
100
AcDbSpline
210
0.0
220
0.0
230
1.0
 70
     8
 71
     3
 72
    17
 73
    13
 74
     0
 42
0.000000001
 43
0.00000001
 40
0.0
 40
0.0
 40
0.0
 40
0.0
 40
0.0740640077495178
 40
0.1814969431858084
 40
0.2889118247579379
 40
0.3962740608575925
 40
0.503572378641196
 40
0.6108274724882853
 40
0.718082801100433
 40
0.8253816495165338
 40
0.9327443748459534
 40
1.0
 40
1.0
 40
1.0
 40
1.0
 10
532.9930481146458
 20
418.7878911564625
 30
0.0
 10
532.9878948355021
 20
418.7772484064816
 30
0.0
 10
532.9752665098091
 20
418.7511679033155
 30
0.0
 10
532.9559132065314
 20
418.50209699536
 30
0.0
 10
532.93825261895
 20
418.044003602406
 30
0.0
 10
532.9267265364549
 20
417.440775527761
 30
0.0
 10
532.922895259849
 20
416.7650515355443
 30
0.0
 10
532.9272644421028
 20
416.0921277229926
 30
0.0
 10
532.9392416451643
 20
415.4968291600286
 30
0.0
 10
532.957208973271
 20
415.05017232281
 30
0.0
 10
532.9762342620372
 20
414.8195858542053
 30
0.0
 10
532.9883728445368
 20
414.7967042034434
 30
0.0
 10
532.9930481146458
 20
414.7878911564625
 30
0.0
  0
LINE
  5
22D
330
1F
100
AcDbEntity
  8
0
  6
Continuous
 62
     7
370
    25
100
AcDbLine
 10
532.9930481146
 20
430.7878911565
 30
0.0
 11
533.3756665913
 21
430.7878911565
 31
0.0
  0
SPLINE
  5
22E
330
1F
100
AcDbEntity
  8
0
  6
Continuous
 62
     7
370
    25
100
AcDbSpline
210
0.0
220
0.0
230
1.0
 70
     8
 71
     3
 72
    17
 73
    13
 74
     0
 42
0.000000001
 43
0.00000001
 40
0.0
 40
0.0
 40
0.0
 40
0.0
 40
0.1073802933874058
 40
0.2147607566167824
 40
0.3221368944420748
 40
0.4295072075045163
 40
0.5368735323287532
 40
0.6442382235266143
 40
0.7516036621099037
 40
0.8589722343022376
 40
0.9663460823138679
 40
0.9999999999999999
 40
0.9999999999999999
 40
0.9999999999999999
 40
0.9999999999999999
 10
533.3756665912504
 20
430.7878911564625
 30
0.0
 10
533.3782806328805
 20
430.8100053040471
 30
0.0
 10
533.3835087202755
 20
430.8542336341941
 30
0.0
 10
533.3898274814637
 20
431.1990240763299
 30
0.0
 10
533.3943538239328
 20
431.7067734668461
 30
0.0
 10
533.3968133674964
 20
432.3407268292754
 30
0.0
 10
533.3971475064513
 20
433.0239520718613
 30
0.0
 10
533.3953455554865
 20
433.6807127534253
 30
0.0
 10
533.3914546370253
 20
434.2372970637159
 30
0.0
 10
533.3856392660402
 20
434.6284168395313
 30
0.0
 10
533.3799615339644
 20
434.7760455737972
 30
0.0
 10
533.3764940486332
 20
434.7856090038279
 30
0.0
 10
533.3756665912504
 20
434.7878911564625
 30
0.0
  0
LINE
  5
22F
330
1F
100
AcDbEntity
  8
0
  6
Continuous
 62
     7
370
    25
100
AcDbLine
 10
533.3756665913
 20
434.7878911565
 30
0.0
 11
532.9930481146
 21
434.7878911565
 31
0.0
  0
SPLINE
  5
230
330
1F
100
AcDbEntity
  8
0
  6
Continuous
 62
     7
370
    25
100
AcDbSpline
210
0.0
220
0.0
230
1.0
 70
     8
 71
     3
 72
    17
 73
    13
 74
     0
 42
0.000000001
 43
0.00000001
 40
0.0
 40
0.0
 40
0.0
 40
0.0
 40
0.0740640077495176
 40
0.1814969431858081
 40
0.2889118247579393
 40
0.3962740608575923
 40
0.503572378641195
 40
0.6108274724882847
 40
0.7180828011004333
 40
0.8253816495165328
 40
0.9327443748459521
 40
1.0
 40
1.0
 40
1.0
 40
1.0
 10
532.9930481146458
 20
434.7878911564625
 30
0.0
 10
532.9878948355021
 20
434.7772484064817
 30
0.0
 10
532.9752665098091
 20
434.7511679033156
 30
0.0
 10
532.9559132065314
 20
434.50209699536
 30
0.0
 10
532.93825261895
 20
434.044003602406
 30
0.0
 10
532.9267265364549
 20
433.440775527761
 30
0.0
 10
532.9228952598489
 20
432.7650515355443
 30
0.0
 10
532.9272644421028
 20
432.0921277229926
 30
0.0
 10
532.9392416451643
 20
431.4968291600287
 30
0.0
 10
532.957208973271
 20
431.0501723228099
 30
0.0
 10
532.9762342620372
 20
430.8195858542053
 30
0.0
 10
532.9883728445368
 20
430.7967042034435
 30
0.0
 10
532.9930481146458
 20
430.7878911564625
 30
0.0
  0
LINE
  5
231
330
1F
100
AcDbEntity
  8
0
  6
Continuous
 62
     7
370
    25
100
AcDbLine
 10
533.4320748299
 20
260.2878911565
 30
0.0
 11
524.0654252715
 21
260.2878911565
 31
0.0
  0
SPLINE
  5
232
330
1F
100
AcDbEntity
  8
0
  6
Continuous
 62
     7
370
    25
100
AcDbSpline
210
0.0
220
0.0
230
1.0
 70
     8
 71
     3
 72
    11
 73
     7
 74
     0
 42
0.000000001
 43
0.00000001
 40
0.0
 40
0.0
 40
0.0
 40
0.0
 40
0.2497477886999952
 40
0.4996152733637829
 40
0.7497701168085439
 40
1.0
 40
1.0
 40
1.0
 40
1.0
 10
522.8751868238669
 20
389.4491468526098
 30
0.0
 10
522.9178209303508
 20
378.6784405237625
 30
0.0
 10
523.0031095764544
 20
357.1318658180614
 30
0.0
 10
523.2745346990499
 20
324.8301678902575
 30
0.0
 10
523.6202781120294
 20
292.5385231892952
 30
0.0
 10
523.9170280510879
 20
271.0391765441519
 30
0.0
 10
524.0654252715364
 20
260.2878911564626
 30
0.0
  0
SPLINE
  5
233
330
1F
100
AcDbEntity
  8
0
  6
Continuous
 62
     7
370
    25
100
AcDbSpline
210
0.0
220
0.0
230
1.0
 70
     8
 71
     3
 72
     9
 73
     5
 74
     0
 42
0.000000001
 43
0.00000001
 40
0.0
 40
0.0
 40
0.0
 40
0.0
 40
0.4999249197055475
 40
1.0
 40
1.0
 40
1.0
 40
1.0
 10
522.8751868238668
 20
431.1266354603031
 30
0.0
 10
522.8603774457571
 20
424.1814305321263
 30
0.0
 10
522.8307542412998
 20
410.2889345703978
 30
0.0
 10
522.8603744804137
 20
396.3964381270216
 30
0.0
 10
522.8751868238669
 20
389.4491468526098
 30
0.0
  0
SPLINE
  5
234
330
1F
100
AcDbEntity
  8
0
  6
Continuous
 62
     7
370
    25
100
AcDbSpline
210
0.0
220
0.0
230
1.0
 70
     8
 71
     3
 72
    11
 73
     7
 74
     0
 42
0.000000001
 43
0.00000001
 40
0.0
 40
0.0
 40
0.0
 40
0.0
 40
0.2497935786588409
 40
0.4996593749926217
 40
0.7497761982192853
 40
1.0
 40
1.0
 40
1.0
 40
1.0
 10
524.0654252715364
 20
560.2878911564619
 30
0.0
 10
523.9172754898865
 20
549.5553605964783
 30
0.0
 10
523.6209330950907
 20
528.0871966008987
 30
0.0
 10
523.2752142762607
 20
495.8161394296636
 30
0.0
 10
523.0033846186319
 20
463.495720500274
 30
0.0
 10
522.9179255128337
 20
441.9178683375728
 30
0.0
 10
522.8751868238668
 20
431.1266354603031
 30
0.0
  0
LINE
  5
235
330
1F
100
AcDbEntity
  8
0
  6
Continuous
 62
     7
370
    25
100
AcDbLine
 10
532.9930481146
 20
422.7878911565
 30
0.0
 11
533.3756665913
 21
422.7878911565
 31
0.0
  0
SPLINE
  5
236
330
1F
100
AcDbEntity
  8
0
  6
Continuous
 62
     7
370
    25
100
AcDbSpline
210
0.0
220
0.0
230
1.0
 70
     8
 71
     3
 72
    17
 73
    13
 74
     0
 42
0.000000001
 43
0.00000001
 40
0.0
 40
0.0
 40
0.0
 40
0.0
 40
0.1073802933874058
 40
0.2147607566167825
 40
0.3221368944420751
 40
0.4295072075045163
 40
0.536873532328753
 40
0.6442382235266144
 40
0.7516036621099039
 40
0.8589722343022382
 40
0.966346082313868
 40
1.0
 40
1.0
 40
1.0
 40
1.0
 10
533.3756665912504
 20
422.7878911564625
 30
0.0
 10
533.3782806328805
 20
422.8100053040471
 30
0.0
 10
533.3835087202755
 20
422.854233634194
 30
0.0
 10
533.3898274814637
 20
423.1990240763299
 30
0.0
 10
533.3943538239328
 20
423.706773466846
 30
0.0
 10
533.3968133674964
 20
424.3407268292754
 30
0.0
 10
533.3971475064513
 20
425.0239520718613
 30
0.0
 10
533.3953455554865
 20
425.6807127534253
 30
0.0
 10
533.3914546370253
 20
426.2372970637159
 30
0.0
 10
533.3856392660402
 20
426.6284168395313
 30
0.0
 10
533.3799615339644
 20
426.7760455737973
 30
0.0
 10
533.3764940486332
 20
426.7856090038279
 30
0.0
 10
533.3756665912504
 20
426.7878911564625
 30
0.0
  0
LINE
  5
237
330
1F
100
AcDbEntity
  8
0
  6
Continuous
 62
     7
370
    25
100
AcDbLine
 10
533.3756665913
 20
426.7878911565
 30
0.0
 11
532.9930481146
 21
426.7878911565
 31
0.0
  0
SPLINE
  5
238
330
1F
100
AcDbEntity
  8
0
  6
Continuous
 62
     7
370
    25
100
AcDbSpline
210
0.0
220
0.0
230
1.0
 70
     8
 71
     3
 72
    17
 73
    13
 74
     0
 42
0.000000001
 43
0.00000001
 40
0.0
 40
0.0
 40
0.0
 40
0.0
 40
0.0740640077495176
 40
0.181496943185808
 40
0.2889118247579364
 40
0.3962740608575916
 40
0.503572378641195
 40
0.610827472488284
 40
0.718082801100432
 40
0.8253816495165328
 40
0.9327443748459522
 40
1.0
 40
1.0
 40
1.0
 40
1.0
 10
532.9930481146458
 20
426.7878911564625
 30
0.0
 10
532.9878948355021
 20
426.7772484064817
 30
0.0
 10
532.9752665098091
 20
426.7511679033156
 30
0.0
 10
532.9559132065314
 20
426.50209699536
 30
0.0
 10
532.93825261895
 20
426.044003602406
 30
0.0
 10
532.9267265364549
 20
425.440775527761
 30
0.0
 10
532.922895259849
 20
424.7650515355443
 30
0.0
 10
532.9272644421028
 20
424.0921277229926
 30
0.0
 10
532.9392416451643
 20
423.4968291600285
 30
0.0
 10
532.957208973271
 20
423.05017232281
 30
0.0
 10
532.9762342620372
 20
422.8195858542053
 30
0.0
 10
532.9883728445368
 20
422.7967042034434
 30
0.0
 10
532.9930481146458
 20
422.7878911564625
 30
0.0
  0
LINE
  5
239
330
1F
100
AcDbEntity
  8
0
  6
Continuous
 62
     7
370
    25
100
AcDbLine
 10
532.9930481146
 20
385.7878911565
 30
0.0
 11
533.3756665913
 21
385.7878911565
 31
0.0
  0
SPLINE
  5
23A
330
1F
100
AcDbEntity
  8
0
  6
Continuous
 62
     7
370
    25
100
AcDbSpline
210
0.0
220
0.0
230
1.0
 70
     8
 71
     3
 72
    17
 73
    13
 74
     0
 42
0.000000001
 43
0.00000001
 40
0.0
 40
0.0
 40
0.0
 40
0.0
 40
0.1073802933874054
 40
0.2147607566167821
 40
0.3221368944420746
 40
0.4295072075045162
 40
0.5368735323287531
 40
0.6442382235266143
 40
0.7516036621099037
 40
0.8589722343022377
 40
0.966346082313868
 40
1.0
 40
1.0
 40
1.0
 40
1.0
 10
533.3756665912504
 20
385.7878911564625
 30
0.0
 10
533.3782806328805
 20
385.8100053040471
 30
0.0
 10
533.3835087202755
 20
385.854233634194
 30
0.0
 10
533.3898274814637
 20
386.1990240763299
 30
0.0
 10
533.3943538239328
 20
386.706773466846
 30
0.0
 10
533.3968133674964
 20
387.3407268292754
 30
0.0
 10
533.3971475064513
 20
388.0239520718613
 30
0.0
 10
533.3953455554865
 20
388.6807127534253
 30
0.0
 10
533.3914546370253
 20
389.2372970637159
 30
0.0
 10
533.3856392660402
 20
389.6284168395314
 30
0.0
 10
533.3799615339644
 20
389.7760455737973
 30
0.0
 10
533.3764940486332
 20
389.7856090038279
 30
0.0
 10
533.3756665912504
 20
389.7878911564625
 30
0.0
  0
LINE
  5
23B
330
1F
100
AcDbEntity
  8
0
  6
Continuous
 62
     7
370
    25
100
AcDbLine
 10
533.3756665913
 20
389.7878911565
 30
0.0
 11
532.9930481146
 21
389.7878911565
 31
0.0
  0
SPLINE
  5
23C
330
1F
100
AcDbEntity
  8
0
  6
Continuous
 62
     7
370
    25
100
AcDbSpline
210
0.0
220
0.0
230
1.0
 70
     8
 71
     3
 72
    17
 73
    13
 74
     0
 42
0.000000001
 43
0.00000001
 40
0.0
 40
0.0
 40
0.0
 40
0.0
 40
0.0740640077495179
 40
0.1814969431858083
 40
0.2889118247579395
 40
0.3962740608575925
 40
0.5035723786411953
 40
0.6108274724882851
 40
0.7180828011004337
 40
0.825381649516533
 40
0.9327443748459524
 40
1.0
 40
1.0
 40
1.0
 40
1.0
 10
532.9930481146458
 20
389.7878911564625
 30
0.0
 10
532.9878948355021
 20
389.7772484064817
 30
0.0
 10
532.9752665098091
 20
389.7511679033155
 30
0.0
 10
532.9559132065314
 20
389.50209699536
 30
0.0
 10
532.93825261895
 20
389.044003602406
 30
0.0
 10
532.9267265364549
 20
388.440775527761
 30
0.0
 10
532.9228952598489
 20
387.7650515355443
 30
0.0
 10
532.9272644421028
 20
387.0921277229926
 30
0.0
 10
532.9392416451643
 20
386.4968291600286
 30
0.0
 10
532.957208973271
 20
386.0501723228099
 30
0.0
 10
532.9762342620372
 20
385.8195858542053
 30
0.0
 10
532.9883728445368
 20
385.7967042034435
 30
0.0
 10
532.9930481146458
 20
385.7878911564625
 30
0.0
  0
LINE
  5
23D
330
1F
100
AcDbEntity
  8
0
  6
Continuous
 62
     7
370
    25
100
AcDbLine
 10
532.9930481146
 20
401.7878911565
 30
0.0
 11
533.3756665913
 21
401.7878911565
 31
0.0
  0
SPLINE
  5
23E
330
1F
100
AcDbEntity
  8
0
  6
Continuous
 62
     7
370
    25
100
AcDbSpline
210
0.0
220
0.0
230
1.0
 70
     8
 71
     3
 72
    17
 73
    13
 74
     0
 42
0.000000001
 43
0.00000001
 40
0.0
 40
0.0
 40
0.0
 40
0.0
 40
0.1073802933874055
 40
0.2147607566167821
 40
0.3221368944420745
 40
0.4295072075045157
 40
0.5368735323287522
 40
0.6442382235266138
 40
0.7516036621099029
 40
0.8589722343022371
 40
0.9663460823138673
 40
0.9999999999999999
 40
0.9999999999999999
 40
0.9999999999999999
 40
0.9999999999999999
 10
533.3756665912504
 20
401.7878911564626
 30
0.0
 10
533.3782806328805
 20
401.8100053040472
 30
0.0
 10
533.3835087202755
 20
401.8542336341941
 30
0.0
 10
533.3898274814637
 20
402.19902407633
 30
0.0
 10
533.3943538239328
 20
402.7067734668461
 30
0.0
 10
533.3968133674964
 20
403.3407268292754
 30
0.0
 10
533.3971475064513
 20
404.0239520718613
 30
0.0
 10
533.3953455554865
 20
404.6807127534253
 30
0.0
 10
533.3914546370253
 20
405.2372970637159
 30
0.0
 10
533.3856392660404
 20
405.6284168395314
 30
0.0
 10
533.3799615339644
 20
405.7760455737973
 30
0.0
 10
533.3764940486332
 20
405.7856090038279
 30
0.0
 10
533.3756665912504
 20
405.7878911564626
 30
0.0
  0
LINE
  5
23F
330
1F
100
AcDbEntity
  8
0
  6
Continuous
 62
     7
370
    25
100
AcDbLine
 10
533.3756665913
 20
405.7878911565
 30
0.0
 11
532.9930481146
 21
405.7878911565
 31
0.0
  0
SPLINE
  5
240
330
1F
100
AcDbEntity
  8
0
  6
Continuous
 62
     7
370
    25
100
AcDbSpline
210
0.0
220
0.0
230
1.0
 70
     8
 71
     3
 72
    17
 73
    13
 74
     0
 42
0.000000001
 43
0.00000001
 40
0.0
 40
0.0
 40
0.0
 40
0.0
 40
0.0740640077495168
 40
0.1814969431858074
 40
0.2889118247579368
 40
0.3962740608575913
 40
0.5035723786411946
 40
0.6108274724882843
 40
0.7180828011004318
 40
0.8253816495165327
 40
0.9327443748459522
 40
1.0
 40
1.0
 40
1.0
 40
1.0
 10
532.9930481146458
 20
405.7878911564625
 30
0.0
 10
532.9878948355021
 20
405.7772484064817
 30
0.0
 10
532.9752665098091
 20
405.7511679033155
 30
0.0
 10
532.9559132065314
 20
405.50209699536
 30
0.0
 10
532.93825261895
 20
405.044003602406
 30
0.0
 10
532.9267265364549
 20
404.4407755277611
 30
0.0
 10
532.9228952598489
 20
403.7650515355443
 30
0.0
 10
532.9272644421028
 20
403.0921277229926
 30
0.0
 10
532.9392416451643
 20
402.4968291600286
 30
0.0
 10
532.957208973271
 20
402.05017232281
 30
0.0
 10
532.9762342620373
 20
401.8195858542053
 30
0.0
 10
532.9883728445368
 20
401.7967042034435
 30
0.0
 10
532.9930481146458
 20
401.7878911564625
 30
0.0
  0
SPLINE
  5
241
330
1F
100
AcDbEntity
  8
0
  6
Continuous
 62
     7
370
    25
100
AcDbSpline
210
0.0
220
0.0
230
1.0
 70
     8
 71
     3
 72
    15
 73
    11
 74
     0
 42
0.000000001
 43
0.00000001
 40
0.0
 40
0.0
 40
0.0
 40
0.0
 40
0.124608517403471
 40
0.2492166884812778
 40
0.3739663765738589
 40
0.498715525665012
 40
0.6239452198943903
 40
0.7491745551205462
 40
0.874587099487377
 40
1.0
 40
1.0
 40
1.0
 40
1.0
 10
243.4320748299317
 20
602.2603611614084
 30
0.0
 10
253.3647487946475
 20
602.1159887552353
 30
0.0
 10
273.2300691181017
 20
601.8272443441446
 30
0.0
 10
303.0970320412762
 20
601.4702040663258
 30
0.0
 10
333.0089265668552
 20
601.1781135478055
 30
0.0
 10
363.0013630829441
 20
600.9625178547604
 30
0.0
 10
393.0533865322986
 20
600.8291015922447
 30
0.0
 10
423.1694476000058
 20
600.7843380420101
 30
0.0
 10
453.3018074308725
 20
600.8240841386989
 30
0.0
 10
473.3886428565126
 20
600.9238788200503
 30
0.0
 10
483.4320748299311
 20
600.973776231575
 30
0.0
  0
SPLINE
  5
242
330
1F
100
AcDbEntity
  8
0
  6
Continuous
 62
     7
370
    25
100
AcDbSpline
210
0.0
220
0.0
230
1.0
 70
     8
 71
     3
 72
    17
 73
    13
 74
     0
 42
0.000000001
 43
0.00000001
 40
0.0
 40
0.0
 40
0.0
 40
0.0
 40
0.1051291489415883
 40
0.2132753194621076
 40
0.3182511711219437
 40
0.4262311915931479
 40
0.5307531665147869
 40
0.6382399066615547
 40
0.7423413637926004
 40
0.8493710799781607
 40
0.9241556338254917
 40
1.0
 40
1.0
 40
1.0
 40
1.0
 10
524.0654252715364
 20
260.2878911564626
 30
0.0
 10
523.9628650756308
 20
258.048668608291
 30
0.0
 10
523.7548013866726
 20
253.5059617651738
 30
0.0
 10
522.0171472469356
 20
246.9109635413959
 30
0.0
 10
519.2605343678778
 20
240.6345002754995
 30
0.0
 10
515.5151648271096
 20
234.9709952950479
 30
0.0
 10
510.8504834540797
 20
229.971689578955
 30
0.0
 10
505.4823459803004
 20
225.8666832669276
 30
0.0
 10
499.4639444712527
 20
222.6796980612415
 30
0.0
 10
493.6611097633199
 20
220.7678793668152
 30
0.0
 10
488.253606658121
 20
219.7643009030334
 30
0.0
 10
485.046773109101
 20
219.6563575154231
 30
0.0
 10
483.4320748299307
 20
219.6020060813502
 30
0.0
  0
SPLINE
  5
243
330
1F
100
AcDbEntity
  8
0
  6
Continuous
 62
     7
370
    25
100
AcDbSpline
210
0.0
220
0.0
230
1.0
 70
     8
 71
     3
 72
    17
 73
    13
 74
     0
 42
0.000000001
 43
0.00000001
 40
0.0
 40
0.0
 40
0.0
 40
0.0
 40
0.1041130503141879
 40
0.2111610559471618
 40
0.3152827637335234
 40
0.4223419657374294
 40
0.5258618210652851
 40
0.6322677449810316
 40
0.7354170340649661
 40
0.8414201480471977
 40
0.9200901248435204
 40
1.0
 40
1.0
 40
1.0
 40
1.0
 10
243.4320748299313
 20
218.3154211515167
 30
0.0
 10
241.1418819047943
 20
218.4182524715149
 30
0.0
 10
236.496935330515
 20
218.6268139347486
 30
0.0
 10
229.7452871469497
 20
220.3858742694262
 30
0.0
 10
223.3099687324173
 20
223.181581912717
 30
0.0
 10
217.4922675044407
 20
226.9854396702288
 30
0.0
 10
212.3466437849079
 20
231.7241805084099
 30
0.0
 10
208.1043929655971
 20
237.1810994372072
 30
0.0
 10
204.7870139961657
 20
243.3060578079291
 30
0.0
 10
202.7352449638809
 20
249.3164012085352
 30
0.0
 10
201.6205573997045
 20
255.0438740345136
 30
0.0
 10
201.5012845645765
 20
258.5307976387978
 30
0.0
 10
201.4411818639668
 20
260.2878911564628
 30
0.0
  0
SPLINE
  5
244
330
1F
100
AcDbEntity
  8
0
  6
Continuous
 62
     7
370
    25
100
AcDbSpline
210
0.0
220
0.0
230
1.0
 70
     8
 71
     3
 72
    13
 73
     9
 74
     0
 42
0.000000001
 43
0.00000001
 40
0.0
 40
0.0
 40
0.0
 40
0.0
 40
0.1745577178324045
 40
0.3492260635991293
 40
0.5242242481368056
 40
0.6993278354590123
 40
0.8496361829523336
 40
1.0
 40
1.0
 40
1.0
 40
1.0
 10
484.6638735369489
 20
569.5858624379639
 30
0.0
 10
470.4118355862287
 20
569.5404493162406
 30
0.0
 10
441.8987272940241
 20
569.4495942917129
 30
0.0
 10
399.0753560153858
 20
569.4648797359423
 30
0.0
 10
356.2256794416065
 20
569.5882949848869
 30
0.0
 10
315.405520613213
 20
569.8383351353178
 30
0.0
 10
276.6431862641927
 20
570.1860120030323
 30
0.0
 10
252.1976977436512
 20
570.4854063027474
 30
0.0
 10
239.9726985683702
 20
570.6351310695086
 30
0.0
  0
LWPOLYLINE
  5
245
330
1F
100
AcDbEntity
  8
0
  6
Continuous
 62
     7
370
    25
100
AcDbPolyline
 90
       14
 70
   128
 43
0.0
 10
239.9726985684
 20
570.6351310695
 10
240.0737765815
 20
574.2150964921
 10
240.210676391
 20
577.7246243534
 10
240.3819377343
 20
581.1262797435
 10
240.5857338264
 20
584.3837783905
 10
240.8198908455
 20
587.4623736922
 10
241.0819111202
 20
590.3292273462
 10
241.3689997717
 20
592.9537596241
 10
241.6780945254
 20
595.3079755554
 10
242.0058983754
 20
597.3667635397
 10
242.3489147523
 20
599.1081632034
 10
242.7034848201
 20
600.5135996437
 10
243.0658265034
 20
601.56808156
 10
243.4320748299
 20
602.2603611614
  0
LWPOLYLINE
  5
246
330
1F
100
AcDbEntity
  8
0
  6
Continuous
 62
     7
370
    25
100
AcDbPolyline
 90
       14
 70
   128
 43
0.0
 10
484.6638735369
 20
569.585862438
 10
484.6261853863
 20
573.1192160693
 10
484.5760758327
 20
576.5824800771
 10
484.5140661267
 20
579.9396288207
 10
484.4408013071
 20
583.1557404936
 10
484.3570434908
 20
586.1973603884
 10
484.2636639452
 20
589.0328488998
 10
484.161634025
 20
591.6327106471
 10
484.0520150682
 20
593.9699012912
 10
483.9359473554
 20
596.0201088564
 10
483.8146382487
 20
597.7620066285
 10
483.6893496325
 20
599.1774750002
 10
483.5613847866
 20
600.2517899555
 10
483.4320748299
 20
600.9737762316
  0
SPLINE
  5
247
330
1F
100
AcDbEntity
  8
0
  6
Continuous
 62
     7
370
    25
100
AcDbSpline
210
0.0
220
0.0
230
1.0
 70
     8
 71
     3
 72
    17
 73
    13
 74
     0
 42
0.000000001
 43
0.00000001
 40
0.0
 40
0.0
 40
0.0
 40
0.0
 40
0.0974164087167789
 40
0.1948571322632234
 40
0.2951960374173908
 40
0.3955347127440418
 40
0.4959955966331067
 40
0.5964564747273172
 40
0.6972837410934072
 40
0.7981112370252683
 40
0.8990554901304061
 40
1.0
 40
1.0
 40
1.0
 40
1.0
 10
232.4925351570097
 20
563.1689284179386
 30
0.0
 10
232.5914267658447
 20
553.2597839933185
 30
0.0
 10
232.7892346665495
 20
533.439021852751
 30
0.0
 10
233.0106982992319
 20
503.3683316823775
 30
0.0
 10
233.1733112807274
 20
472.9760768599281
 30
0.0
 10
233.2706887941195
 20
442.25611806046
 30
0.0
 10
233.3047560107005
 20
411.5138837758107
 30
0.0
 10
233.2756532356116
 20
380.7214070229727
 30
0.0
 10
233.1829871800016
 20
349.9006315195591
 30
0.0
 10
233.0228140983013
 20
319.0499099137042
 30
0.0
 10
232.7991556988293
 20
288.2113299750063
 30
0.0
 10
232.5947420909415
 20
267.6750212944312
 30
0.0
 10
232.4925351570097
 20
257.4068538949866
 30
0.0
  0
LWPOLYLINE
  5
248
330
1F
100
AcDbEntity
  8
0
  6
Continuous
 62
     7
370
    25
100
AcDbPolyline
 90
       14
 70
   128
 43
0.0
 10
232.492535157
 20
257.406853895
 10
228.9647632094
 20
257.4949503494
 10
225.5111424306
 20
257.6121092845
 10
222.1676101335
 20
257.7571115807
 10
218.9689580841
 20
257.9284483886
 10
215.9484704691
 20
258.1243368304
 10
213.1375775513
 20
258.3427385513
 10
210.5655286155
 20
258.5813809303
 10
208.2590876097
 20
258.8377807285
 10
206.2422546477
 20
259.1092699287
 10
204.5360162715
 20
259.3930234978
 10
203.1581270714
 20
259.6860887839
 10
202.1229249375
 20
259.9854162398
 10
201.441181864
 20
260.2878911565
  0
LWPOLYLINE
  5
249
330
1F
100
AcDbEntity
  8
0
  6
Continuous
 62
     7
370
    25
100
AcDbPolyline
 90
       14
 70
   128
 43
0.0
 10
232.492535157
 20
563.1689284179
 10
228.9647632094
 20
563.0808319635
 10
225.5111424306
 20
562.9636730284
 10
222.1676101335
 20
562.8186707323
 10
218.9689580841
 20
562.6473339243
 10
215.9484704691
 20
562.4514454825
 10
213.1375775513
 20
562.2330437616
 10
210.5655286155
 20
561.9944013826
 10
208.2590876097
 20
561.7380015844
 10
206.2422546477
 20
561.4665123843
 10
204.5360162715
 20
561.1827588151
 10
203.1581270714
 20
560.8896935291
 10
202.1229249375
 20
560.5903660731
 10
201.441181864
 20
560.2878911565
  0
LWPOLYLINE
  5
24A
330
1F
100
AcDbEntity
  8
0
  6
Continuous
 62
     7
370
    25
100
AcDbPolyline
 90
       14
 70
   128
 43
0.0
 10
239.9726985684
 20
249.9406512434
 10
240.0737765815
 20
246.3606858208
 10
240.210676391
 20
242.8511579595
 10
240.3819377343
 20
239.4495025694
 10
240.5857338264
 20
236.1920039225
 10
240.8198908455
 20
233.1134086207
 10
241.0819111202
 20
230.2465549668
 10
241.3689997717
 20
227.6220226888
 10
241.6780945254
 20
225.2678067575
 10
242.0058983754
 20
223.2090187732
 10
242.3489147523
 20
221.4676191095
 10
242.7034848201
 20
220.0621826693
 10
243.0658265034
 20
219.007700753
 10
243.4320748299
 20
218.3154211515
  0
SPLINE
  5
24B
330
1F
100
AcDbEntity
  8
0
  6
Continuous
 62
     7
370
    25
100
AcDbSpline
210
0.0
220
0.0
230
1.0
 70
     8
 71
     3
 72
    13
 73
     9
 74
     0
 42
0.000000001
 43
0.00000001
 40
0.0
 40
0.0
 40
0.0
 40
0.0
 40
0.1504172842375689
 40
0.3008888018046019
 40
0.4754013148081866
 40
0.6500150902686919
 40
0.8249512319737831
 40
0.9999999999999999
 40
0.9999999999999999
 40
0.9999999999999999
 40
0.9999999999999999
 10
239.9726985683704
 20
249.9406512434164
 30
0.0
 10
252.2020472473324
 20
250.0904261681771
 30
0.0
 10
276.6651539276253
 20
250.3900300194235
 30
0.0
 10
315.3970446370506
 20
250.7373315200408
 30
0.0
 10
356.1508927372342
 20
250.9870271219786
 30
0.0
 10
398.9426671866216
 20
251.1106921723153
 30
0.0
 10
441.7966404364346
 20
251.1264116056774
 30
0.0
 10
470.3717306500629
 20
251.0354268782637
 30
0.0
 10
484.6638735369485
 20
250.9899198749613
 30
0.0
  0
LWPOLYLINE
  5
24C
330
1F
100
AcDbEntity
  8
0
  6
Continuous
 62
     7
370
    25
100
AcDbPolyline
 90
       14
 70
   128
 43
0.0
 10
483.4320748299
 20
219.6020060814
 10
483.5613847866
 20
220.3239923575
 10
483.6893496325
 20
221.3983073127
 10
483.8146382487
 20
222.8137756844
 10
483.9359473554
 20
224.5556734565
 10
484.0520150682
 20
226.6058810217
 10
484.161634025
 20
228.9430716658
 10
484.2636639452
 20
231.5429334131
 10
484.3570434908
 20
234.3784219245
 10
484.4408013071
 20
237.4200418193
 10
484.5140661267
 20
240.6361534922
 10
484.5760758327
 20
243.9933022358
 10
484.6261853863
 20
247.4565662437
 10
484.6638735369
 20
250.989919875
  0
SPLINE
  5
24D
330
1F
100
AcDbEntity
  8
0
  6
Continuous
 62
     7
370
    25
100
AcDbSpline
210
0.0
220
0.0
230
1.0
 70
     8
 71
     3
 72
    12
 73
     8
 74
     0
 42
0.000000001
 43
0.00000001
 40
0.0
 40
0.0
 40
0.0
 40
0.0
 40
0.1587461308200711
 40
0.3679239806406012
 40
0.5779016979231411
 40
0.7890640455991978
 40
1.0
 40
1.0
 40
1.0
 40
1.0
 10
232.4925351570097
 20
257.4068538949866
 30
0.0
 10
232.5322209284359
 20
256.785590040139
 30
0.0
 10
232.6242001591895
 20
255.34569434427
 30
0.0
 10
233.5768661772595
 20
253.2263627296185
 30
0.0
 10
235.2670143009019
 20
251.3882623634912
 30
0.0
 10
237.491480930135
 20
250.1513306136726
 30
0.0
 10
239.1459218098589
 20
250.0108525849438
 30
0.0
 10
239.9726985683704
 20
249.9406512434164
 30
0.0
  0
SPLINE
  5
24E
330
1F
100
AcDbEntity
  8
0
  6
Continuous
 62
     7
370
    25
100
AcDbSpline
210
0.0
220
0.0
230
1.0
 70
     8
 71
     3
 72
    12
 73
     8
 74
     0
 42
0.000000001
 43
0.00000001
 40
0.0
 40
0.0
 40
0.0
 40
0.0
 40
0.1608732025308433
 40
0.3700371694335099
 40
0.579463589491723
 40
0.7898172603100679
 40
1.0
 40
1.0
 40
1.0
 40
1.0
 10
239.9726985683702
 20
570.6351310695086
 30
0.0
 10
239.3439215101219
 20
570.5958728915492
 30
0.0
 10
237.8976216964889
 20
570.505572053245
 30
0.0
 10
235.775749990805
 20
569.5491296395992
 30
0.0
 10
233.9428156582514
 20
567.8622552435539
 30
0.0
 10
232.707817696132
 20
565.6443622408977
 30
0.0
 10
232.5642765554847
 20
563.993849403241
 30
0.0
 10
232.4925351570097
 20
563.1689284179386
 30
0.0
  0
LWPOLYLINE
  5
24F
330
1F
100
AcDbEntity
  8
0
  6
Continuous
 62
     7
370
    25
100
AcDbPolyline
 90
       14
 70
   128
 43
0.0
 10
522.8751868239
 20
431.1266354603
 10
522.0958305257
 20
431.1863811042
 10
520.9482471982
 20
431.245475067
 10
519.4449542133
 20
431.3032727757
 10
517.6023488788
 20
431.3591437965
 10
515.4405295838
 20
431.4124787109
 10
512.9830765732
 20
431.4626957636
 10
510.2567947441
 20
431.5092472072
 10
507.291421269
 20
431.5516252777
 10
504.1193012348
 20
431.5893677322
 10
500.7750348355
 20
431.6220628915
 10
497.2950999677
 20
431.64935413
 10
493.7174543446
 20
431.670943766
 10
490.0811214684
 20
431.6865963085
  0
SPLINE
  5
250
330
1F
100
AcDbEntity
  8
0
  6
Continuous
 62
     7
370
    25
100
AcDbSpline
210
0.0
220
0.0
230
1.0
 70
     8
 71
     3
 72
    11
 73
     7
 74
     0
 42
0.000000001
 43
0.00000001
 40
0.0
 40
0.0
 40
0.0
 40
0.0
 40
0.2497680886335301
 40
0.4996446970922942
 40
0.7497870875584671
 40
1.0
 40
1.0
 40
1.0
 40
1.0
 10
490.0811214683795
 20
431.6865963085493
 30
0.0
 10
490.0792336953671
 20
442.6676484753349
 30
0.0
 10
490.0754573291382
 20
464.634523882219
 30
0.0
 10
490.209142238463
 20
497.5688576372453
 30
0.0
 10
490.4599079652672
 20
530.4939330247889
 30
0.0
 10
490.7112509673364
 20
552.4174121990881
 30
0.0
 10
490.8369401809894
 20
563.3806967754175
 30
0.0
  0
LWPOLYLINE
  5
251
330
1F
100
AcDbEntity
  8
0
  6
Continuous
 62
     7
370
    25
100
AcDbPolyline
 90
       14
 70
   128
 43
0.0
 10
524.0654252715
 20
560.2878911565
 10
523.3076694251
 20
560.6215235468
 10
522.1694039983
 20
560.9514036133
 10
520.6634309272
 20
561.273821234
 10
518.8066877119
 20
561.5851502163
 10
516.6200569227
 20
561.8818890802
 10
514.1281313361
 20
562.1607004389
 10
511.3589373431
 20
562.4184485342
 10
508.3436197393
 20
562.6522345039
 10
505.1160914434
 20
562.859428985
 10
501.7126520826
 20
563.0377016858
 10
498.1715797349
 20
563.1850475944
 10
494.5327004199
 20
563.2998095289
 10
490.836940181
 20
563.3806967754
  0
LWPOLYLINE
  5
252
330
1F
100
AcDbEntity
  8
0
  6
Continuous
 62
     7
370
    25
100
AcDbPolyline
 90
       14
 70
   128
 43
0.0
 10
524.0654252715
 20
260.2878911565
 10
523.3076694251
 20
259.9542587661
 10
522.1694039983
 20
259.6243786997
 10
520.6634309272
 20
259.3019610789
 10
518.8066877119
 20
258.9906320966
 10
516.6200569227
 20
258.6938932327
 10
514.1281313361
 20
258.415081874
 10
511.3589373431
 20
258.1573337787
 10
508.3436197393
 20
257.923547809
 10
505.1160914434
 20
257.7163533279
 10
501.7126520826
 20
257.5380806271
 10
498.1715797349
 20
257.3907347185
 10
494.5327004199
 20
257.275972784
 10
490.836940181
 20
257.1950855375
  0
SPLINE
  5
253
330
1F
100
AcDbEntity
  8
0
  6
Continuous
 62
     7
370
    25
100
AcDbSpline
210
0.0
220
0.0
230
1.0
 70
     8
 71
     3
 72
    11
 73
     7
 74
     0
 42
0.000000001
 43
0.00000001
 40
0.0
 40
0.0
 40
0.0
 40
0.0
 40
0.2498070594180488
 40
0.4996818527105465
 40
0.7497915781304344
 40
1.0
 40
1.0
 40
1.0
 40
1.0
 10
490.8369401809895
 20
257.1950855375071
 30
0.0
 10
490.7114420111869
 20
268.1405797147214
 30
0.0
 10
490.460411643411
 20
290.0345358825102
 30
0.0
 10
490.2095488541041
 20
322.9401999571159
 30
0.0
 10
490.0754778363357
 20
355.8922960158467
 30
0.0
 10
490.0792400103111
 20
377.8887762788543
 30
0.0
 10
490.0811214683758
 20
388.8891860043645
 30
0.0
  0
LWPOLYLINE
  5
254
330
1F
100
AcDbEntity
  8
0
  6
Continuous
 62
     7
370
    25
100
AcDbPolyline
 90
       14
 70
   128
 43
0.0
 10
522.8751868239
 20
389.4491468526
 10
522.0958305257
 20
389.3894012087
 10
520.9482471982
 20
389.3303072459
 10
519.4449542133
 20
389.2725095372
 10
517.6023488788
 20
389.2166385165
 10
515.4405295838
 20
389.163303602
 10
512.9830765732
 20
389.1130865493
 10
510.2567947441
 20
389.0665351057
 10
507.291421269
 20
389.0241570352
 10
504.1193012348
 20
388.9864145807
 10
500.7750348355
 20
388.9537194214
 10
497.2950999677
 20
388.9264281829
 10
493.7174543446
 20
388.9048385469
 10
490.0811214684
 20
388.8891860044
  0
SPLINE
  5
255
330
1F
100
AcDbEntity
  8
0
  6
Continuous
 62
     7
370
    25
100
AcDbSpline
210
0.0
220
0.0
230
1.0
 70
     8
 71
     3
 72
    12
 73
     8
 74
     0
 42
0.000000001
 43
0.00000001
 40
0.0
 40
0.0
 40
0.0
 40
0.0
 40
0.1510982574714584
 40
0.3625908980513421
 40
0.574809251314327
 40
0.7875647343591599
 40
1.0
 40
1.0
 40
1.0
 40
1.0
 10
484.6638735369485
 20
250.9899198749613
 30
0.0
 10
485.1538029125247
 20
251.0225699036818
 30
0.0
 10
486.3294877631952
 20
251.10092026611
 30
0.0
 10
488.07897674197
 20
251.8734247993796
 30
0.0
 10
489.6201577754955
 20
253.2768472928156
 30
0.0
 10
490.6582340407574
 20
255.1268724466807
 30
0.0
 10
490.7774013831379
 20
256.5060273945209
 30
0.0
 10
490.8369401809895
 20
257.1950855375071
 30
0.0
  0
SPLINE
  5
256
330
1F
100
AcDbEntity
  8
0
  6
Continuous
 62
     7
370
    25
100
AcDbSpline
210
0.0
220
0.0
230
1.0
 70
     8
 71
     3
 72
    12
 73
     8
 74
     0
 42
0.000000001
 43
0.00000001
 40
0.0
 40
0.0
 40
0.0
 40
0.0
 40
0.1554052485532813
 40
0.3666179083237823
 40
0.5776099685932115
 40
0.7888216133894752
 40
1.0
 40
1.0
 40
1.0
 40
1.0
 10
490.8369401809894
 20
563.3806967754175
 30
0.0
 10
490.8063872703686
 20
563.8832793667874
 30
0.0
 10
490.7343096263427
 20
565.0689264419235
 30
0.0
 10
489.9584034465328
 20
566.8225928513986
 30
0.0
 10
488.562533348878
 20
568.3557063700205
 30
0.0
 10
486.7242234286752
 20
569.393287329049
 30
0.0
 10
485.3506207825732
 20
569.5216741046356
 30
0.0
 10
484.6638735369489
 20
569.5858624379639
 30
0.0
  0
ARC
  5
257
330
1F
100
AcDbEntity
  8
0
  6
Continuous
 62
     7
370
    25
100
AcDbCircle
 10
423.4320748299
 20
410.2878911565
 30
0.0
 40
70.00000000000004
100
AcDbArc
 50
17.8000290607
 51
342.1999709393
  0
LINE
  5
258
330
1F
100
AcDbEntity
  8
0
  6
Continuous
 62
     7
370
    25
100
AcDbLine
 10
490.0811214684
 20
388.8891860044
 30
0.0
 11
490.1392671301
 21
407.3636942438
 31
0.0
  0
LINE
  5
259
330
1F
100
AcDbEntity
  8
0
  6
Continuous
 62
     7
370
    25
100
AcDbLine
 10
490.1392671301
 20
413.2120880691
 30
0.0
 11
490.1392671301
 21
407.3636942438
 31
0.0
  0
LINE
  5
25A
330
1F
100
AcDbEntity
  8
0
  6
Continuous
 62
     7
370
    25
100
AcDbLine
 10
490.1392671301
 20
413.2120880691
 30
0.0
 11
490.0811214684
 21
431.6865963085
 31
0.0
  0
ARC
  5
25B
330
1F
100
AcDbEntity
  8
0
  6
Continuous
 62
     7
370
    25
100
AcDbCircle
 10
423.4320748299
 20
410.2878911565
 30
0.0
 40
66.77125453482508
100
AcDbArc
 50
2.5100283872
 51
357.4899716128
  0
LINE
  5
25C
330
1F
100
AcDbEntity
  8
0
  6
Continuous
 62
     7
370
    25
100
AcDbLine
 10
489.5204121807
 20
407.3908225589
 30
0.0
 11
489.5204121807
 21
413.184959754
 31
0.0
  0
LINE
  5
25D
330
1F
100
AcDbEntity
  8
0
  6
Continuous
 62
     7
370
    25
100
AcDbLine
 10
490.1392671301
 20
413.2120880691
 30
0.0
 11
489.5204121807
 21
413.184959754
 31
0.0
  0
LINE
  5
25E
330
1F
100
AcDbEntity
  8
0
  6
Continuous
 62
     7
370
    25
100
AcDbLine
 10
489.5204121807
 20
407.3908225589
 30
0.0
 11
490.1392671301
 21
407.3636942438
 31
0.0
  0
CIRCLE
  5
25F
330
1F
100
AcDbEntity
  8
0
  6
Continuous
 62
     7
370
    25
100
AcDbCircle
 10
423.4320748299
 20
410.2878911565
 30
0.0
 40
58.61177143234625
  0
ARC
  5
260
330
1F
100
AcDbEntity
  8
0
  6
Continuous
 62
     7
370
    25
100
AcDbCircle
 10
423.4320748299
 20
410.2878911565
 30
0.0
 40
66.15180526824551
100
AcDbArc
 50
2.5100283872
 51
357.4899716128
  0
CIRCLE
  5
261
330
1F
100
AcDbEntity
  8
0
  6
Continuous
 62
     7
370
    25
100
AcDbCircle
 10
423.4320748299
 20
410.2878911565
 30
0.0
 40
57.5
  0
LINE
  5
262
330
1F
100
AcDbEntity
  8
0
  6
Continuous
 62
     7
370
    25
100
AcDbLine
 10
1047.1070748299
 20
160.2878911565
 30
0.0
 11
1047.1070748299
 21
660.2878911565
 31
0.0
  0
LINE
  5
263
330
1F
100
AcDbEntity
  8
0
  6
Continuous
 62
     7
370
    25
100
AcDbLine
 10
1047.1070748299
 20
660.2878911565
 30
0.0
 11
1047.9070748299
 21
660.2878911565
 31
0.0
  0
LINE
  5
264
330
1F
100
AcDbEntity
  8
0
  6
Continuous
 62
     7
370
    25
100
AcDbLine
 10
1047.9070748299
 20
660.2878911565
 30
0.0
 11
1047.9070748299
 21
160.2878911565
 31
0.0
  0
LINE
  5
265
330
1F
100
AcDbEntity
  8
0
  6
Continuous
 62
     7
370
    25
100
AcDbLine
 10
1047.1070748299
 20
160.2878911565
 30
0.0
 11
1047.9070748299
 21
160.2878911565
 31
0.0
  0
LINE
  5
266
330
1F
100
AcDbEntity
  8
0
  6
Continuous
 62
     7
370
    25
100
AcDbLine
 10
152.9070748299
 20
160.2878911565
 30
0.0
 11
152.9070748299
 21
660.2878911565
 31
0.0
  0
LINE
  5
267
330
1F
100
AcDbEntity
  8
0
  6
Continuous
 62
     7
370
    25
100
AcDbLine
 10
152.9070748299
 20
660.2878911565
 30
0.0
 11
153.7070748299
 21
660.2878911565
 31
0.0
  0
LINE
  5
268
330
1F
100
AcDbEntity
  8
0
  6
Continuous
 62
     7
370
    25
100
AcDbLine
 10
153.7070748299
 20
660.2878911565
 30
0.0
 11
153.7070748299
 21
160.2878911565
 31
0.0
  0
LINE
  5
269
330
1F
100
AcDbEntity
  8
0
  6
Continuous
 62
     7
370
    25
100
AcDbLine
 10
152.9070748299
 20
160.2878911565
 30
0.0
 11
153.7070748299
 21
160.2878911565
 31
0.0
  0
ARC
  5
26A
330
1F
100
AcDbEntity
  8
0
  6
Continuous
 62
     7
370
    25
100
AcDbCircle
 10
1037.9070748299
 20
660.2878911565
 30
0.0
 40
9.200000000000273
100
AcDbArc
 50
0.0
 51
90.0
  0
LINE
  5
26B
330
1F
100
AcDbEntity
  8
0
  6
Continuous
 62
     7
370
    25
100
AcDbLine
 10
1037.9070748299
 20
669.4878911565
 30
0.0
 11
1037.9070748299
 21
670.2878911565
 31
0.0
  0
ARC
  5
26C
330
1F
100
AcDbEntity
  8
0
  6
Continuous
 62
     7
370
    25
100
AcDbCircle
 10
1037.9070748299
 20
660.2878911565
 30
0.0
 40
10.0
100
AcDbArc
 50
0.0
 51
90.0
  0
ARC
  5
26D
330
1F
100
AcDbEntity
  8
0
  6
Continuous
 62
     7
370
    25
100
AcDbCircle
 10
162.9070748299
 20
660.2878911565
 30
0.0
 40
10.0
100
AcDbArc
 50
90.0
 51
180.0
  0
LINE
  5
26E
330
1F
100
AcDbEntity
  8
0
  6
Continuous
 62
     7
370
    25
100
AcDbLine
 10
162.9070748299
 20
670.2878911565
 30
0.0
 11
162.9070748299
 21
669.4878911565
 31
0.0
  0
ARC
  5
26F
330
1F
100
AcDbEntity
  8
0
  6
Continuous
 62
     7
370
    25
100
AcDbCircle
 10
162.9070748299
 20
660.2878911565
 30
0.0
 40
9.200000000000301
100
AcDbArc
 50
90.0
 51
180.0
  0
LINE
  5
270
330
1F
100
AcDbEntity
  8
0
  6
Continuous
 62
     7
370
    25
100
AcDbLine
 10
1037.9070748299
 20
669.4878911565
 30
0.0
 11
162.9070748299
 21
669.4878911565
 31
0.0
  0
LINE
  5
271
330
1F
100
AcDbEntity
  8
0
  6
Continuous
 62
     7
370
    25
100
AcDbLine
 10
162.9070748299
 20
670.2878911565
 30
0.0
 11
1037.9070748299
 21
670.2878911565
 31
0.0
  0
ARC
  5
272
330
1F
100
AcDbEntity
  8
0
  6
Continuous
 62
     7
370
    25
100
AcDbCircle
 10
191.4670748299
 20
631.7278911565
 30
0.0
 40
20.46173638225116
100
AcDbArc
 50
90.0
 51
180.0
  0
LINE
  5
273
330
1F
100
AcDbEntity
  8
0
  6
Continuous
 62
     7
370
    25
100
AcDbLine
 10
171.0053384477
 20
188.8478911565
 30
0.0
 11
171.0053384477
 21
631.7278911565
 31
0.0
  0
ARC
  5
274
330
1F
100
AcDbEntity
  8
0
  6
Continuous
 62
     7
370
    25
100
AcDbCircle
 10
191.4670748299
 20
188.8478911565
 30
0.0
 40
20.46173638225113
100
AcDbArc
 50
180.0
 51
270.0
  0
LINE
  5
275
330
1F
100
AcDbEntity
  8
0
  6
Continuous
 62
     7
370
    25
100
AcDbLine
 10
1009.3470748299
 20
168.3861547742
 30
0.0
 11
191.4670748299
 21
168.3861547742
 31
0.0
  0
ARC
  5
276
330
1F
100
AcDbEntity
  8
0
  6
Continuous
 62
     7
370
    25
100
AcDbCircle
 10
1009.3470748299
 20
188.8478911565
 30
0.0
 40
20.46173638225116
100
AcDbArc
 50
270.0
 51
0.0
  0
LINE
  5
277
330
1F
100
AcDbEntity
  8
0
  6
Continuous
 62
     7
370
    25
100
AcDbLine
 10
1029.8088112122
 20
631.7278911565
 30
0.0
 11
1029.8088112122
 21
188.8478911565
 31
0.0
  0
ARC
  5
278
330
1F
100
AcDbEntity
  8
0
  6
Continuous
 62
     7
370
    25
100
AcDbCircle
 10
1009.3470748299
 20
631.7278911565
 30
0.0
 40
20.46173638225116
100
AcDbArc
 50
0.0
 51
90.0
  0
LINE
  5
279
330
1F
100
AcDbEntity
  8
0
  6
Continuous
 62
     7
370
    25
100
AcDbLine
 10
191.4670748299
 20
652.1896275387
 30
0.0
 11
1009.3470748299
 21
652.1896275387
 31
0.0
  0
ARC
  5
27A
330
1F
100
AcDbEntity
  8
0
  6
Continuous
 62
     7
370
    25
100
AcDbCircle
 10
1037.9070748299
 20
160.2878911565
 30
0.0
 40
9.20000000000033
100
AcDbArc
 50
270.0
 51
0.0
  0
LINE
  5
27B
330
1F
100
AcDbEntity
  8
0
  6
Continuous
 62
     7
370
    25
100
AcDbLine
 10
162.9070748299
 20
151.0878911565
 30
0.0
 11
1037.9070748299
 21
151.0878911565
 31
0.0
  0
ARC
  5
27C
330
1F
100
AcDbEntity
  8
0
  6
Continuous
 62
     7
370
    25
100
AcDbCircle
 10
162.9070748299
 20
160.2878911565
 30
0.0
 40
9.20000000000033
100
AcDbArc
 50
180.0
 51
270.0
  0
LINE
  5
27D
330
1F
100
AcDbEntity
  8
0
  6
Continuous
 62
     7
370
    25
100
AcDbLine
 10
1009.3470748299
 20
652.1896275387
 30
0.0
 11
1009.3470748299
 21
651.3128852451
 31
0.0
  0
LINE
  5
27E
330
1F
100
AcDbEntity
  8
0
  6
Continuous
 62
     7
370
    25
100
AcDbLine
 10
1009.3470748299
 20
651.3128852451
 30
0.0
 11
191.4670748299
 21
651.3128852451
 31
0.0
  0
LINE
  5
27F
330
1F
100
AcDbEntity
  8
0
  6
Continuous
 62
     7
370
    25
100
AcDbLine
 10
191.4670748299
 20
652.1896275387
 30
0.0
 11
191.4670748299
 21
651.3128852451
 31
0.0
  0
ARC
  5
280
330
1F
100
AcDbEntity
  8
0
  6
Continuous
 62
     7
370
    25
100
AcDbCircle
 10
1009.3470748299
 20
631.7278911565
 30
0.0
 40
19.58499408867294
100
AcDbArc
 50
0.0
 51
90.0
  0
LINE
  5
281
330
1F
100
AcDbEntity
  8
0
  6
Continuous
 62
     7
370
    25
100
AcDbLine
 10
1028.9320689186
 20
631.7278911565
 30
0.0
 11
1029.8088112122
 21
631.7278911565
 31
0.0
  0
LINE
  5
282
330
1F
100
AcDbEntity
  8
0
  6
Continuous
 62
     7
370
    25
100
AcDbLine
 10
1037.9070748299
 20
151.0878911565
 30
0.0
 11
1037.9070748299
 21
150.2878911565
 31
0.0
  0
LINE
  5
283
330
1F
100
AcDbEntity
  8
0
  6
Continuous
 62
     7
370
    25
100
AcDbLine
 10
1037.9070748299
 20
150.2878911565
 30
0.0
 11
162.9070748299
 21
150.2878911565
 31
0.0
  0
LINE
  5
284
330
1F
100
AcDbEntity
  8
0
  6
Continuous
 62
     7
370
    25
100
AcDbLine
 10
162.9070748299
 20
150.2878911565
 30
0.0
 11
162.9070748299
 21
151.0878911565
 31
0.0
  0
ARC
  5
285
330
1F
100
AcDbEntity
  8
0
  6
Continuous
 62
     7
370
    25
100
AcDbCircle
 10
1037.9070748299
 20
160.2878911565
 30
0.0
 40
10.00000000000003
100
AcDbArc
 50
270.0
 51
0.0
  0
ARC
  5
286
330
1F
100
AcDbEntity
  8
0
  6
Continuous
 62
     7
370
    25
100
AcDbCircle
 10
162.9070748299
 20
160.2878911565
 30
0.0
 40
10.00000000000003
100
AcDbArc
 50
180.0
 51
270.0
  0
ARC
  5
287
330
1F
100
AcDbEntity
  8
0
  6
Continuous
 62
     7
370
    25
100
AcDbCircle
 10
191.4670748299
 20
188.8478911565
 30
0.0
 40
19.584994088673
100
AcDbArc
 50
180.0
 51
270.0
  0
LINE
  5
288
330
1F
100
AcDbEntity
  8
0
  6
Continuous
 62
     7
370
    25
100
AcDbLine
 10
191.4670748299
 20
169.2628970678
 30
0.0
 11
191.4670748299
 21
168.3861547742
 31
0.0
  0
LINE
  5
289
330
1F
100
AcDbEntity
  8
0
  6
Continuous
 62
     7
370
    25
100
AcDbLine
 10
171.0053384477
 20
188.8478911565
 30
0.0
 11
171.8820807413
 21
188.8478911565
 31
0.0
  0
LINE
  5
28A
330
1F
100
AcDbEntity
  8
0
  6
Continuous
 62
     7
370
    25
100
AcDbLine
 10
191.4670748299
 20
169.2628970678
 30
0.0
 11
1009.3470748299
 21
169.2628970678
 31
0.0
  0
LINE
  5
28B
330
1F
100
AcDbEntity
  8
0
  6
Continuous
 62
     7
370
    25
100
AcDbLine
 10
1009.3470748299
 20
169.2628970678
 30
0.0
 11
1009.3470748299
 21
168.3861547742
 31
0.0
  0
LINE
  5
28C
330
1F
100
AcDbEntity
  8
0
  6
Continuous
 62
     7
370
    25
100
AcDbLine
 10
171.0053384477
 20
631.7278911565
 30
0.0
 11
171.8820807413
 21
631.7278911565
 31
0.0
  0
LINE
  5
28D
330
1F
100
AcDbEntity
  8
0
  6
Continuous
 62
     7
370
    25
100
AcDbLine
 10
171.8820807413
 20
631.7278911565
 30
0.0
 11
171.8820807413
 21
188.8478911565
 31
0.0
  0
ARC
  5
28E
330
1F
100
AcDbEntity
  8
0
  6
Continuous
 62
     7
370
    25
100
AcDbCircle
 10
1009.3470748299
 20
188.8478911565
 30
0.0
 40
19.58499408867297
100
AcDbArc
 50
270.0
 51
0.0
  0
LINE
  5
28F
330
1F
100
AcDbEntity
  8
0
  6
Continuous
 62
     7
370
    25
100
AcDbLine
 10
1028.9320689186
 20
188.8478911565
 30
0.0
 11
1029.8088112122
 21
188.8478911565
 31
0.0
  0
ARC
  5
290
330
1F
100
AcDbEntity
  8
0
  6
Continuous
 62
     7
370
    25
100
AcDbCircle
 10
191.4670748299
 20
631.7278911565
 30
0.0
 40
19.58499408867297
100
AcDbArc
 50
90.0
 51
180.0
  0
LINE
  5
291
330
1F
100
AcDbEntity
  8
0
  6
Continuous
 62
     7
370
    25
100
AcDbLine
 10
1028.9320689186
 20
188.8478911565
 30
0.0
 11
1028.9320689186
 21
631.7278911565
 31
0.0
  0
LINE
  5
292
330
1F
100
AcDbEntity
  8
0
  6
Continuous
 62
     7
370
    25
100
AcDbLine
 10
1026.2740916391
 20
631.7278911565
 30
0.0
 11
1026.2740916391
 21
188.8478911565
 31
0.0
  0
LINE
  5
293
330
1F
100
AcDbEntity
  8
0
  6
Continuous
 62
     7
370
    25
100
AcDbLine
 10
1026.2740916391
 20
631.7278911565
 30
0.0
 11
1028.9320689186
 21
631.7278911565
 31
0.0
  0
LINE
  5
294
330
1F
100
AcDbEntity
  8
0
  6
Continuous
 62
     7
370
    25
100
AcDbLine
 10
1026.2740916391
 20
188.8478911565
 30
0.0
 11
1028.9320689186
 21
188.8478911565
 31
0.0
  0
ARC
  5
295
330
1F
100
AcDbEntity
  8
0
  6
Continuous
 62
     7
370
    25
100
AcDbCircle
 10
1009.3470748299
 20
631.7278911565
 30
0.0
 40
16.92701680913672
100
AcDbArc
 50
0.0
 51
90.0
  0
LINE
  5
296
330
1F
100
AcDbEntity
  8
0
  6
Continuous
 62
     7
370
    25
100
AcDbLine
 10
1009.3470748299
 20
648.6549079656
 30
0.0
 11
1009.3470748299
 21
651.3128852451
 31
0.0
  0
ARC
  5
297
330
1F
100
AcDbEntity
  8
0
  6
Continuous
 62
     7
370
    25
100
AcDbCircle
 10
1009.3470748299
 20
188.8478911565
 30
0.0
 40
16.92701680913672
100
AcDbArc
 50
270.0
 51
0.0
  0
LINE
  5
298
330
1F
100
AcDbEntity
  8
0
  6
Continuous
 62
     7
370
    25
100
AcDbLine
 10
1009.3470748299
 20
171.9208743473
 30
0.0
 11
1009.3470748299
 21
169.2628970678
 31
0.0
  0
LINE
  5
299
330
1F
100
AcDbEntity
  8
0
  6
Continuous
 62
     7
370
    25
100
AcDbLine
 10
174.5400580208
 20
188.8478911565
 30
0.0
 11
174.5400580208
 21
631.7278911565
 31
0.0
  0
LINE
  5
29A
330
1F
100
AcDbEntity
  8
0
  6
Continuous
 62
     7
370
    25
100
AcDbLine
 10
174.5400580208
 20
188.8478911565
 30
0.0
 11
171.8820807413
 21
188.8478911565
 31
0.0
  0
LINE
  5
29B
330
1F
100
AcDbEntity
  8
0
  6
Continuous
 62
     7
370
    25
100
AcDbLine
 10
174.5400580208
 20
631.7278911565
 30
0.0
 11
171.8820807413
 21
631.7278911565
 31
0.0
  0
ARC
  5
29C
330
1F
100
AcDbEntity
  8
0
  6
Continuous
 62
     7
370
    25
100
AcDbCircle
 10
191.4670748299
 20
631.7278911565
 30
0.0
 40
16.92701680913672
100
AcDbArc
 50
90.0
 51
180.0
  0
LINE
  5
29D
330
1F
100
AcDbEntity
  8
0
  6
Continuous
 62
     7
370
    25
100
AcDbLine
 10
191.4670748299
 20
648.6549079656
 30
0.0
 11
191.4670748299
 21
651.3128852451
 31
0.0
  0
LINE
  5
29E
330
1F
100
AcDbEntity
  8
0
  6
Continuous
 62
     7
370
    25
100
AcDbLine
 10
191.4670748299
 20
648.6549079656
 30
0.0
 11
1009.3470748299
 21
648.6549079656
 31
0.0
  0
LINE
  5
29F
330
1F
100
AcDbEntity
  8
0
  6
Continuous
 62
     7
370
    25
100
AcDbLine
 10
1009.3470748299
 20
171.9208743473
 30
0.0
 11
191.4670748299
 21
171.9208743473
 31
0.0
  0
LINE
  5
2A0
330
1F
100
AcDbEntity
  8
0
  6
Continuous
 62
     7
370
    25
100
AcDbLine
 10
191.4670748299
 20
171.9208743473
 30
0.0
 11
191.4670748299
 21
169.2628970678
 31
0.0
  0
ARC
  5
2A1
330
1F
100
AcDbEntity
  8
0
  6
Continuous
 62
     7
370
    25
100
AcDbCircle
 10
191.4670748299
 20
188.8478911565
 30
0.0
 40
16.92701680913666
100
AcDbArc
 50
180.0
 51
270.0
  0
LINE
  5
2A2
330
1F
100
AcDbEntity
  8
0
  6
Continuous
 62
     7
370
    25
100
AcDbLine
 10
997.9070748299
 20
414.7278911565
 30
0.0
 11
989.8949070199
 21
414.7278911565
 31
0.0
  0
LINE
  5
2A3
330
1F
100
AcDbEntity
  8
0
  6
Continuous
 62
     7
370
    25
100
AcDbLine
 10
989.8949070199
 20
414.7278911565
 30
0.0
 11
989.9949070199
 21
414.8278911565
 31
0.0
  0
LINE
  5
2A4
330
1F
100
AcDbEntity
  8
0
  6
Continuous
 62
     7
370
    25
100
AcDbLine
 10
989.9949070199
 20
414.8278911565
 30
0.0
 11
997.8070748299
 21
414.8278911565
 31
0.0
  0
LINE
  5
2A5
330
1F
100
AcDbEntity
  8
0
  6
Continuous
 62
     7
370
    25
100
AcDbLine
 10
997.9070748299
 20
414.7278911565
 30
0.0
 11
997.8070748299
 21
414.8278911565
 31
0.0
  0
LINE
  5
2A6
330
1F
100
AcDbEntity
  8
0
  6
Continuous
 62
     7
370
    25
100
AcDbLine
 10
996.9070748299
 20
430.8878911565
 30
0.0
 11
990.8949070199
 21
430.8878911565
 31
0.0
  0
LINE
  5
2A7
330
1F
100
AcDbEntity
  8
0
  6
Continuous
 62
     7
370
    25
100
AcDbLine
 10
990.8949070199
 20
430.8878911565
 30
0.0
 11
990.8949070199
 21
430.9878911565
 31
0.0
  0
LINE
  5
2A8
330
1F
100
AcDbEntity
  8
0
  6
Continuous
 62
     7
370
    25
100
AcDbLine
 10
990.8949070199
 20
430.9878911565
 30
0.0
 11
996.9070748299
 21
430.9878911565
 31
0.0
  0
LINE
  5
2A9
330
1F
100
AcDbEntity
  8
0
  6
Continuous
 62
     7
370
    25
100
AcDbLine
 10
996.9070748299
 20
430.8878911565
 30
0.0
 11
996.9070748299
 21
430.9878911565
 31
0.0
  0
LINE
  5
2AA
330
1F
100
AcDbEntity
  8
0
  6
Continuous
 62
     7
370
    25
100
AcDbLine
 10
992.2662708099
 20
400.2282303565
 30
0.0
 11
992.2662708099
 21
397.9678911565
 31
0.0
  0
LINE
  5
2AB
330
1F
100
AcDbEntity
  8
0
  6
Continuous
 62
     7
370
    25
100
AcDbLine
 10
992.2662708099
 20
397.9678911565
 30
0.0
 11
992.1662708099
 21
398.0678911565
 31
0.0
  0
LINE
  5
2AC
330
1F
100
AcDbEntity
  8
0
  6
Continuous
 62
     7
370
    25
100
AcDbLine
 10
992.1662708099
 20
398.0678911565
 30
0.0
 11
992.1662708099
 21
400.3282303565
 31
0.0
  0
LINE
  5
2AD
330
1F
100
AcDbEntity
  8
0
  6
Continuous
 62
     7
370
    25
100
AcDbLine
 10
992.2662708099
 20
400.2282303565
 30
0.0
 11
992.1662708099
 21
400.3282303565
 31
0.0
  0
LINE
  5
2AE
330
1F
100
AcDbEntity
  8
0
  6
Continuous
 62
     7
370
    25
100
AcDbLine
 10
989.9949070199
 20
414.1278911565
 30
0.0
 11
989.9949070199
 21
406.4478911565
 31
0.0
  0
LINE
  5
2AF
330
1F
100
AcDbEntity
  8
0
  6
Continuous
 62
     7
370
    25
100
AcDbLine
 10
989.8949070199
 20
406.3478911565
 30
0.0
 11
989.9949070199
 21
406.4478911565
 31
0.0
  0
LINE
  5
2B0
330
1F
100
AcDbEntity
  8
0
  6
Continuous
 62
     7
370
    25
100
AcDbLine
 10
989.8949070199
 20
406.3478911565
 30
0.0
 11
989.8949070199
 21
414.2278911565
 31
0.0
  0
LINE
  5
2B1
330
1F
100
AcDbEntity
  8
0
  6
Continuous
 62
     7
370
    25
100
AcDbLine
 10
989.9949070199
 20
414.1278911565
 30
0.0
 11
989.8949070199
 21
414.2278911565
 31
0.0
  0
LINE
  5
2B2
330
1F
100
AcDbEntity
  8
0
  6
Continuous
 62
     7
370
    25
100
AcDbLine
 10
989.9949070199
 20
397.3678911565
 30
0.0
 11
989.9949070199
 21
390.5878911565
 31
0.0
  0
LINE
  5
2B3
330
1F
100
AcDbEntity
  8
0
  6
Continuous
 62
     7
370
    25
100
AcDbLine
 10
989.8949070199
 20
390.5878911565
 30
0.0
 11
989.9949070199
 21
390.5878911565
 31
0.0
  0
LINE
  5
2B4
330
1F
100
AcDbEntity
  8
0
  6
Continuous
 62
     7
370
    25
100
AcDbLine
 10
989.8949070199
 20
390.5878911565
 30
0.0
 11
989.8949070199
 21
397.4678911565
 31
0.0
  0
LINE
  5
2B5
330
1F
100
AcDbEntity
  8
0
  6
Continuous
 62
     7
370
    25
100
AcDbLine
 10
989.9949070199
 20
397.3678911565
 30
0.0
 11
989.8949070199
 21
397.4678911565
 31
0.0
  0
LINE
  5
2B6
330
1F
100
AcDbEntity
  8
0
  6
Continuous
 62
     7
370
    25
100
AcDbLine
 10
992.1662708099
 20
400.3282303565
 30
0.0
 11
997.8070748299
 21
400.3282303565
 31
0.0
  0
LINE
  5
2B7
330
1F
100
AcDbEntity
  8
0
  6
Continuous
 62
     7
370
    25
100
AcDbLine
 10
997.8070748299
 20
400.3282303565
 30
0.0
 11
997.9070748299
 21
400.2282303565
 31
0.0
  0
LINE
  5
2B8
330
1F
100
AcDbEntity
  8
0
  6
Continuous
 62
     7
370
    25
100
AcDbLine
 10
997.9070748299
 20
400.2282303565
 30
0.0
 11
992.2662708099
 21
400.2282303565
 31
0.0
  0
LINE
  5
2B9
330
1F
100
AcDbEntity
  8
0
  6
Continuous
 62
     7
370
    25
100
AcDbLine
 10
992.7662708099
 20
411.8210154065
 30
0.0
 11
992.2662708099
 21
411.8210154065
 31
0.0
  0
LINE
  5
2BA
330
1F
100
AcDbEntity
  8
0
  6
Continuous
 62
     7
370
    25
100
AcDbLine
 10
992.2662708099
 20
411.8210154065
 30
0.0
 11
992.1662708099
 21
411.9210154065
 31
0.0
  0
LINE
  5
2BB
330
1F
100
AcDbEntity
  8
0
  6
Continuous
 62
     7
370
    25
100
AcDbLine
 10
992.1662708099
 20
411.9210154065
 30
0.0
 11
992.8662708099
 21
411.9210154065
 31
0.0
  0
LINE
  5
2BC
330
1F
100
AcDbEntity
  8
0
  6
Continuous
 62
     7
370
    25
100
AcDbLine
 10
992.7662708099
 20
411.8210154065
 30
0.0
 11
992.8662708099
 21
411.9210154065
 31
0.0
  0
LINE
  5
2BD
330
1F
100
AcDbEntity
  8
0
  6
Continuous
 62
     7
370
    25
100
AcDbLine
 10
989.9949070199
 20
429.9878911565
 30
0.0
 11
989.9949070199
 21
423.2078911565
 31
0.0
  0
ARC
  5
2BE
330
1F
100
AcDbEntity
  8
0
  6
Continuous
 62
     7
370
    25
100
AcDbCircle
 10
990.8949070199
 20
429.9878911565
 30
0.0
 40
0.8999999999999773
100
AcDbArc
 50
90.0
 51
180.0
  0
ARC
  5
2BF
330
1F
100
AcDbEntity
  8
0
  6
Continuous
 62
     7
370
    25
100
AcDbCircle
 10
996.9070748299
 20
429.9878911565
 30
0.0
 40
0.8999999999999773
100
AcDbArc
 50
0.0
 51
90.0
  0
LINE
  5
2C0
330
1F
100
AcDbEntity
  8
0
  6
Continuous
 62
     7
370
    25
100
AcDbLine
 10
997.8070748299
 20
423.2078911565
 30
0.0
 11
997.8070748299
 21
429.9878911565
 31
0.0
  0
LINE
  5
2C1
330
1F
100
AcDbEntity
  8
0
  6
Continuous
 62
     7
370
    25
100
AcDbLine
 10
992.8662708099
 20
423.2078911565
 30
0.0
 11
997.8070748299
 21
423.2078911565
 31
0.0
  0
LINE
  5
2C2
330
1F
100
AcDbEntity
  8
0
  6
Continuous
 62
     7
370
    25
100
AcDbLine
 10
992.8662708099
 20
428.4980766365
 30
0.0
 11
992.8662708099
 21
423.2078911565
 31
0.0
  0
LINE
  5
2C3
330
1F
100
AcDbEntity
  8
0
  6
Continuous
 62
     7
370
    25
100
AcDbLine
 10
992.1662708099
 20
428.4980766365
 30
0.0
 11
992.8662708099
 21
428.4980766365
 31
0.0
  0
LINE
  5
2C4
330
1F
100
AcDbEntity
  8
0
  6
Continuous
 62
     7
370
    25
100
AcDbLine
 10
992.1662708099
 20
423.2078911565
 30
0.0
 11
992.1662708099
 21
428.4980766365
 31
0.0
  0
LINE
  5
2C5
330
1F
100
AcDbEntity
  8
0
  6
Continuous
 62
     7
370
    25
100
AcDbLine
 10
989.9949070199
 20
423.2078911565
 30
0.0
 11
992.1662708099
 21
423.2078911565
 31
0.0
  0
LINE
  5
2C6
330
1F
100
AcDbEntity
  8
0
  6
Continuous
 62
     7
370
    25
100
AcDbLine
 10
995.6357110399
 20
425.0640586365
 30
0.0
 11
994.9357110399
 21
425.0640586365
 31
0.0
  0
LINE
  5
2C7
330
1F
100
AcDbEntity
  8
0
  6
Continuous
 62
     7
370
    25
100
AcDbLine
 10
995.6357110399
 20
428.4980766365
 30
0.0
 11
995.6357110399
 21
425.0640586365
 31
0.0
  0
LINE
  5
2C8
330
1F
100
AcDbEntity
  8
0
  6
Continuous
 62
     7
370
    25
100
AcDbLine
 10
994.9357110399
 20
428.4980766365
 30
0.0
 11
995.6357110399
 21
428.4980766365
 31
0.0
  0
LINE
  5
2C9
330
1F
100
AcDbEntity
  8
0
  6
Continuous
 62
     7
370
    25
100
AcDbLine
 10
994.9357110399
 20
425.0640586365
 30
0.0
 11
994.9357110399
 21
428.4980766365
 31
0.0
  0
LINE
  5
2CA
330
1F
100
AcDbEntity
  8
0
  6
Continuous
 62
     7
370
    25
100
AcDbLine
 10
997.8070748299
 20
414.1278911565
 30
0.0
 11
989.9949070199
 21
414.1278911565
 31
0.0
  0
LINE
  5
2CB
330
1F
100
AcDbEntity
  8
0
  6
Continuous
 62
     7
370
    25
100
AcDbLine
 10
989.8949070199
 20
414.2278911565
 30
0.0
 11
997.9070748299
 21
414.2278911565
 31
0.0
  0
LINE
  5
2CC
330
1F
100
AcDbEntity
  8
0
  6
Continuous
 62
     7
370
    25
100
AcDbLine
 10
997.8070748299
 20
414.1278911565
 30
0.0
 11
997.9070748299
 21
414.2278911565
 31
0.0
  0
LINE
  5
2CD
330
1F
100
AcDbEntity
  8
0
  6
Continuous
 62
     7
370
    25
100
AcDbLine
 10
992.2662708099
 20
406.3478911565
 30
0.0
 11
989.8949070199
 21
406.3478911565
 31
0.0
  0
LINE
  5
2CE
330
1F
100
AcDbEntity
  8
0
  6
Continuous
 62
     7
370
    25
100
AcDbLine
 10
989.9949070199
 20
406.4478911565
 30
0.0
 11
992.1662708099
 21
406.4478911565
 31
0.0
  0
LINE
  5
2CF
330
1F
100
AcDbEntity
  8
0
  6
Continuous
 62
     7
370
    25
100
AcDbLine
 10
992.2662708099
 20
406.3478911565
 30
0.0
 11
992.1662708099
 21
406.4478911565
 31
0.0
  0
LINE
  5
2D0
330
1F
100
AcDbEntity
  8
0
  6
Continuous
 62
     7
370
    25
100
AcDbLine
 10
992.8662708099
 20
406.4478911565
 30
0.0
 11
997.8070748299
 21
406.4478911565
 31
0.0
  0
LINE
  5
2D1
330
1F
100
AcDbEntity
  8
0
  6
Continuous
 62
     7
370
    25
100
AcDbLine
 10
997.8070748299
 20
406.4478911565
 30
0.0
 11
997.9070748299
 21
406.3478911565
 31
0.0
  0
LINE
  5
2D2
330
1F
100
AcDbEntity
  8
0
  6
Continuous
 62
     7
370
    25
100
AcDbLine
 10
997.9070748299
 20
406.3478911565
 30
0.0
 11
992.7662708099
 21
406.3478911565
 31
0.0
  0
LINE
  5
2D3
330
1F
100
AcDbEntity
  8
0
  6
Continuous
 62
     7
370
    25
100
AcDbLine
 10
992.8662708099
 20
406.4478911565
 30
0.0
 11
992.7662708099
 21
406.3478911565
 31
0.0
  0
LINE
  5
2D4
330
1F
100
AcDbEntity
  8
0
  6
Continuous
 62
     7
370
    25
100
AcDbLine
 10
999.8357204923
 20
600.2878911565
 30
0.0
 11
999.8357204923
 21
601.7878911565
 31
0.0
  0
LINE
  5
2D5
330
1F
100
AcDbEntity
  8
0
  6
Continuous
 62
     7
370
    25
100
AcDbLine
 10
767.7820748299
 20
600.2878911565
 30
0.0
 11
999.8357204923
 21
600.2878911565
 31
0.0
  0
LINE
  5
2D6
330
1F
100
AcDbEntity
  8
0
  6
Continuous
 62
     7
370
    25
100
AcDbLine
 10
767.7820748299
 20
601.7878911565
 30
0.0
 11
767.7820748299
 21
600.2878911565
 31
0.0
  0
LINE
  5
2D7
330
1F
100
AcDbEntity
  8
0
  6
Continuous
 62
     7
370
    25
100
AcDbLine
 10
767.7820748299
 20
601.7878911565
 30
0.0
 11
999.8357204923
 21
601.7878911565
 31
0.0
  0
LINE
  5
2D8
330
1F
100
AcDbEntity
  8
0
  6
Continuous
 62
     7
370
    25
100
AcDbLine
 10
997.8070748299
 20
400.3282303565
 30
0.0
 11
997.8070748299
 21
403.9588058965
 31
0.0
  0
LINE
  5
2D9
330
1F
100
AcDbEntity
  8
0
  6
Continuous
 62
     7
370
    25
100
AcDbLine
 10
997.8070748299
 20
403.9588058965
 30
0.0
 11
997.9070748299
 21
404.0588058965
 31
0.0
  0
LINE
  5
2DA
330
1F
100
AcDbEntity
  8
0
  6
Continuous
 62
     7
370
    25
100
AcDbLine
 10
997.9070748299
 20
404.0588058965
 30
0.0
 11
997.9070748299
 21
400.2282303565
 31
0.0
  0
LINE
  5
2DB
330
1F
100
AcDbEntity
  8
0
  6
Continuous
 62
     7
370
    25
100
AcDbLine
 10
997.9070748299
 20
429.9878911565
 30
0.0
 11
997.9070748299
 21
423.1078911565
 31
0.0
  0
LINE
  5
2DC
330
1F
100
AcDbEntity
  8
0
  6
Continuous
 62
     7
370
    25
100
AcDbLine
 10
997.9070748299
 20
423.1078911565
 30
0.0
 11
997.8070748299
 21
423.2078911565
 31
0.0
  0
LINE
  5
2DD
330
1F
100
AcDbEntity
  8
0
  6
Continuous
 62
     7
370
    25
100
AcDbLine
 10
997.9070748299
 20
429.9878911565
 30
0.0
 11
997.8070748299
 21
429.9878911565
 31
0.0
  0
LINE
  5
2DE
330
1F
100
AcDbEntity
  8
0
  6
Continuous
 62
     7
370
    25
100
AcDbLine
 10
989.9949070199
 20
429.9878911565
 30
0.0
 11
989.8949070199
 21
429.9878911565
 31
0.0
  0
ARC
  5
2DF
330
1F
100
AcDbEntity
  8
0
  6
Continuous
 62
     7
370
    25
100
AcDbCircle
 10
990.8949070199
 20
429.9878911565
 30
0.0
 40
1.0
100
AcDbArc
 50
90.0
 51
180.0
  0
LINE
  5
2E0
330
1F
100
AcDbEntity
  8
0
  6
Continuous
 62
     7
370
    25
100
AcDbLine
 10
994.9357110399
 20
428.4980766365
 30
0.0
 11
995.0357110399
 21
428.3980766365
 31
0.0
  0
LINE
  5
2E1
330
1F
100
AcDbEntity
  8
0
  6
Continuous
 62
     7
370
    25
100
AcDbLine
 10
995.0357110399
 20
428.3980766365
 30
0.0
 11
995.0357110399
 21
425.1640586365
 31
0.0
  0
LINE
  5
2E2
330
1F
100
AcDbEntity
  8
0
  6
Continuous
 62
     7
370
    25
100
AcDbLine
 10
994.9357110399
 20
425.0640586365
 30
0.0
 11
995.0357110399
 21
425.1640586365
 31
0.0
  0
LINE
  5
2E3
330
1F
100
AcDbEntity
  8
0
  6
Continuous
 62
     7
370
    25
100
AcDbLine
 10
989.9949070199
 20
423.2078911565
 30
0.0
 11
989.8949070199
 21
423.1078911565
 31
0.0
  0
LINE
  5
2E4
330
1F
100
AcDbEntity
  8
0
  6
Continuous
 62
     7
370
    25
100
AcDbLine
 10
989.8949070199
 20
423.1078911565
 30
0.0
 11
989.8949070199
 21
429.9878911565
 31
0.0
  0
LINE
  5
2E5
330
1F
100
AcDbEntity
  8
0
  6
Continuous
 62
     7
370
    25
100
AcDbLine
 10
767.7820748299
 20
221.7878911565
 30
0.0
 11
767.7820748299
 21
220.2878911565
 31
0.0
  0
LINE
  5
2E6
330
1F
100
AcDbEntity
  8
0
  6
Continuous
 62
     7
370
    25
100
AcDbLine
 10
767.7820748299
 20
220.2878911565
 30
0.0
 11
751.7820748299
 21
220.2878911565
 31
0.0
  0
LINE
  5
2E7
330
1F
100
AcDbEntity
  8
0
  6
Continuous
 62
     7
370
    25
100
AcDbLine
 10
751.7820748299
 20
220.2878911565
 30
0.0
 11
751.7820748299
 21
220.3638316896
 31
0.0
  0
LINE
  5
2E8
330
1F
100
AcDbEntity
  8
0
  6
Continuous
 62
     7
370
    25
100
AcDbLine
 10
751.7820748299
 20
220.3638316896
 30
0.0
 11
767.7820748299
 21
221.7878911565
 31
0.0
  0
LINE
  5
2E9
330
1F
100
AcDbEntity
  8
0
  6
Continuous
 62
     7
370
    25
100
AcDbLine
 10
997.8070748299
 20
406.4478911565
 30
0.0
 11
997.8070748299
 21
414.1278911565
 31
0.0
  0
LINE
  5
2EA
330
1F
100
AcDbEntity
  8
0
  6
Continuous
 62
     7
370
    25
100
AcDbLine
 10
997.9070748299
 20
414.2278911565
 30
0.0
 11
997.9070748299
 21
406.3478911565
 31
0.0
  0
LINE
  5
2EB
330
1F
100
AcDbEntity
  8
0
  6
Continuous
 62
     7
370
    25
100
AcDbLine
 10
992.2662708099
 20
411.8210154065
 30
0.0
 11
992.2662708099
 21
406.3478911565
 31
0.0
  0
LINE
  5
2EC
330
1F
100
AcDbEntity
  8
0
  6
Continuous
 62
     7
370
    25
100
AcDbLine
 10
992.1662708099
 20
406.4478911565
 30
0.0
 11
992.1662708099
 21
411.9210154065
 31
0.0
  0
ARC
  5
2ED
330
1F
100
AcDbEntity
  8
0
  6
Continuous
 62
     7
370
    25
100
AcDbCircle
 10
990.8949070199
 20
390.5878911565
 30
0.0
 40
1.0
100
AcDbArc
 50
180.0
 51
270.0
  0
ARC
  5
2EE
330
1F
100
AcDbEntity
  8
0
  6
Continuous
 62
     7
370
    25
100
AcDbCircle
 10
990.8949070199
 20
390.5878911565
 30
0.0
 40
0.9000000000000341
100
AcDbArc
 50
180.0
 51
270.0
  0
LINE
  5
2EF
330
1F
100
AcDbEntity
  8
0
  6
Continuous
 62
     7
370
    25
100
AcDbLine
 10
990.8949070199
 20
389.5878911565
 30
0.0
 11
990.8949070199
 21
389.6878911565
 31
0.0
  0
LINE
  5
2F0
330
1F
100
AcDbEntity
  8
0
  6
Continuous
 62
     7
370
    25
100
AcDbLine
 10
995.0357110399
 20
425.1640586365
 30
0.0
 11
995.5357110399
 21
425.1640586365
 31
0.0
  0
LINE
  5
2F1
330
1F
100
AcDbEntity
  8
0
  6
Continuous
 62
     7
370
    25
100
AcDbLine
 10
995.5357110399
 20
425.1640586365
 30
0.0
 11
995.6357110399
 21
425.0640586365
 31
0.0
  0
LINE
  5
2F2
330
1F
100
AcDbEntity
  8
0
  6
Continuous
 62
     7
370
    25
100
AcDbLine
 10
995.5357110399
 20
428.3980766365
 30
0.0
 11
995.0357110399
 21
428.3980766365
 31
0.0
  0
LINE
  5
2F3
330
1F
100
AcDbEntity
  8
0
  6
Continuous
 62
     7
370
    25
100
AcDbLine
 10
995.5357110399
 20
428.3980766365
 30
0.0
 11
995.6357110399
 21
428.4980766365
 31
0.0
  0
LINE
  5
2F4
330
1F
100
AcDbEntity
  8
0
  6
Continuous
 62
     7
370
    25
100
AcDbLine
 10
999.8357204923
 20
598.7878911565
 30
0.0
 11
999.8357204923
 21
600.2878911565
 31
0.0
  0
LINE
  5
2F5
330
1F
100
AcDbEntity
  8
0
  6
Continuous
 62
     7
370
    25
100
AcDbLine
 10
767.7820748299
 20
598.7878911565
 30
0.0
 11
999.8357204923
 21
598.7878911565
 31
0.0
  0
LINE
  5
2F6
330
1F
100
AcDbEntity
  8
0
  6
Continuous
 62
     7
370
    25
100
AcDbLine
 10
767.7820748299
 20
600.2878911565
 30
0.0
 11
767.7820748299
 21
598.7878911565
 31
0.0
  0
LINE
  5
2F7
330
1F
100
AcDbEntity
  8
0
  6
Continuous
 62
     7
370
    25
100
AcDbLine
 10
995.6357110399
 20
422.5078911565
 30
0.0
 11
995.6357110399
 21
418.4584666965
 31
0.0
  0
LINE
  5
2F8
330
1F
100
AcDbEntity
  8
0
  6
Continuous
 62
     7
370
    25
100
AcDbLine
 10
995.6357110399
 20
418.4584666965
 30
0.0
 11
995.5357110399
 21
418.5584666965
 31
0.0
  0
LINE
  5
2F9
330
1F
100
AcDbEntity
  8
0
  6
Continuous
 62
     7
370
    25
100
AcDbLine
 10
995.5357110399
 20
418.5584666965
 30
0.0
 11
995.5357110399
 21
422.6078911565
 31
0.0
  0
LINE
  5
2FA
330
1F
100
AcDbEntity
  8
0
  6
Continuous
 62
     7
370
    25
100
AcDbLine
 10
995.6357110399
 20
422.5078911565
 30
0.0
 11
995.5357110399
 21
422.6078911565
 31
0.0
  0
LINE
  5
2FB
330
1F
100
AcDbEntity
  8
0
  6
Continuous
 62
     7
370
    25
100
AcDbLine
 10
997.9070748299
 20
422.6078911565
 30
0.0
 11
997.9070748299
 21
414.7278911565
 31
0.0
  0
LINE
  5
2FC
330
1F
100
AcDbEntity
  8
0
  6
Continuous
 62
     7
370
    25
100
AcDbLine
 10
997.8070748299
 20
414.8278911565
 30
0.0
 11
997.8070748299
 21
422.5078911565
 31
0.0
  0
LINE
  5
2FD
330
1F
100
AcDbEntity
  8
0
  6
Continuous
 62
     7
370
    25
100
AcDbLine
 10
997.9070748299
 20
422.6078911565
 30
0.0
 11
997.8070748299
 21
422.5078911565
 31
0.0
  0
LINE
  5
2FE
330
1F
100
AcDbEntity
  8
0
  6
Continuous
 62
     7
370
    25
100
AcDbLine
 10
997.9070748299
 20
423.1078911565
 30
0.0
 11
992.7662708099
 21
423.1078911565
 31
0.0
  0
LINE
  5
2FF
330
1F
100
AcDbEntity
  8
0
  6
Continuous
 62
     7
370
    25
100
AcDbLine
 10
992.7662708099
 20
423.1078911565
 30
0.0
 11
992.8662708099
 21
423.2078911565
 31
0.0
  0
LINE
  5
300
330
1F
100
AcDbEntity
  8
0
  6
Continuous
 62
     7
370
    25
100
AcDbLine
 10
995.5357110399
 20
395.1185544665
 30
0.0
 11
995.0357110399
 21
395.1185544665
 31
0.0
  0
LINE
  5
301
330
1F
100
AcDbEntity
  8
0
  6
Continuous
 62
     7
370
    25
100
AcDbLine
 10
995.0357110399
 20
395.1185544665
 30
0.0
 11
994.9357110399
 21
395.2185544665
 31
0.0
  0
LINE
  5
302
330
1F
100
AcDbEntity
  8
0
  6
Continuous
 62
     7
370
    25
100
AcDbLine
 10
994.9357110399
 20
395.2185544665
 30
0.0
 11
995.6357110399
 21
395.2185544665
 31
0.0
  0
LINE
  5
303
330
1F
100
AcDbEntity
  8
0
  6
Continuous
 62
     7
370
    25
100
AcDbLine
 10
995.5357110399
 20
395.1185544665
 30
0.0
 11
995.6357110399
 21
395.2185544665
 31
0.0
  0
LINE
  5
304
330
1F
100
AcDbEntity
  8
0
  6
Continuous
 62
     7
370
    25
100
AcDbLine
 10
995.0357110399
 20
395.1185544665
 30
0.0
 11
995.0357110399
 21
389.5878911565
 31
0.0
  0
LINE
  5
305
330
1F
100
AcDbEntity
  8
0
  6
Continuous
 62
     7
370
    25
100
AcDbLine
 10
995.0357110399
 20
389.5878911565
 30
0.0
 11
994.9357110399
 21
389.6878911565
 31
0.0
  0
LINE
  5
306
330
1F
100
AcDbEntity
  8
0
  6
Continuous
 62
     7
370
    25
100
AcDbLine
 10
994.9357110399
 20
389.6878911565
 30
0.0
 11
994.9357110399
 21
395.2185544665
 31
0.0
  0
LINE
  5
307
330
1F
100
AcDbEntity
  8
0
  6
Continuous
 62
     7
370
    25
100
AcDbLine
 10
995.6357110399
 20
418.4584666965
 30
0.0
 11
989.9949070199
 21
418.4584666965
 31
0.0
  0
LINE
  5
308
330
1F
100
AcDbEntity
  8
0
  6
Continuous
 62
     7
370
    25
100
AcDbLine
 10
989.9949070199
 20
418.4584666965
 30
0.0
 11
989.8949070199
 21
418.5584666965
 31
0.0
  0
LINE
  5
309
330
1F
100
AcDbEntity
  8
0
  6
Continuous
 62
     7
370
    25
100
AcDbLine
 10
989.8949070199
 20
418.5584666965
 30
0.0
 11
995.5357110399
 21
418.5584666965
 31
0.0
  0
LINE
  5
30A
330
1F
100
AcDbEntity
  8
0
  6
Continuous
 62
     7
370
    25
100
AcDbLine
 10
989.9949070199
 20
418.4584666965
 30
0.0
 11
989.9949070199
 21
414.8278911565
 31
0.0
  0
LINE
  5
30B
330
1F
100
AcDbEntity
  8
0
  6
Continuous
 62
     7
370
    25
100
AcDbLine
 10
989.8949070199
 20
414.7278911565
 30
0.0
 11
989.8949070199
 21
418.5584666965
 31
0.0
  0
LINE
  5
30C
330
1F
100
AcDbEntity
  8
0
  6
Continuous
 62
     7
370
    25
100
AcDbLine
 10
992.1662708099
 20
397.3678911565
 30
0.0
 11
989.9949070199
 21
397.3678911565
 31
0.0
  0
LINE
  5
30D
330
1F
100
AcDbEntity
  8
0
  6
Continuous
 62
     7
370
    25
100
AcDbLine
 10
989.8949070199
 20
397.4678911565
 30
0.0
 11
992.2662708099
 21
397.4678911565
 31
0.0
  0
LINE
  5
30E
330
1F
100
AcDbEntity
  8
0
  6
Continuous
 62
     7
370
    25
100
AcDbLine
 10
992.1662708099
 20
397.3678911565
 30
0.0
 11
992.2662708099
 21
397.4678911565
 31
0.0
  0
LINE
  5
30F
330
1F
100
AcDbEntity
  8
0
  6
Continuous
 62
     7
370
    25
100
AcDbLine
 10
995.0357110399
 20
389.5878911565
 30
0.0
 11
990.8949070199
 21
389.5878911565
 31
0.0
  0
LINE
  5
310
330
1F
100
AcDbEntity
  8
0
  6
Continuous
 62
     7
370
    25
100
AcDbLine
 10
990.8949070199
 20
389.6878911565
 30
0.0
 11
994.9357110399
 21
389.6878911565
 31
0.0
  0
LINE
  5
311
330
1F
100
AcDbEntity
  8
0
  6
Continuous
 62
     7
370
    25
100
AcDbLine
 10
995.5357110399
 20
425.1640586365
 30
0.0
 11
995.5357110399
 21
428.3980766365
 31
0.0
  0
ARC
  5
312
330
1F
100
AcDbEntity
  8
0
  6
Continuous
 62
     7
370
    25
100
AcDbCircle
 10
996.9070748299
 20
429.9878911565
 30
0.0
 40
1.0
100
AcDbArc
 50
0.0
 51
90.0
  0
LINE
  5
313
330
1F
100
AcDbEntity
  8
0
  6
Continuous
 62
     7
370
    25
100
AcDbLine
 10
997.7949070199
 20
397.3704627865
 30
0.0
 11
992.8662708099
 21
397.3704627865
 31
0.0
  0
LINE
  5
314
330
1F
100
AcDbEntity
  8
0
  6
Continuous
 62
     7
370
    25
100
AcDbLine
 10
992.8662708099
 20
397.3704627865
 30
0.0
 11
992.7662708099
 21
397.4704627865
 31
0.0
  0
LINE
  5
315
330
1F
100
AcDbEntity
  8
0
  6
Continuous
 62
     7
370
    25
100
AcDbLine
 10
992.7662708099
 20
397.4704627865
 30
0.0
 11
997.8949070199
 21
397.4704627865
 31
0.0
  0
LINE
  5
316
330
1F
100
AcDbEntity
  8
0
  6
Continuous
 62
     7
370
    25
100
AcDbLine
 10
997.7949070199
 20
397.3704627865
 30
0.0
 11
997.8949070199
 21
397.4704627865
 31
0.0
  0
LINE
  5
317
330
1F
100
AcDbEntity
  8
0
  6
Continuous
 62
     7
370
    25
100
AcDbLine
 10
995.5357110399
 20
389.5878911565
 30
0.0
 11
995.5357110399
 21
395.1185544665
 31
0.0
  0
LINE
  5
318
330
1F
100
AcDbEntity
  8
0
  6
Continuous
 62
     7
370
    25
100
AcDbLine
 10
995.6357110399
 20
395.2185544665
 30
0.0
 11
995.6357110399
 21
389.6878911565
 31
0.0
  0
LINE
  5
319
330
1F
100
AcDbEntity
  8
0
  6
Continuous
 62
     7
370
    25
100
AcDbLine
 10
995.5357110399
 20
389.5878911565
 30
0.0
 11
995.6357110399
 21
389.6878911565
 31
0.0
  0
LINE
  5
31A
330
1F
100
AcDbEntity
  8
0
  6
Continuous
 62
     7
370
    25
100
AcDbLine
 10
992.8662708099
 20
397.3704627865
 30
0.0
 11
992.8662708099
 21
392.0664225765
 31
0.0
  0
LINE
  5
31B
330
1F
100
AcDbEntity
  8
0
  6
Continuous
 62
     7
370
    25
100
AcDbLine
 10
992.8662708099
 20
392.0664225765
 30
0.0
 11
992.7662708099
 21
392.1664225765
 31
0.0
  0
LINE
  5
31C
330
1F
100
AcDbEntity
  8
0
  6
Continuous
 62
     7
370
    25
100
AcDbLine
 10
992.7662708099
 20
392.1664225765
 30
0.0
 11
992.7662708099
 21
397.4704627865
 31
0.0
  0
LINE
  5
31D
330
1F
100
AcDbEntity
  8
0
  6
Continuous
 62
     7
370
    25
100
AcDbLine
 10
992.1662708099
 20
392.0664225765
 30
0.0
 11
992.1662708099
 21
397.3678911565
 31
0.0
  0
LINE
  5
31E
330
1F
100
AcDbEntity
  8
0
  6
Continuous
 62
     7
370
    25
100
AcDbLine
 10
992.8662708099
 20
392.0664225765
 30
0.0
 11
992.1662708099
 21
392.0664225765
 31
0.0
  0
LINE
  5
31F
330
1F
100
AcDbEntity
  8
0
  6
Continuous
 62
     7
370
    25
100
AcDbLine
 10
997.7949070199
 20
390.5878911565
 30
0.0
 11
997.7949070199
 21
397.3704627865
 31
0.0
  0
ARC
  5
320
330
1F
100
AcDbEntity
  8
0
  6
Continuous
 62
     7
370
    25
100
AcDbCircle
 10
996.8949070199
 20
390.5878911565
 30
0.0
 40
0.9000000000000341
100
AcDbArc
 50
270.0
 51
0.0
  0
LINE
  5
321
330
1F
100
AcDbEntity
  8
0
  6
Continuous
 62
     7
370
    25
100
AcDbLine
 10
995.6357110399
 20
389.6878911565
 30
0.0
 11
996.8949070199
 21
389.6878911565
 31
0.0
  0
LINE
  5
322
330
1F
100
AcDbEntity
  8
0
  6
Continuous
 62
     7
370
    25
100
AcDbLine
 10
1015.8357204923
 20
600.3638316896
 30
0.0
 11
1015.8357204923
 21
600.2878911565
 31
0.0
  0
LINE
  5
323
330
1F
100
AcDbEntity
  8
0
  6
Continuous
 62
     7
370
    25
100
AcDbLine
 10
1015.8357204923
 20
600.2878911565
 30
0.0
 11
999.8357204923
 21
600.2878911565
 31
0.0
  0
LINE
  5
324
330
1F
100
AcDbEntity
  8
0
  6
Continuous
 62
     7
370
    25
100
AcDbLine
 10
999.8357204923
 20
601.7878911565
 30
0.0
 11
1015.8357204923
 21
600.3638316896
 31
0.0
  0
LINE
  5
325
330
1F
100
AcDbEntity
  8
0
  6
Continuous
 62
     7
370
    25
100
AcDbLine
 10
992.2662708099
 20
397.4678911565
 30
0.0
 11
992.2662708099
 21
392.1664225765
 31
0.0
  0
LINE
  5
326
330
1F
100
AcDbEntity
  8
0
  6
Continuous
 62
     7
370
    25
100
AcDbLine
 10
992.1662708099
 20
392.0664225765
 30
0.0
 11
992.2662708099
 21
392.1664225765
 31
0.0
  0
LINE
  5
327
330
1F
100
AcDbEntity
  8
0
  6
Continuous
 62
     7
370
    25
100
AcDbLine
 10
989.8949070199
 20
397.9678911565
 30
0.0
 11
989.8949070199
 21
405.8478911565
 31
0.0
  0
LINE
  5
328
330
1F
100
AcDbEntity
  8
0
  6
Continuous
 62
     7
370
    25
100
AcDbLine
 10
989.8949070199
 20
405.8478911565
 30
0.0
 11
989.9949070199
 21
405.7478911565
 31
0.0
  0
LINE
  5
329
330
1F
100
AcDbEntity
  8
0
  6
Continuous
 62
     7
370
    25
100
AcDbLine
 10
989.9949070199
 20
405.7478911565
 30
0.0
 11
989.9949070199
 21
398.0678911565
 31
0.0
  0
LINE
  5
32A
330
1F
100
AcDbEntity
  8
0
  6
Continuous
 62
     7
370
    25
100
AcDbLine
 10
989.8949070199
 20
397.9678911565
 30
0.0
 11
989.9949070199
 21
398.0678911565
 31
0.0
  0
LINE
  5
32B
330
1F
100
AcDbEntity
  8
0
  6
Continuous
 62
     7
370
    25
100
AcDbLine
 10
992.1662708099
 20
405.7478911565
 30
0.0
 11
989.9949070199
 21
405.7478911565
 31
0.0
  0
LINE
  5
32C
330
1F
100
AcDbEntity
  8
0
  6
Continuous
 62
     7
370
    25
100
AcDbLine
 10
989.8949070199
 20
405.8478911565
 30
0.0
 11
992.2662708099
 21
405.8478911565
 31
0.0
  0
LINE
  5
32D
330
1F
100
AcDbEntity
  8
0
  6
Continuous
 62
     7
370
    25
100
AcDbLine
 10
992.1662708099
 20
405.7478911565
 30
0.0
 11
992.2662708099
 21
405.8478911565
 31
0.0
  0
LINE
  5
32E
330
1F
100
AcDbEntity
  8
0
  6
Continuous
 62
     7
370
    25
100
AcDbLine
 10
997.7949070199
 20
390.5878911565
 30
0.0
 11
997.8949070199
 21
390.5878911565
 31
0.0
  0
ARC
  5
32F
330
1F
100
AcDbEntity
  8
0
  6
Continuous
 62
     7
370
    25
100
AcDbCircle
 10
996.8949070199
 20
390.5878911565
 30
0.0
 40
1.000000000000114
100
AcDbArc
 50
270.0
 51
0.0
  0
LINE
  5
330
330
1F
100
AcDbEntity
  8
0
  6
Continuous
 62
     7
370
    25
100
AcDbLine
 10
996.8949070199
 20
389.5878911565
 30
0.0
 11
996.8949070199
 21
389.6878911565
 31
0.0
  0
LINE
  5
331
330
1F
100
AcDbEntity
  8
0
  6
Continuous
 62
     7
370
    25
100
AcDbLine
 10
997.8949070199
 20
397.4704627865
 30
0.0
 11
997.8949070199
 21
390.5878911565
 31
0.0
  0
LINE
  5
332
330
1F
100
AcDbEntity
  8
0
  6
Continuous
 62
     7
370
    25
100
AcDbLine
 10
997.8070748299
 20
422.5078911565
 30
0.0
 11
995.6357110399
 21
422.5078911565
 31
0.0
  0
LINE
  5
333
330
1F
100
AcDbEntity
  8
0
  6
Continuous
 62
     7
370
    25
100
AcDbLine
 10
995.5357110399
 20
422.6078911565
 30
0.0
 11
997.9070748299
 21
422.6078911565
 31
0.0
  0
LINE
  5
334
330
1F
100
AcDbEntity
  8
0
  6
Continuous
 62
     7
370
    25
100
AcDbLine
 10
995.0357110399
 20
408.6974037765
 30
0.0
 11
995.5357110399
 21
408.6974037765
 31
0.0
  0
LINE
  5
335
330
1F
100
AcDbEntity
  8
0
  6
Continuous
 62
     7
370
    25
100
AcDbLine
 10
995.5357110399
 20
408.6974037765
 30
0.0
 11
995.6357110399
 21
408.5974037765
 31
0.0
  0
LINE
  5
336
330
1F
100
AcDbEntity
  8
0
  6
Continuous
 62
     7
370
    25
100
AcDbLine
 10
995.6357110399
 20
408.5974037765
 30
0.0
 11
994.9357110399
 21
408.5974037765
 31
0.0
  0
LINE
  5
337
330
1F
100
AcDbEntity
  8
0
  6
Continuous
 62
     7
370
    25
100
AcDbLine
 10
995.0357110399
 20
408.6974037765
 30
0.0
 11
994.9357110399
 21
408.5974037765
 31
0.0
  0
LINE
  5
338
330
1F
100
AcDbEntity
  8
0
  6
Continuous
 62
     7
370
    25
100
AcDbLine
 10
994.9357110399
 20
411.9210154065
 30
0.0
 11
995.6357110399
 21
411.9210154065
 31
0.0
  0
LINE
  5
339
330
1F
100
AcDbEntity
  8
0
  6
Continuous
 62
     7
370
    25
100
AcDbLine
 10
995.6357110399
 20
411.9210154065
 30
0.0
 11
995.5357110399
 21
411.8210154065
 31
0.0
  0
LINE
  5
33A
330
1F
100
AcDbEntity
  8
0
  6
Continuous
 62
     7
370
    25
100
AcDbLine
 10
995.5357110399
 20
411.8210154065
 30
0.0
 11
995.0357110399
 21
411.8210154065
 31
0.0
  0
LINE
  5
33B
330
1F
100
AcDbEntity
  8
0
  6
Continuous
 62
     7
370
    25
100
AcDbLine
 10
994.9357110399
 20
411.9210154065
 30
0.0
 11
995.0357110399
 21
411.8210154065
 31
0.0
  0
LINE
  5
33C
330
1F
100
AcDbEntity
  8
0
  6
Continuous
 62
     7
370
    25
100
AcDbLine
 10
767.7820748299
 20
220.2878911565
 30
0.0
 11
767.7820748299
 21
218.7878911565
 31
0.0
  0
LINE
  5
33D
330
1F
100
AcDbEntity
  8
0
  6
Continuous
 62
     7
370
    25
100
AcDbLine
 10
767.7820748299
 20
218.7878911565
 30
0.0
 11
751.7820748299
 21
220.2119506233
 31
0.0
  0
LINE
  5
33E
330
1F
100
AcDbEntity
  8
0
  6
Continuous
 62
     7
370
    25
100
AcDbLine
 10
751.7820748299
 20
220.2119506233
 30
0.0
 11
751.7820748299
 21
220.2878911565
 31
0.0
  0
LINE
  5
33F
330
1F
100
AcDbEntity
  8
0
  6
Continuous
 62
     7
370
    25
100
AcDbLine
 10
992.8662708099
 20
411.9210154065
 30
0.0
 11
992.8662708099
 21
406.4478911565
 31
0.0
  0
LINE
  5
340
330
1F
100
AcDbEntity
  8
0
  6
Continuous
 62
     7
370
    25
100
AcDbLine
 10
994.9357110399
 20
408.5974037765
 30
0.0
 11
994.9357110399
 21
411.9210154065
 31
0.0
  0
LINE
  5
341
330
1F
100
AcDbEntity
  8
0
  6
Continuous
 62
     7
370
    25
100
AcDbLine
 10
995.6357110399
 20
411.9210154065
 30
0.0
 11
995.6357110399
 21
408.5974037765
 31
0.0
  0
LINE
  5
342
330
1F
100
AcDbEntity
  8
0
  6
Continuous
 62
     7
370
    25
100
AcDbLine
 10
1015.8357204923
 20
220.3638316896
 30
0.0
 11
1015.8357204923
 21
220.2878911565
 31
0.0
  0
LINE
  5
343
330
1F
100
AcDbEntity
  8
0
  6
Continuous
 62
     7
370
    25
100
AcDbLine
 10
999.8357204923
 20
220.2878911565
 30
0.0
 11
1015.8357204923
 21
220.2878911565
 31
0.0
  0
LINE
  5
344
330
1F
100
AcDbEntity
  8
0
  6
Continuous
 62
     7
370
    25
100
AcDbLine
 10
999.8357204923
 20
220.2878911565
 30
0.0
 11
999.8357204923
 21
221.7878911565
 31
0.0
  0
LINE
  5
345
330
1F
100
AcDbEntity
  8
0
  6
Continuous
 62
     7
370
    25
100
AcDbLine
 10
999.8357204923
 20
221.7878911565
 30
0.0
 11
1015.8357204923
 21
220.3638316896
 31
0.0
  0
LINE
  5
346
330
1F
100
AcDbEntity
  8
0
  6
Continuous
 62
     7
370
    25
100
AcDbLine
 10
992.2662708099
 20
392.1664225765
 30
0.0
 11
992.7662708099
 21
392.1664225765
 31
0.0
  0
LINE
  5
347
330
1F
100
AcDbEntity
  8
0
  6
Continuous
 62
     7
370
    25
100
AcDbLine
 10
992.1662708099
 20
403.9588058965
 30
0.0
 11
992.1662708099
 21
405.7478911565
 31
0.0
  0
LINE
  5
348
330
1F
100
AcDbEntity
  8
0
  6
Continuous
 62
     7
370
    25
100
AcDbLine
 10
992.2662708099
 20
405.8478911565
 30
0.0
 11
992.2662708099
 21
404.0588058965
 31
0.0
  0
LINE
  5
349
330
1F
100
AcDbEntity
  8
0
  6
Continuous
 62
     7
370
    25
100
AcDbLine
 10
992.1662708099
 20
403.9588058965
 30
0.0
 11
992.2662708099
 21
404.0588058965
 31
0.0
  0
LINE
  5
34A
330
1F
100
AcDbEntity
  8
0
  6
Continuous
 62
     7
370
    25
100
AcDbLine
 10
1015.8357204923
 20
600.2878911565
 30
0.0
 11
1015.8357204923
 21
600.2119506233
 31
0.0
  0
LINE
  5
34B
330
1F
100
AcDbEntity
  8
0
  6
Continuous
 62
     7
370
    25
100
AcDbLine
 10
1015.8357204923
 20
600.2119506233
 30
0.0
 11
999.8357204923
 21
598.7878911565
 31
0.0
  0
LINE
  5
34C
330
1F
100
AcDbEntity
  8
0
  6
Continuous
 62
     7
370
    25
100
AcDbLine
 10
999.8357204923
 20
218.7878911565
 30
0.0
 11
999.8357204923
 21
220.2878911565
 31
0.0
  0
LINE
  5
34D
330
1F
100
AcDbEntity
  8
0
  6
Continuous
 62
     7
370
    25
100
AcDbLine
 10
767.7820748299
 20
218.7878911565
 30
0.0
 11
999.8357204923
 21
218.7878911565
 31
0.0
  0
LINE
  5
34E
330
1F
100
AcDbEntity
  8
0
  6
Continuous
 62
     7
370
    25
100
AcDbLine
 10
767.7820748299
 20
220.2878911565
 30
0.0
 11
999.8357204923
 21
220.2878911565
 31
0.0
  0
LINE
  5
34F
330
1F
100
AcDbEntity
  8
0
  6
Continuous
 62
     7
370
    25
100
AcDbLine
 10
767.7820748299
 20
221.7878911565
 30
0.0
 11
999.8357204923
 21
221.7878911565
 31
0.0
  0
LINE
  5
350
330
1F
100
AcDbEntity
  8
0
  6
Continuous
 62
     7
370
    25
100
AcDbLine
 10
992.2662708099
 20
428.3980766365
 30
0.0
 11
992.1662708099
 21
428.4980766365
 31
0.0
  0
LINE
  5
351
330
1F
100
AcDbEntity
  8
0
  6
Continuous
 62
     7
370
    25
100
AcDbLine
 10
992.2662708099
 20
428.3980766365
 30
0.0
 11
992.2662708099
 21
423.1078911565
 31
0.0
  0
LINE
  5
352
330
1F
100
AcDbEntity
  8
0
  6
Continuous
 62
     7
370
    25
100
AcDbLine
 10
992.1662708099
 20
423.2078911565
 30
0.0
 11
992.2662708099
 21
423.1078911565
 31
0.0
  0
LINE
  5
353
330
1F
100
AcDbEntity
  8
0
  6
Continuous
 62
     7
370
    25
100
AcDbLine
 10
995.0357110399
 20
411.8210154065
 30
0.0
 11
995.0357110399
 21
408.6974037765
 31
0.0
  0
LINE
  5
354
330
1F
100
AcDbEntity
  8
0
  6
Continuous
 62
     7
370
    25
100
AcDbLine
 10
992.7662708099
 20
406.3478911565
 30
0.0
 11
992.7662708099
 21
411.8210154065
 31
0.0
  0
LINE
  5
355
330
1F
100
AcDbEntity
  8
0
  6
Continuous
 62
     7
370
    25
100
AcDbLine
 10
997.8070748299
 20
403.9588058965
 30
0.0
 11
992.1662708099
 21
403.9588058965
 31
0.0
  0
LINE
  5
356
330
1F
100
AcDbEntity
  8
0
  6
Continuous
 62
     7
370
    25
100
AcDbLine
 10
989.9949070199
 20
398.0678911565
 30
0.0
 11
992.1662708099
 21
398.0678911565
 31
0.0
  0
LINE
  5
357
330
1F
100
AcDbEntity
  8
0
  6
Continuous
 62
     7
370
    25
100
AcDbLine
 10
992.2662708099
 20
404.0588058965
 30
0.0
 11
997.9070748299
 21
404.0588058965
 31
0.0
  0
LINE
  5
358
330
1F
100
AcDbEntity
  8
0
  6
Continuous
 62
     7
370
    25
100
AcDbLine
 10
992.2662708099
 20
397.9678911565
 30
0.0
 11
989.8949070199
 21
397.9678911565
 31
0.0
  0
LINE
  5
359
330
1F
100
AcDbEntity
  8
0
  6
Continuous
 62
     7
370
    25
100
AcDbLine
 10
751.7820748299
 20
600.2119506233
 30
0.0
 11
751.7820748299
 21
600.2878911565
 31
0.0
  0
LINE
  5
35A
330
1F
100
AcDbEntity
  8
0
  6
Continuous
 62
     7
370
    25
100
AcDbLine
 10
751.7820748299
 20
600.2878911565
 30
0.0
 11
767.7820748299
 21
600.2878911565
 31
0.0
  0
LINE
  5
35B
330
1F
100
AcDbEntity
  8
0
  6
Continuous
 62
     7
370
    25
100
AcDbLine
 10
767.7820748299
 20
598.7878911565
 30
0.0
 11
751.7820748299
 21
600.2119506233
 31
0.0
  0
LINE
  5
35C
330
1F
100
AcDbEntity
  8
0
  6
Continuous
 62
     7
370
    25
100
AcDbLine
 10
992.7662708099
 20
428.3980766365
 30
0.0
 11
992.2662708099
 21
428.3980766365
 31
0.0
  0
LINE
  5
35D
330
1F
100
AcDbEntity
  8
0
  6
Continuous
 62
     7
370
    25
100
AcDbLine
 10
992.7662708099
 20
428.3980766365
 30
0.0
 11
992.8662708099
 21
428.4980766365
 31
0.0
  0
LINE
  5
35E
330
1F
100
AcDbEntity
  8
0
  6
Continuous
 62
     7
370
    25
100
AcDbLine
 10
992.2662708099
 20
423.1078911565
 30
0.0
 11
989.8949070199
 21
423.1078911565
 31
0.0
  0
LINE
  5
35F
330
1F
100
AcDbEntity
  8
0
  6
Continuous
 62
     7
370
    25
100
AcDbLine
 10
992.7662708099
 20
423.1078911565
 30
0.0
 11
992.7662708099
 21
428.3980766365
 31
0.0
  0
LINE
  5
360
330
1F
100
AcDbEntity
  8
0
  6
Continuous
 62
     7
370
    25
100
AcDbLine
 10
996.8949070199
 20
389.5878911565
 30
0.0
 11
995.5357110399
 21
389.5878911565
 31
0.0
  0
LINE
  5
361
330
1F
100
AcDbEntity
  8
0
  6
Continuous
 62
     7
370
    25
100
AcDbLine
 10
995.5357110399
 20
408.6974037765
 30
0.0
 11
995.5357110399
 21
411.8210154065
 31
0.0
  0
LINE
  5
362
330
1F
100
AcDbEntity
  8
0
  6
Continuous
 62
     7
370
    25
100
AcDbLine
 10
1015.8357204923
 20
220.2878911565
 30
0.0
 11
1015.8357204923
 21
220.2119506233
 31
0.0
  0
LINE
  5
363
330
1F
100
AcDbEntity
  8
0
  6
Continuous
 62
     7
370
    25
100
AcDbLine
 10
1015.8357204923
 20
220.2119506233
 30
0.0
 11
999.8357204923
 21
218.7878911565
 31
0.0
  0
LINE
  5
364
330
1F
100
AcDbEntity
  8
0
  6
Continuous
 62
     7
370
    25
100
AcDbLine
 10
751.7820748299
 20
600.2878911565
 30
0.0
 11
751.7820748299
 21
600.3638316896
 31
0.0
  0
LINE
  5
365
330
1F
100
AcDbEntity
  8
0
  6
Continuous
 62
     7
370
    25
100
AcDbLine
 10
751.7820748299
 20
600.3638316896
 30
0.0
 11
767.7820748299
 21
601.7878911565
 31
0.0
  0
LINE
  5
366
330
1F
100
AcDbEntity
  8
0
  6
Continuous
 62
     7
370
    25
100
AcDbLine
 10
1009.3470748299
 20
648.6549079656
 30
0.0
 11
1009.3470748299
 21
648.2165368188
 31
0.0
  0
LINE
  5
367
330
1F
100
AcDbEntity
  8
0
  6
Continuous
 62
     7
370
    25
100
AcDbLine
 10
1009.3470748299
 20
648.2165368188
 30
0.0
 11
191.4670748299
 21
648.2165368188
 31
0.0
  0
LINE
  5
368
330
1F
100
AcDbEntity
  8
0
  6
Continuous
 62
     7
370
    25
100
AcDbLine
 10
191.4670748299
 20
648.6549079656
 30
0.0
 11
191.4670748299
 21
648.2165368188
 31
0.0
  0
ARC
  5
369
330
1F
100
AcDbEntity
  8
0
  6
Continuous
 62
     7
370
    25
100
AcDbCircle
 10
191.4670748299
 20
631.7278911565
 30
0.0
 40
16.48864566234761
100
AcDbArc
 50
90.0
 51
180.0
  0
LINE
  5
36A
330
1F
100
AcDbEntity
  8
0
  6
Continuous
 62
     7
370
    25
100
AcDbLine
 10
174.5400580208
 20
631.7278911565
 30
0.0
 11
174.9784291676
 21
631.7278911565
 31
0.0
  0
LINE
  5
36B
330
1F
100
AcDbEntity
  8
0
  6
Continuous
 62
     7
370
    25
100
AcDbLine
 10
174.9784291676
 20
631.7278911565
 30
0.0
 11
174.9784291676
 21
188.8478911565
 31
0.0
  0
LINE
  5
36C
330
1F
100
AcDbEntity
  8
0
  6
Continuous
 62
     7
370
    25
100
AcDbLine
 10
174.5400580208
 20
188.8478911565
 30
0.0
 11
174.9784291676
 21
188.8478911565
 31
0.0
  0
ARC
  5
36D
330
1F
100
AcDbEntity
  8
0
  6
Continuous
 62
     7
370
    25
100
AcDbCircle
 10
1009.3470748299
 20
188.8478911565
 30
0.0
 40
16.48864566234755
100
AcDbArc
 50
270.0
 51
0.0
  0
LINE
  5
36E
330
1F
100
AcDbEntity
  8
0
  6
Continuous
 62
     7
370
    25
100
AcDbLine
 10
1025.8357204923
 20
188.8478911565
 30
0.0
 11
1026.2740916391
 21
188.8478911565
 31
0.0
  0
LINE
  5
36F
330
1F
100
AcDbEntity
  8
0
  6
Continuous
 62
     7
370
    25
100
AcDbLine
 10
1009.3470748299
 20
172.3592454941
 30
0.0
 11
1009.3470748299
 21
171.9208743473
 31
0.0
  0
LINE
  5
370
330
1F
100
AcDbEntity
  8
0
  6
Continuous
 62
     7
370
    25
100
AcDbLine
 10
1025.8357204923
 20
188.8478911565
 30
0.0
 11
1025.8357204923
 21
631.7278911565
 31
0.0
  0
LINE
  5
371
330
1F
100
AcDbEntity
  8
0
  6
Continuous
 62
     7
370
    25
100
AcDbLine
 10
1025.8357204923
 20
631.7278911565
 30
0.0
 11
1026.2740916391
 21
631.7278911565
 31
0.0
  0
ARC
  5
372
330
1F
100
AcDbEntity
  8
0
  6
Continuous
 62
     7
370
    25
100
AcDbCircle
 10
1009.3470748299
 20
631.7278911565
 30
0.0
 40
16.48864566234761
100
AcDbArc
 50
0.0
 51
90.0
  0
LINE
  5
373
330
1F
100
AcDbEntity
  8
0
  6
Continuous
 62
     7
370
    25
100
AcDbLine
 10
191.4670748299
 20
172.3592454941
 30
0.0
 11
1009.3470748299
 21
172.3592454941
 31
0.0
  0
LINE
  5
374
330
1F
100
AcDbEntity
  8
0
  6
Continuous
 62
     7
370
    25
100
AcDbLine
 10
191.4670748299
 20
172.3592454941
 30
0.0
 11
191.4670748299
 21
171.9208743473
 31
0.0
  0
ARC
  5
375
330
1F
100
AcDbEntity
  8
0
  6
Continuous
 62
     7
370
    25
100
AcDbCircle
 10
191.4670748299
 20
188.8478911565
 30
0.0
 40
16.48864566234758
100
AcDbArc
 50
180.0
 51
270.0
  0
LINE
  5
376
330
1F
100
AcDbEntity
  8
0
  6
Continuous
 62
     7
370
    25
100
AcDbLine
 10
564.0820748299
 20
526.7378911565
 30
0.0
 11
564.0820748299
 21
293.8378911565
 31
0.0
  0
LINE
  5
377
330
1F
100
AcDbEntity
  8
0
  6
Continuous
 62
     7
370
    25
100
AcDbLine
 10
564.0820748299
 20
293.8378911565
 30
0.0
 11
559.0820748299
 21
293.8378911565
 31
0.0
  0
LINE
  5
378
330
1F
100
AcDbEntity
  8
0
  6
Continuous
 62
     7
370
    25
100
AcDbLine
 10
559.0820748299
 20
293.8378911565
 30
0.0
 11
559.0820748299
 21
526.7378911565
 31
0.0
  0
LINE
  5
379
330
1F
100
AcDbEntity
  8
0
  6
Continuous
 62
     7
370
    25
100
AcDbLine
 10
564.0820748299
 20
526.7378911565
 30
0.0
 11
559.0820748299
 21
526.7378911565
 31
0.0
  0
LINE
  5
37A
330
1F
100
AcDbEntity
  8
0
  6
Continuous
 62
     7
370
    25
100
AcDbLine
 10
681.2820748299
 20
233.3378911565
 30
0.0
 11
619.5820748299
 21
233.3378911565
 31
0.0
  0
LINE
  5
37B
330
1F
100
AcDbEntity
  8
0
  6
Continuous
 62
     7
370
    25
100
AcDbLine
 10
619.5820748299
 20
233.3378911565
 30
0.0
 11
619.5820748299
 21
238.3378911565
 31
0.0
  0
LINE
  5
37C
330
1F
100
AcDbEntity
  8
0
  6
Continuous
 62
     7
370
    25
100
AcDbLine
 10
619.5820748299
 20
238.3378911565
 30
0.0
 11
681.2820748299
 21
238.3378911565
 31
0.0
  0
LINE
  5
37D
330
1F
100
AcDbEntity
  8
0
  6
Continuous
 62
     7
370
    25
100
AcDbLine
 10
681.2820748299
 20
233.3378911565
 30
0.0
 11
681.2820748299
 21
238.3378911565
 31
0.0
  0
ARC
  5
37E
330
1F
100
AcDbEntity
  8
0
  6
Continuous
 62
     7
370
    25
100
AcDbCircle
 10
681.2820748299
 20
526.7378911565
 30
0.0
 40
60.5
100
AcDbArc
 50
0.0
 51
90.0
  0
LINE
  5
37F
330
1F
100
AcDbEntity
  8
0
  6
Continuous
 62
     7
370
    25
100
AcDbLine
 10
741.7820748299
 20
526.7378911565
 30
0.0
 11
736.7820748299
 21
526.7378911565
 31
0.0
  0
ARC
  5
380
330
1F
100
AcDbEntity
  8
0
  6
Continuous
 62
     7
370
    25
100
AcDbCircle
 10
681.2820748299
 20
526.7378911565
 30
0.0
 40
55.5
100
AcDbArc
 50
0.0
 51
90.0
  0
LINE
  5
381
330
1F
100
AcDbEntity
  8
0
  6
Continuous
 62
     7
370
    25
100
AcDbLine
 10
681.2820748299
 20
582.2378911565
 30
0.0
 11
681.2820748299
 21
587.2378911565
 31
0.0
  0
ARC
  5
382
330
1F
100
AcDbEntity
  8
0
  6
Continuous
 62
     7
370
    25
100
AcDbCircle
 10
247.3320748299
 20
556.6378911565
 30
0.0
 40
60.50000000000028
100
AcDbArc
 50
90.0
 51
180.0
  0
LINE
  5
383
330
1F
100
AcDbEntity
  8
0
  6
Continuous
 62
     7
370
    25
100
AcDbLine
 10
247.3320748299
 20
612.1378911565
 30
0.0
 11
247.3320748299
 21
617.1378911565
 31
0.0
  0
ARC
  5
384
330
1F
100
AcDbEntity
  8
0
  6
Continuous
 62
     7
370
    25
100
AcDbCircle
 10
247.3320748299
 20
556.6378911565
 30
0.0
 40
55.5
100
AcDbArc
 50
90.0
 51
180.0
  0
LINE
  5
385
330
1F
100
AcDbEntity
  8
0
  6
Continuous
 62
     7
370
    25
100
AcDbLine
 10
186.8320748299
 20
556.6378911565
 30
0.0
 11
191.8320748299
 21
556.6378911565
 31
0.0
  0
ARC
  5
386
330
1F
100
AcDbEntity
  8
0
  6
Continuous
 62
     7
370
    25
100
AcDbCircle
 10
681.2820748299
 20
293.8378911565
 30
0.0
 40
60.50000000000006
100
AcDbArc
 50
270.0
 51
0.0
  0
ARC
  5
387
330
1F
100
AcDbEntity
  8
0
  6
Continuous
 62
     7
370
    25
100
AcDbCircle
 10
681.2820748299
 20
293.8378911565
 30
0.0
 40
55.5
100
AcDbArc
 50
270.0
 51
0.0
  0
LINE
  5
388
330
1F
100
AcDbEntity
  8
0
  6
Continuous
 62
     7
370
    25
100
AcDbLine
 10
741.7820748299
 20
293.8378911565
 30
0.0
 11
736.7820748299
 21
293.8378911565
 31
0.0
  0
LINE
  5
389
330
1F
100
AcDbEntity
  8
0
  6
Continuous
 62
     7
370
    25
100
AcDbLine
 10
741.7820748299
 20
526.7378911565
 30
0.0
 11
741.7820748299
 21
293.8378911565
 31
0.0
  0
LINE
  5
38A
330
1F
100
AcDbEntity
  8
0
  6
Continuous
 62
     7
370
    25
100
AcDbLine
 10
736.7820748299
 20
293.8378911565
 30
0.0
 11
736.7820748299
 21
526.7378911565
 31
0.0
  0
ARC
  5
38B
330
1F
100
AcDbEntity
  8
0
  6
Continuous
 62
     7
370
    25
100
AcDbCircle
 10
619.5820748299
 20
526.7378911565
 30
0.0
 40
55.5
100
AcDbArc
 50
90.0
 51
180.0
  0
ARC
  5
38C
330
1F
100
AcDbEntity
  8
0
  6
Continuous
 62
     7
370
    25
100
AcDbCircle
 10
619.5820748299
 20
526.7378911565
 30
0.0
 40
60.5
100
AcDbArc
 50
90.0
 51
180.0
  0
LINE
  5
38D
330
1F
100
AcDbEntity
  8
0
  6
Continuous
 62
     7
370
    25
100
AcDbLine
 10
619.5820748299
 20
582.2378911565
 30
0.0
 11
619.5820748299
 21
587.2378911565
 31
0.0
  0
ARC
  5
38E
330
1F
100
AcDbEntity
  8
0
  6
Continuous
 62
     7
370
    25
100
AcDbCircle
 10
247.3320748299
 20
263.9378911565
 30
0.0
 40
60.50000000000034
100
AcDbArc
 50
180.0
 51
270.0
  0
LINE
  5
38F
330
1F
100
AcDbEntity
  8
0
  6
Continuous
 62
     7
370
    25
100
AcDbLine
 10
479.5320748299
 20
203.4378911565
 30
0.0
 11
247.3320748299
 21
203.4378911565
 31
0.0
  0
ARC
  5
390
330
1F
100
AcDbEntity
  8
0
  6
Continuous
 62
     7
370
    25
100
AcDbCircle
 10
479.5320748299
 20
263.9378911565
 30
0.0
 40
60.50000000000034
100
AcDbArc
 50
270.0
 51
0.0
  0
LINE
  5
391
330
1F
100
AcDbEntity
  8
0
  6
Continuous
 62
     7
370
    25
100
AcDbLine
 10
540.0320748299
 20
556.6378911565
 30
0.0
 11
540.0320748299
 21
263.9378911565
 31
0.0
  0
ARC
  5
392
330
1F
100
AcDbEntity
  8
0
  6
Continuous
 62
     7
370
    25
100
AcDbCircle
 10
479.5320748299
 20
556.6378911565
 30
0.0
 40
60.50000000000023
100
AcDbArc
 50
0.0
 51
90.0
  0
LINE
  5
393
330
1F
100
AcDbEntity
  8
0
  6
Continuous
 62
     7
370
    25
100
AcDbLine
 10
247.3320748299
 20
617.1378911565
 30
0.0
 11
479.5320748299
 21
617.1378911565
 31
0.0
  0
LINE
  5
394
330
1F
100
AcDbEntity
  8
0
  6
Continuous
 62
     7
370
    25
100
AcDbLine
 10
186.8320748299
 20
263.9378911565
 30
0.0
 11
186.8320748299
 21
556.6378911565
 31
0.0
  0
LINE
  5
395
330
1F
100
AcDbEntity
  8
0
  6
Continuous
 62
     7
370
    25
100
AcDbLine
 10
619.5820748299
 20
587.2378911565
 30
0.0
 11
681.2820748299
 21
587.2378911565
 31
0.0
  0
ARC
  5
396
330
1F
100
AcDbEntity
  8
0
  6
Continuous
 62
     7
370
    25
100
AcDbCircle
 10
619.5820748299
 20
293.8378911565
 30
0.0
 40
60.50000000000006
100
AcDbArc
 50
180.0
 51
270.0
  0
ARC
  5
397
330
1F
100
AcDbEntity
  8
0
  6
Continuous
 62
     7
370
    25
100
AcDbCircle
 10
479.5320748299
 20
556.6378911565
 30
0.0
 40
55.5
100
AcDbArc
 50
0.0
 51
90.0
  0
LINE
  5
398
330
1F
100
AcDbEntity
  8
0
  6
Continuous
 62
     7
370
    25
100
AcDbLine
 10
479.5320748299
 20
612.1378911565
 30
0.0
 11
479.5320748299
 21
617.1378911565
 31
0.0
  0
LINE
  5
399
330
1F
100
AcDbEntity
  8
0
  6
Continuous
 62
     7
370
    25
100
AcDbLine
 10
535.0320748299
 20
556.6378911565
 30
0.0
 11
540.0320748299
 21
556.6378911565
 31
0.0
  0
ARC
  5
39A
330
1F
100
AcDbEntity
  8
0
  6
Continuous
 62
     7
370
    25
100
AcDbCircle
 10
619.5820748299
 20
293.8378911565
 30
0.0
 40
55.5
100
AcDbArc
 50
180.0
 51
270.0
  0
LINE
  5
39B
330
1F
100
AcDbEntity
  8
0
  6
Continuous
 62
     7
370
    25
100
AcDbLine
 10
191.8320748299
 20
556.6378911565
 30
0.0
 11
191.8320748299
 21
263.9378911565
 31
0.0
  0
LINE
  5
39C
330
1F
100
AcDbEntity
  8
0
  6
Continuous
 62
     7
370
    25
100
AcDbLine
 10
186.8320748299
 20
263.9378911565
 30
0.0
 11
191.8320748299
 21
263.9378911565
 31
0.0
  0
LINE
  5
39D
330
1F
100
AcDbEntity
  8
0
  6
Continuous
 62
     7
370
    25
100
AcDbLine
 10
681.2820748299
 20
582.2378911565
 30
0.0
 11
619.5820748299
 21
582.2378911565
 31
0.0
  0
ARC
  5
39E
330
1F
100
AcDbEntity
  8
0
  6
Continuous
 62
     7
370
    25
100
AcDbCircle
 10
247.3320748299
 20
263.9378911565
 30
0.0
 40
55.50000000000006
100
AcDbArc
 50
180.0
 51
270.0
  0
LINE
  5
39F
330
1F
100
AcDbEntity
  8
0
  6
Continuous
 62
     7
370
    25
100
AcDbLine
 10
247.3320748299
 20
203.4378911565
 30
0.0
 11
247.3320748299
 21
208.4378911565
 31
0.0
  0
LINE
  5
3A0
330
1F
100
AcDbEntity
  8
0
  6
Continuous
 62
     7
370
    25
100
AcDbLine
 10
247.3320748299
 20
208.4378911565
 30
0.0
 11
479.5320748299
 21
208.4378911565
 31
0.0
  0
LINE
  5
3A1
330
1F
100
AcDbEntity
  8
0
  6
Continuous
 62
     7
370
    25
100
AcDbLine
 10
479.5320748299
 20
203.4378911565
 30
0.0
 11
479.5320748299
 21
208.4378911565
 31
0.0
  0
ARC
  5
3A2
330
1F
100
AcDbEntity
  8
0
  6
Continuous
 62
     7
370
    25
100
AcDbCircle
 10
479.5320748299
 20
263.9378911565
 30
0.0
 40
55.50000000000006
100
AcDbArc
 50
270.0
 51
0.0
  0
LINE
  5
3A3
330
1F
100
AcDbEntity
  8
0
  6
Continuous
 62
     7
370
    25
100
AcDbLine
 10
535.0320748299
 20
263.9378911565
 30
0.0
 11
540.0320748299
 21
263.9378911565
 31
0.0
  0
LINE
  5
3A4
330
1F
100
AcDbEntity
  8
0
  6
Continuous
 62
     7
370
    25
100
AcDbLine
 10
535.0320748299
 20
263.9378911565
 30
0.0
 11
535.0320748299
 21
556.6378911565
 31
0.0
  0
LINE
  5
3A5
330
1F
100
AcDbEntity
  8
0
  6
Continuous
 62
     7
370
    25
100
AcDbLine
 10
479.5320748299
 20
612.1378911565
 30
0.0
 11
247.3320748299
 21
612.1378911565
 31
0.0
  0
SPLINE
  5
3A6
330
1F
100
AcDbEntity
  8
0
  6
Continuous
 62
     8
370
    25
100
AcDbSpline
210
0.0
220
0.0
230
1.0
 70
     8
 71
     3
 72
    12
 73
     8
 74
     0
 42
0.000000001
 43
0.00000001
 40
0.0
 40
0.0
 40
0.0
 40
0.0
 40
0.2636005345609648
 40
0.4531130705265234
 40
0.6509913616037156
 40
0.8488696526565361
 40
0.9999999999999999
 40
0.9999999999999999
 40
0.9999999999999999
 40
0.9999999999999999
 10
686.7426388241072
 20
410.2878911639098
 30
0.0
 10
686.8742868838735
 20
410.2878911606633
 30
0.0
 10
687.1005817838021
 20
410.2878911550828
 30
0.0
 10
687.3726499245369
 20
410.2878911567957
 30
0.0
 10
687.5570883925473
 20
410.2878911563712
 30
0.0
 10
687.6669600701409
 20
410.2878911564792
 30
0.0
 10
687.6729297632961
 20
410.2878911564676
 30
0.0
 10
687.675514804756
 20
410.2878911564625
 30
0.0
  0
SPLINE
  5
3A7
330
1F
100
AcDbEntity
  8
0
  6
Continuous
 62
     8
370
    25
100
AcDbSpline
210
0.0
220
0.0
230
1.0
 70
     8
 71
     3
 72
    12
 73
     8
 74
     0
 42
0.000000001
 43
0.00000001
 40
0.0
 40
0.0
 40
0.0
 40
0.0
 40
0.151129778450122
 40
0.3490077426240111
 40
0.54688570682227
 40
0.7363979297284423
 40
1.0
 40
1.0
 40
1.0
 40
1.0
 10
613.1886348968959
 20
410.2878911564625
 30
0.0
 10
613.1912199373728
 20
410.2878911564648
 30
0.0
 10
613.1971896354079
 20
410.2878911564698
 30
0.0
 10
613.307061273197
 20
410.2878911564226
 30
0.0
 10
613.4914997324514
 20
410.2878911566084
 30
0.0
 10
613.7635687065673
 20
410.2878911558585
 30
0.0
 10
613.9898647261572
 20
410.2878911583017
 30
0.0
 10
614.1215138490303
 20
410.2878911597231
 30
0.0
  0
SPLINE
  5
3A8
330
1F
100
AcDbEntity
  8
0
  6
Continuous
 62
     8
370
    25
100
AcDbSpline
210
0.0
220
0.0
230
1.0
 70
     8
 71
     3
 72
    12
 73
     8
 74
     0
 42
0.000000001
 43
0.00000001
 40
0.0
 40
0.0
 40
0.0
 40
0.0
 40
0.2636006187124989
 40
0.4531132151778234
 40
0.6509915694254557
 40
0.848869923648716
 40
1.0
 40
1.0
 40
1.0
 40
1.0
 10
459.7426388241072
 20
410.2878911639098
 30
0.0
 10
459.8742868836914
 20
410.2878911606633
 30
0.0
 10
460.1005817833069
 20
410.2878911550828
 30
0.0
 10
460.3726499259118
 20
410.2878911567957
 30
0.0
 10
460.5570883870759
 20
410.2878911563712
 30
0.0
 10
460.6669600243794
 20
410.2878911564792
 30
0.0
 10
460.6729297224667
 20
410.2878911564676
 30
0.0
 10
460.6755147629663
 20
410.2878911564625
 30
0.0
  0
SPLINE
  5
3A9
330
1F
100
AcDbEntity
  8
0
  6
Continuous
 62
     8
370
    25
100
AcDbSpline
210
0.0
220
0.0
230
1.0
 70
     8
 71
     3
 72
    12
 73
     8
 74
     0
 42
0.000000001
 43
0.00000001
 40
0.0
 40
0.0
 40
0.0
 40
0.0
 40
0.151130049441877
 40
0.3490079504455693
 40
0.546885851473645
 40
0.7363980138802747
 40
1.0
 40
1.0
 40
1.0
 40
1.0
 10
386.1886348551062
 20
410.2878911564625
 30
0.0
 10
386.1912198965434
 20
410.2878911564648
 30
0.0
 10
386.1971895896463
 20
410.2878911564698
 30
0.0
 10
386.3070612677256
 20
410.2878911564226
 30
0.0
 10
386.4914997338263
 20
410.2878911566084
 30
0.0
 10
386.763568706072
 20
410.2878911558585
 30
0.0
 10
386.9898647259751
 20
410.2878911583017
 30
0.0
 10
387.1215138490302
 20
410.2878911597231
 30
0.0
  0
LWPOLYLINE
  5
3AA
330
1F
100
AcDbEntity
  8
0
  6
Continuous
 62
     8
370
    25
100
AcDbPolyline
 90
        5
 70
   128
 43
0.0
 10
532.4341217706
 20
558.3069754462
 10
532.4590731572
 20
558.3057977915
 10
532.5588786954
 20
558.3010871791
 10
532.9581007175
 20
558.2822448296
 10
533.1080808301
 20
558.2751662343
  0
LINE
  5
3AB
330
1F
100
AcDbEntity
  8
0
  6
Continuous
 62
     8
370
    25
100
AcDbLine
 10
532.4829151708
 20
559.4185247528
 30
0.0
 11
532.4341217706
 21
558.3069754462
 31
0.0
  0
LWPOLYLINE
  5
3AC
330
1F
100
AcDbEntity
  8
0
  6
Continuous
 62
     8
370
    25
100
AcDbPolyline
 90
        5
 70
   128
 43
0.0
 10
496.1480060194
 20
213.1575297344
 10
496.1542095128
 20
213.1333331388
 10
496.17902349
 20
213.0365467666
 10
496.2782794562
 20
212.6494014318
 10
496.4154778635
 20
212.1142643095
  0
ARC
  5
3AD
330
1F
100
AcDbEntity
  8
0
  6
Continuous
 62
     8
370
    25
100
AcDbCircle
 10
484.5019468112
 20
260.180209704
 30
0.0
 40
48.44340127006939
100
AcDbArc
 50
283.9104734367
 51
298.1258341634
  0
LINE
  5
3AE
330
1F
100
AcDbEntity
  8
0
  6
Continuous
 62
     8
370
    25
100
AcDbLine
 10
685.4320748299
 20
581.7878911565
 30
0.0
 11
689.4875546555
 21
581.6279640371
 31
0.0
  0
LINE
  5
3AF
330
1F
100
AcDbEntity
  8
0
  6
Continuous
 62
     8
370
    25
100
AcDbLine
 10
736.6684224257
 20
530.2878911565
 30
0.0
 11
735.4320748299
 21
530.2878911565
 31
0.0
  0
LINE
  5
3B0
330
1F
100
AcDbEntity
  8
0
  6
Continuous
 62
     8
370
    25
100
AcDbLine
 10
736.6684224257
 20
290.2878911565
 30
0.0
 11
735.4320748299
 21
290.2878911565
 31
0.0
  0
LINE
  5
3B1
330
1F
100
AcDbEntity
  8
0
  6
Continuous
 62
     8
370
    25
100
AcDbLine
 10
689.4875546555
 20
238.9478182759
 30
0.0
 11
685.4320748299
 21
238.7878911565
 31
0.0
  0
LINE
  5
3B2
330
1F
100
AcDbEntity
  8
0
  6
Continuous
 62
     8
370
    25
100
AcDbLine
 10
534.9320748299
 20
559.9680563175
 30
0.0
 11
534.9320748299
 21
260.6077259954
 31
0.0
  0
LINE
  5
3B3
330
1F
100
AcDbEntity
  8
0
  6
Continuous
 62
     8
370
    25
100
AcDbLine
 10
191.9320748299
 20
260.6077259954
 30
0.0
 11
191.9320748299
 21
559.9680563175
 31
0.0
  0
ENDSEC
  0
SECTION
  2
OBJECTS
  0
DICTIONARY
  5
C
330
0
100
AcDbDictionary
281
     1
  3
ACAD_GROUP
350
D
  3
ACAD_LAYOUT
350
1A
  3
ACAD_MLINESTYLE
350
17
  3
ACAD_PLOTSETTINGS
350
19
  3
ACAD_PLOTSTYLENAME
350
E
  3
ACAD_SCALELIST
350
47
  0
DICTIONARY
  5
D
102
{ACAD_REACTORS
330
C
102
}
330
C
100
AcDbDictionary
281
     1
  0
DICTIONARY
  5
1A
102
{ACAD_REACTORS
330
C
102
}
330
C
100
AcDbDictionary
281
     1
  3
Layout1
350
1E
  3
Layout2
350
26
  3
Model
350
22
  0
DICTIONARY
  5
17
102
{ACAD_REACTORS
330
C
102
}
330
C
100
AcDbDictionary
281
     1
  3
Standard
350
18
  0
DICTIONARY
  5
19
102
{ACAD_REACTORS
330
C
102
}
330
C
100
AcDbDictionary
281
     1
  0
ACDBDICTIONARYWDFLT
  5
E
102
{ACAD_REACTORS
330
C
102
}
330
C
100
AcDbDictionary
281
     1
  3
Normal
350
F
100
AcDbDictionaryWithDefault
340
F
  0
DICTIONARY
  5
47
102
{ACAD_REACTORS
330
C
102
}
330
C
100
AcDbDictionary
281
     1
  3
A0
350
48
  3
A1
350
49
  3
A2
350
4A
  3
A3
350
4B
  3
A4
350
4C
  3
A5
350
4D
  3
A6
350
4E
  3
A7
350
4F
  3
A8
350
50
  3
A9
350
51
  3
B0
350
52
  3
B1
350
53
  3
B2
350
54
  3
B3
350
55
  3
B4
350
56
  3
B5
350
57
  3
B6
350
58
  3
B7
350
59
  3
B8
350
5A
  3
B9
350
5B
  3
C0
350
5C
  3
C1
350
5D
  3
C2
350
5E
  3
C3
350
5F
  3
C4
350
60
  3
C5
350
61
  3
C6
350
62
  3
C7
350
63
  3
C8
350
64
  3
C9
350
65
  3
D0
350
66
  3
D1
350
67
  3
D2
350
68
  0
LAYOUT
  5
1E
102
{ACAD_REACTORS
330
1A
102
}
330
1A
100
AcDbPlotSettings
  1

  2
none_device
  4

  6

 40
0.0
 41
0.0
 42
0.0
 43
0.0
 44
0.0
 45
0.0
 46
0.0
 47
0.0
 48
0.0
 49
0.0
140
0.0
141
0.0
142
1.0
143
1.0
 70
   688
 72
     1
 73
     0
 74
     5
  7

 75
    16
147
1.0
148
0.0
149
0.0
100
AcDbLayout
  1
Layout1
 70
     1
 71
     1
 10
0.0
 20
0.0
 11
420.0
 21
297.0
 12
0.0
 22
0.0
 32
0.0
 14
1.0000000000E+20
 24
1.0000000000E+20
 34
1.0000000000E+20
 15
-1.0000000000E+20
 25
-1.0000000000E+20
 35
-1.0000000000E+20
146
0.0
 13
0.0
 23
0.0
 33
0.0
 16
1.0
 26
0.0
 36
0.0
 17
0.0
 27
1.0
 37
0.0
 76
     0
330
1B
  0
LAYOUT
  5
26
102
{ACAD_REACTORS
330
1A
102
}
330
1A
100
AcDbPlotSettings
  1

  2
none_device
  4

  6

 40
0.0
 41
0.0
 42
0.0
 43
0.0
 44
0.0
 45
0.0
 46
0.0
 47
0.0
 48
0.0
 49
0.0
140
0.0
141
0.0
142
1.0
143
1.0
 70
   688
 72
     1
 73
     0
 74
     5
  7

 75
    16
147
1.0
148
0.0
149
0.0
100
AcDbLayout
  1
Layout2
 70
     1
 71
     2
 10
0.0
 20
0.0
 11
0.0
 21
0.0
 12
0.0
 22
0.0
 32
0.0
 14
0.0
 24
0.0
 34
0.0
 15
0.0
 25
0.0
 35
0.0
146
0.0
 13
0.0
 23
0.0
 33
0.0
 16
1.0
 26
0.0
 36
0.0
 17
0.0
 27
1.0
 37
0.0
 76
     0
330
23
  0
LAYOUT
  5
22
102
{ACAD_REACTORS
330
1A
102
}
330
1A
100
AcDbPlotSettings
  1

  2
none_device
  4
Letter_(8.50_x_11.00_Inches)
  6

 40
6.35
 41
6.35
 42
6.35000508
 43
6.35000508
 44
215.9
 45
279.4
 46
0.0
 47
0.0
 48
0.0
 49
0.0
140
0.0
141
0.0
142
1.0
143
1.0
 70
  1712
 72
     1
 73
     0
 74
     0
  7

 75
     0
147
1.0
148
0.0
149
0.0
100
AcDbLayout
  1
Model
 70
     1
 71
     0
 10
0.0
 20
0.0
 11
1200.0
 21
800.0
 12
0.0
 22
0.0
 32
0.0
 14
0.0
 24
0.0
 34
0.0
 15
1200.0
 25
800.0
 35
0.0
146
0.0
 13
0.0
 23
0.0
 33
0.0
 16
1.0
 26
0.0
 36
0.0
 17
0.0
 27
1.0
 37
0.0
 76
     0
330
1F
331
29
  0
MLINESTYLE
  5
18
102
{ACAD_REACTORS
330
17
102
}
330
17
100
AcDbMlineStyle
  2
Standard
 70
     0
  3

 62
   256
 51
90.0
 52
90.0
 71
     2
 49
0.5
 62
   256
  6
BYLAYER
 49
-0.5
 62
   256
  6
BYLAYER
  0
ACDBPLACEHOLDER
  5
F
102
{ACAD_REACTORS
330
E
102
}
330
E
  0
SCALE
  5
48
102
{ACAD_REACTORS
330
47
102
}
330
47
100
AcDbScale
 70
     0
300
1:1
140
1.0
141
1.0
290
     1
  0
SCALE
  5
49
102
{ACAD_REACTORS
330
47
102
}
330
47
100
AcDbScale
 70
     0
300
1:2
140
1.0
141
2.0
290
     0
  0
SCALE
  5
4A
102
{ACAD_REACTORS
330
47
102
}
330
47
100
AcDbScale
 70
     0
300
1:4
140
1.0
141
4.0
290
     0
  0
SCALE
  5
4B
102
{ACAD_REACTORS
330
47
102
}
330
47
100
AcDbScale
 70
     0
300
1:5
140
1.0
141
5.0
290
     0
  0
SCALE
  5
4C
102
{ACAD_REACTORS
330
47
102
}
330
47
100
AcDbScale
 70
     0
300
1:8
140
1.0
141
8.0
290
     0
  0
SCALE
  5
4D
102
{ACAD_REACTORS
330
47
102
}
330
47
100
AcDbScale
 70
     0
300
1:10
140
1.0
141
10.0
290
     0
  0
SCALE
  5
4E
102
{ACAD_REACTORS
330
47
102
}
330
47
100
AcDbScale
 70
     0
300
1:16
140
1.0
141
16.0
290
     0
  0
SCALE
  5
4F
102
{ACAD_REACTORS
330
47
102
}
330
47
100
AcDbScale
 70
     0
300
1:20
140
1.0
141
20.0
290
     0
  0
SCALE
  5
50
102
{ACAD_REACTORS
330
47
102
}
330
47
100
AcDbScale
 70
     0
300
1:30
140
1.0
141
30.0
290
     0
  0
SCALE
  5
51
102
{ACAD_REACTORS
330
47
102
}
330
47
100
AcDbScale
 70
     0
300
1:40
140
1.0
141
40.0
290
     0
  0
SCALE
  5
52
102
{ACAD_REACTORS
330
47
102
}
330
47
100
AcDbScale
 70
     0
300
1:50
140
1.0
141
50.0
290
     0
  0
SCALE
  5
53
102
{ACAD_REACTORS
330
47
102
}
330
47
100
AcDbScale
 70
     0
300
1:100
140
1.0
141
100.0
290
     0
  0
SCALE
  5
54
102
{ACAD_REACTORS
330
47
102
}
330
47
100
AcDbScale
 70
     0
300
2:1
140
2.0
141
1.0
290
     0
  0
SCALE
  5
55
102
{ACAD_REACTORS
330
47
102
}
330
47
100
AcDbScale
 70
     0
300
4:1
140
4.0
141
1.0
290
     0
  0
SCALE
  5
56
102
{ACAD_REACTORS
330
47
102
}
330
47
100
AcDbScale
 70
     0
300
8:1
140
8.0
141
1.0
290
     0
  0
SCALE
  5
57
102
{ACAD_REACTORS
330
47
102
}
330
47
100
AcDbScale
 70
     0
300
10:1
140
10.0
141
1.0
290
     0
  0
SCALE
  5
58
102
{ACAD_REACTORS
330
47
102
}
330
47
100
AcDbScale
 70
     0
300
100:1
140
100.0
141
1.0
290
     0
  0
SCALE
  5
59
102
{ACAD_REACTORS
330
47
102
}
330
47
100
AcDbScale
 70
     0
300
1/128" = 1'-0"
140
0.0078125
141
12.0
290
     0
  0
SCALE
  5
5A
102
{ACAD_REACTORS
330
47
102
}
330
47
100
AcDbScale
 70
     0
300
1/64" = 1'-0"
140
0.015625
141
12.0
290
     0
  0
SCALE
  5
5B
102
{ACAD_REACTORS
330
47
102
}
330
47
100
AcDbScale
 70
     0
300
1/32" = 1'-0"
140
0.03125
141
12.0
290
     0
  0
SCALE
  5
5C
102
{ACAD_REACTORS
330
47
102
}
330
47
100
AcDbScale
 70
     0
300
1/16" = 1'-0"
140
0.0625
141
12.0
290
     0
  0
SCALE
  5
5D
102
{ACAD_REACTORS
330
47
102
}
330
47
100
AcDbScale
 70
     0
300
3/32" = 1'-0"
140
0.09375
141
12.0
290
     0
  0
SCALE
  5
5E
102
{ACAD_REACTORS
330
47
102
}
330
47
100
AcDbScale
 70
     0
300
1/8" = 1'-0"
140
0.125
141
12.0
290
     0
  0
SCALE
  5
5F
102
{ACAD_REACTORS
330
47
102
}
330
47
100
AcDbScale
 70
     0
300
3/16" = 1'-0"
140
0.1875
141
12.0
290
     0
  0
SCALE
  5
60
102
{ACAD_REACTORS
330
47
102
}
330
47
100
AcDbScale
 70
     0
300
1/4" = 1'-0"
140
0.25
141
12.0
290
     0
  0
SCALE
  5
61
102
{ACAD_REACTORS
330
47
102
}
330
47
100
AcDbScale
 70
     0
300
3/8" = 1'-0"
140
0.375
141
12.0
290
     0
  0
SCALE
  5
62
102
{ACAD_REACTORS
330
47
102
}
330
47
100
AcDbScale
 70
     0
300
1/2" = 1'-0"
140
0.5
141
12.0
290
     0
  0
SCALE
  5
63
102
{ACAD_REACTORS
330
47
102
}
330
47
100
AcDbScale
 70
     0
300
3/4" = 1'-0"
140
0.75
141
12.0
290
     0
  0
SCALE
  5
64
102
{ACAD_REACTORS
330
47
102
}
330
47
100
AcDbScale
 70
     0
300
1" = 1'-0"
140
1.0
141
12.0
290
     0
  0
SCALE
  5
65
102
{ACAD_REACTORS
330
47
102
}
330
47
100
AcDbScale
 70
     0
300
1-1/2" = 1'-0"
140
1.5
141
12.0
290
     0
  0
SCALE
  5
66
102
{ACAD_REACTORS
330
47
102
}
330
47
100
AcDbScale
 70
     0
300
3" = 1'-0"
140
3.0
141
12.0
290
     0
  0
SCALE
  5
67
102
{ACAD_REACTORS
330
47
102
}
330
47
100
AcDbScale
 70
     0
300
6" = 1'-0"
140
6.0
141
12.0
290
     0
  0
SCALE
  5
68
102
{ACAD_REACTORS
330
47
102
}
330
47
100
AcDbScale
 70
     0
300
1'-0" = 1'-0"
140
12.0
141
12.0
290
     0
  0
ENDSEC
  0
EOF
