  0
SECTION
  2
HEADER
  9
$ACADVER
  1
AC1015
  9
$ACADMAINTVER
 70
     6
  9
$DWGCODEPAGE
  3
ANSI_1252
  9
$INSBASE
 10
0.0
 20
0.0
 30
0.0
  9
$EXTMIN
 10
0.0
 20
0.0
 30
0.0
  9
$EXTMAX
 10
2000.0
 20
1000.0
 30
0.0
  9
$LIMMIN
 10
0.0
 20
0.0
  9
$LIMMAX
 10
2000.0
 20
1000.0
  9
$ORTHOMODE
 70
     0
  9
$REGENMODE
 70
     1
  9
$FILLMODE
 70
     1
  9
$QTEXTMODE
 70
     0
  9
$MIRRTEXT
 70
     1
  9
$LTSCALE
 40
1.0
  9
$ATTMODE
 70
     1
  9
$TEXTSIZE
 40
2.2577777778
  9
$TRACEWID
 40
1.0
  9
$TEXTSTYLE
  7
Standard
  9
$CLAYER
  8
0
  9
$CELTYPE
  6
ByLayer
  9
$CECOLOR
 62
   256
  9
$CELTSCALE
 40
1.0
  9
$DISPSILH
 70
     0
  9
$DIMSCALE
 40
1.0
  9
$DIMASZ
 40
2.0
  9
$DIMEXO
 40
1.0
  9
$DIMDLI
 40
3.75
  9
$DIMRND
 40
0.0
  9
$DIMDLE
 40
0.0
  9
$DIMEXE
 40
1.0
  9
$DIMTP
 40
0.0
  9
$DIMTM
 40
0.0
  9
$DIMTXT
 40
6.7733333333
  9
$DIMCEN
 40
2.5
  9
$DIMTSZ
 40
0.0
  9
$DIMTOL
 70
     0
  9
$DIMLIM
 70
     0
  9
$DIMTIH
 70
     1
  9
$DIMTOH
 70
     1
  9
$DIMSE1
 70
     0
  9
$DIMSE2
 70
     0
  9
$DIMTAD
 70
     1
  9
$DIMZIN
 70
     0
  9
$DIMBLK
  1

  9
$DIMASO
 70
     1
  9
$DIMSHO
 70
     1
  9
$DIMPOST
  1

  9
$DIMAPOST
  1

  9
$DIMALT
 70
     0
  9
$DIMALTD
 70
     3
  9
$DIMALTF
 40
0.0393700787
  9
$DIMLFAC
 40
1.0
  9
$DIMTOFL
 70
     1
  9
$DIMTVP
 40
0.0
  9
$DIMTIX
 70
     0
  9
$DIMSOXD
 70
     0
  9
$DIMSAH
 70
     0
  9
$DIMBLK1
  1

  9
$DIMBLK2
  1

  9
$DIMSTYLE
  2
ISO-25
  9
$DIMCLRD
 70
     0
  9
$DIMCLRE
 70
     0
  9
$DIMCLRT
 70
     0
  9
$DIMTFAC
 40
1.0
  9
$DIMGAP
 40
1.524
  9
$DIMJUST
 70
     0
  9
$DIMSD1
 70
     0
  9
$DIMSD2
 70
     0
  9
$DIMTOLJ
 70
     0
  9
$DIMTZIN
 70
     0
  9
$DIMALTZ
 70
     0
  9
$DIMALTTZ
 70
     0
  9
$DIMUPT
 70
     0
  9
$DIMDEC
 70
     2
  9
$DIMTDEC
 70
     2
  9
$DIMALTU
 70
     2
  9
$DIMALTTD
 70
     3
  9
$DIMTXSTY
  7
Standard
  9
$DIMAUNIT
 70
     0
  9
$DIMADEC
 70
     2
  9
$DIMALTRND
 40
0.0
  9
$DIMAZIN
 70
     0
  9
$DIMDSEP
 70
    44
  9
$DIMATFIT
 70
     3
  9
$DIMFRAC
 70
     0
  9
$DIMLDRBLK
  1

  9
$DIMLUNIT
 70
     2
  9
$DIMLWD
 70
    -2
  9
$DIMLWE
 70
    -2
  9
$DIMTMOVE
 70
     0
  9
$LUNITS
 70
     2
  9
$LUPREC
 70
     2
  9
$SKETCHINC
 40
1.0
  9
$FILLETRAD
 40
10.0
  9
$AUNITS
 70
     0
  9
$AUPREC
 70
     2
  9
$MENU
  1
.
  9
$ELEVATION
 40
0.0
  9
$PELEVATION
 40
0.0
  9
$THICKNESS
 40
0.0
  9
$LIMCHECK
 70
     0
  9
$CHAMFERA
 40
0.0
  9
$CHAMFERB
 40
0.0
  9
$CHAMFERC
 40
0.0
  9
$CHAMFERD
 40
0.0
  9
$SKPOLY
 70
     0
  9
$TDCREATE
 40
2458500.542360139
  9
$TDUCREATE
 40
2458500.459026806
  9
$TDUPDATE
 40
2458500.542362303
  9
$TDUUPDATE
 40
2458500.45902897
  9
$TDINDWG
 40
0.0000000116
  9
$TDUSRTIMER
 40
0.0000000116
  9
$USRTIMER
 70
     1
  9
$ANGBASE
 50
0.0
  9
$ANGDIR
 70
     0
  9
$PDMODE
 70
     0
  9
$PDSIZE
 40
-1.0
  9
$PLINEWID
 40
0.0
  9
$SPLFRAME
 70
     0
  9
$SPLINETYPE
 70
     6
  9
$SPLINESEGS
 70
     8
  9
$HANDSEED
  5
3BD
  9
$SURFTAB1
 70
     6
  9
$SURFTAB2
 70
     6
  9
$SURFTYPE
 70
     6
  9
$SURFU
 70
     6
  9
$SURFV
 70
     6
  9
$UCSBASE
  2

  9
$UCSNAME
  2

  9
$UCSORG
 10
0.0
 20
0.0
 30
0.0
  9
$UCSXDIR
 10
1.0
 20
0.0
 30
0.0
  9
$UCSYDIR
 10
0.0
 20
1.0
 30
0.0
  9
$UCSORTHOREF
  2

  9
$UCSORTHOVIEW
 70
     0
  9
$UCSORGTOP
 10
0.0
 20
0.0
 30
0.0
  9
$UCSORGBOTTOM
 10
0.0
 20
0.0
 30
0.0
  9
$UCSORGLEFT
 10
0.0
 20
0.0
 30
0.0
  9
$UCSORGRIGHT
 10
0.0
 20
0.0
 30
0.0
  9
$UCSORGFRONT
 10
0.0
 20
0.0
 30
0.0
  9
$UCSORGBACK
 10
0.0
 20
0.0
 30
0.0
  9
$PUCSBASE
  2

  9
$PUCSNAME
  2

  9
$PUCSORG
 10
0.0
 20
0.0
 30
0.0
  9
$PUCSXDIR
 10
1.0
 20
0.0
 30
0.0
  9
$PUCSYDIR
 10
0.0
 20
1.0
 30
0.0
  9
$PUCSORTHOREF
  2

  9
$PUCSORTHOVIEW
 70
     0
  9
$PUCSORGTOP
 10
0.0
 20
0.0
 30
0.0
  9
$PUCSORGBOTTOM
 10
0.0
 20
0.0
 30
0.0
  9
$PUCSORGLEFT
 10
0.0
 20
0.0
 30
0.0
  9
$PUCSORGRIGHT
 10
0.0
 20
0.0
 30
0.0
  9
$PUCSORGFRONT
 10
0.0
 20
0.0
 30
0.0
  9
$PUCSORGBACK
 10
0.0
 20
0.0
 30
0.0
  9
$USERI1
 70
     0
  9
$USERI2
 70
     0
  9
$USERI3
 70
     0
  9
$USERI4
 70
     0
  9
$USERI5
 70
     0
  9
$USERR1
 40
0.0
  9
$USERR2
 40
0.0
  9
$USERR3
 40
0.0
  9
$USERR4
 40
0.0
  9
$USERR5
 40
0.0
  9
$WORLDVIEW
 70
     1
  9
$SHADEDGE
 70
     3
  9
$SHADEDIF
 70
    70
  9
$TILEMODE
 70
     1
  9
$MAXACTVP
 70
    64
  9
$PINSBASE
 10
0.0
 20
0.0
 30
0.0
  9
$PLIMCHECK
 70
     0
  9
$PEXTMIN
 10
1.0000000000E+20
 20
1.0000000000E+20
 30
1.0000000000E+20
  9
$PEXTMAX
 10
-1.0000000000E+20
 20
-1.0000000000E+20
 30
-1.0000000000E+20
  9
$PLIMMIN
 10
0.0
 20
0.0
  9
$PLIMMAX
 10
420.0
 20
297.0
  9
$UNITMODE
 70
     0
  9
$VISRETAIN
 70
     1
  9
$PLINEGEN
 70
     0
  9
$PSLTSCALE
 70
     1
  9
$TREEDEPTH
 70
  3020
  9
$CMLSTYLE
  2
Standard
  9
$CMLJUST
 70
     0
  9
$CMLSCALE
 40
20.0
  9
$PROXYGRAPHICS
 70
     1
  9
$MEASUREMENT
 70
     1
  9
$CELWEIGHT
370
    -1
  9
$ENDCAPS
280
     0
  9
$JOINSTYLE
280
     0
  9
$LWDISPLAY
290
     1
  9
$INSUNITS
 70
     4
  9
$HYPERLINKBASE
  1

  9
$STYLESHEET
  1

  9
$XEDIT
290
     1
  9
$CEPSNTYPE
380
     0
  9
$PSTYLEMODE
290
     1
  9
$FINGERPRINTGUID
  2
{D7A1A5AA-3792-4BFC-BEC3-97F19D7D5DB0}
  9
$VERSIONGUID
  2
{FAEB1C32-E019-11D5-929B-00C0DF256EC4}
  9
$EXTNAMES
290
     1
  9
$PSVPSCALE
 40
0.0
  9
$OLESTARTUP
290
     0
  0
ENDSEC
  0
SECTION
  2
CLASSES
  0
CLASS
  1
ACDBDICTIONARYWDFLT
  2
AcDbDictionaryWithDefault
  3
ObjectDBX Classes
 90
        0
280
     0
281
     0
  0
CLASS
  1
VISUALSTYLE
  2
AcDbVisualStyle
  3
ObjectDBX Classes
 90
     4095
280
     0
281
     0
  0
CLASS
  1
MATERIAL
  2
AcDbMaterial
  3
ObjectDBX Classes
 90
     1153
280
     0
281
     0
  0
CLASS
  1
SCALE
  2
AcDbScale
  3
ObjectDBX Classes
 90
     1153
280
     0
281
     0
  0
CLASS
  1
TABLESTYLE
  2
AcDbTableStyle
  3
ObjectDBX Classes
 90
     4095
280
     0
281
     0
  0
CLASS
  1
MLEADERSTYLE
  2
AcDbMLeaderStyle
  3
ACDB_MLEADERSTYLE_CLASS
 90
     4095
280
     0
281
     0
  0
CLASS
  1
SUN
  2
AcDbSun
  3
SCENEOE
 90
     1153
280
     0
281
     0
  0
CLASS
  1
ACDBPLACEHOLDER
  2
AcDbPlaceHolder
  3
ObjectDBX Classes
 90
        0
280
     0
281
     0
  0
CLASS
  1
LAYOUT
  2
AcDbLayout
  3
ObjectDBX Classes
 90
        0
280
     0
281
     0
  0
ENDSEC
  0
SECTION
  2
TABLES
  0
TABLE
  2
VPORT
  5
8
330
0
100
AcDbSymbolTable
 70
     1
  0
VPORT
  5
29
330
8
100
AcDbSymbolTableRecord
100
AcDbViewportTableRecord
  2
*Active
 70
     0
 10
0.0
 20
0.0
 11
1.0
 21
1.0
 12
1000.0
 22
500.0
 13
0.0
 23
0.0
 14
10.0
 24
10.0
 15
10.0
 25
10.0
 16
0.0
 26
0.0
 36
1.0
 17
0.0
 27
0.0
 37
0.0
 40
1000.0
 41
2.0
 42
50.0
 43
0.0
 44
0.0
 50
0.0
 51
0.0
 71
     0
 72
  2000
 73
     1
 74
     3
 75
     0
 76
     0
 77
     0
 78
     0
281
     0
 65
     1
110
0.0
120
0.0
130
0.0
111
1.0
121
0.0
131
0.0
112
0.0
122
1.0
132
0.0
 79
     0
146
0.0
  0
ENDTAB
  0
TABLE
  2
LTYPE
  5
5
330
0
100
AcDbSymbolTable
 70
     6
  0
LTYPE
  5
14
330
5
100
AcDbSymbolTableRecord
100
AcDbLinetypeTableRecord
  2
ByBlock
 70
     0
  3

 72
    65
 73
     0
 40
0.0
  0
LTYPE
  5
15
330
5
100
AcDbSymbolTableRecord
100
AcDbLinetypeTableRecord
  2
ByLayer
 70
     0
  3

 72
    65
 73
     0
 40
0.0
  0
LTYPE
  5
16
330
5
100
AcDbSymbolTableRecord
100
AcDbLinetypeTableRecord
  2
Continuous
 70
     0
  3
Solid line
 72
    65
 73
     0
 40
0.0
  0
LTYPE
  5
6E
330
5
100
AcDbSymbolTableRecord
100
AcDbLinetypeTableRecord
  2
HIDDEN
 70
     0
  3
Hidden __ __ __ __ __ __ __ __ __ __ __ __ __ __
 72
    65
 73
     2
 40
1.905
 49
1.27
 74
     0
 49
-0.635
 74
     0
  0
LTYPE
  5
6F
330
5
100
AcDbSymbolTableRecord
100
AcDbLinetypeTableRecord
  2
PHANTOM
 70
     0
  3
Phantom ______  __  __  ______  __  __  ______
 72
    65
 73
     6
 40
12.7
 49
6.35
 74
     0
 49
-1.27
 74
     0
 49
1.27
 74
     0
 49
-1.27
 74
     0
 49
1.27
 74
     0
 49
-1.27
 74
     0
  0
LTYPE
  5
70
330
5
100
AcDbSymbolTableRecord
100
AcDbLinetypeTableRecord
  2
CENTER
 70
     0
  3
Center ____ _ ____ _ ____ _ ____ _ ____ _ ____
 72
    65
 73
     4
 40
10.16
 49
6.35
 74
     0
 49
-1.27
 74
     0
 49
1.27
 74
     0
 49
-1.27
 74
     0
  0
LTYPE
  5
71
330
5
100
AcDbSymbolTableRecord
100
AcDbLinetypeTableRecord
  2
CENTERX2
 70
     0
  3
Center (2x) ________  __  ________  __  _____
 72
    65
 73
     4
 40
20.32
 49
12.7
 74
     0
 49
-2.54
 74
     0
 49
2.54
 74
     0
 49
-2.54
 74
     0
  0
LTYPE
  5
72
330
5
100
AcDbSymbolTableRecord
100
AcDbLinetypeTableRecord
  2
DOT2
 70
     0
  3
Dot (.5x) ........................................
 72
    65
 73
     2
 40
0.635
 49
0.0
 74
     0
 49
-0.635
 74
     0
  0
ENDTAB
  0
TABLE
  2
LAYER
  5
2
330
0
100
AcDbSymbolTable
 70
     2
  0
LAYER
  5
10
330
2
100
AcDbSymbolTableRecord
100
AcDbLayerTableRecord
  2
0
 70
     0
 62
     7
  6
Continuous
370
    -3
390
F
  0
LAYER
  5
73
330
2
100
AcDbSymbolTableRecord
100
AcDbLayerTableRecord
  2
TABLE_BL1
 70
     0
 62
   179
  6
Continuous
370
    -3
390
F
  0
ENDTAB
  0
TABLE
  2
STYLE
  5
3
330
0
100
AcDbSymbolTable
 70
     1
  0
STYLE
  5
11
330
3
100
AcDbSymbolTableRecord
100
AcDbTextStyleTableRecord
  2
Standard
 70
     0
 40
0.0
 41
1.0
 50
0.0
 71
     0
 42
2.2577777778
  3
txt
  4

  0
ENDTAB
  0
TABLE
  2
VIEW
  5
6
330
0
100
AcDbSymbolTable
 70
     0
  0
ENDTAB
  0
TABLE
  2
UCS
  5
7
330
0
100
AcDbSymbolTable
 70
     0
  0
ENDTAB
  0
TABLE
  2
APPID
  5
9
330
0
100
AcDbSymbolTable
 70
     1
  0
APPID
  5
12
330
9
100
AcDbSymbolTableRecord
100
AcDbRegAppTableRecord
  2
ACAD
 70
     0
  0
ENDTAB
  0
TABLE
  2
DIMSTYLE
  5
A
330
0
100
AcDbSymbolTable
 70
     1
100
AcDbDimStyleTable
  0
DIMSTYLE
105
27
330
A
100
AcDbSymbolTableRecord
100
AcDbDimStyleTableRecord
  2
ISO-25
 70
     0
 41
2.5
 42
0.625
 43
3.75
 44
1.25
 73
     0
 74
     0
 77
     1
 78
     8
140
2.5
141
2.5
143
0.0393700787
147
0.625
171
     3
172
     1
178
     0
271
     2
272
     2
274
     3
278
    44
283
     0
284
     8
340
11
  0
ENDTAB
  0
TABLE
  2
BLOCK_RECORD
  5
1
330
0
100
AcDbSymbolTable
 70
     1
  0
BLOCK_RECORD
  5
1F
330
1
100
AcDbSymbolTableRecord
100
AcDbBlockTableRecord
  2
*Model_Space
340
22
  0
BLOCK_RECORD
  5
1B
330
1
100
AcDbSymbolTableRecord
100
AcDbBlockTableRecord
  2
*Paper_Space
340
1E
  0
BLOCK_RECORD
  5
23
330
1
100
AcDbSymbolTableRecord
100
AcDbBlockTableRecord
  2
*Paper_Space0
340
26
  0
ENDTAB
  0
ENDSEC
  0
SECTION
  2
BLOCKS
  0
BLOCK
  5
20
330
1F
100
AcDbEntity
  8
0
100
AcDbBlockBegin
  2
*Model_Space
 70
     0
 10
0.0
 20
0.0
 30
0.0
  3
*Model_Space
  1

  0
ENDBLK
  5
21
330
1F
100
AcDbEntity
  8
0
100
AcDbBlockEnd
  0
BLOCK
  5
1C
330
1B
100
AcDbEntity
 67
     1
  8
0
100
AcDbBlockBegin
  2
*Paper_Space
 70
     0
 10
0.0
 20
0.0
 30
0.0
  3
*Paper_Space
  1

  0
ENDBLK
  5
1D
330
1B
100
AcDbEntity
 67
     1
  8
0
100
AcDbBlockEnd
  0
BLOCK
  5
24
330
23
100
AcDbEntity
  8
0
100
AcDbBlockBegin
  2
*Paper_Space0
 70
     0
 10
0.0
 20
0.0
 30
0.0
  3
*Paper_Space0
  1

  0
ENDBLK
  5
25
330
23
100
AcDbEntity
  8
0
100
AcDbBlockEnd
  0
ENDSEC
  0
SECTION
  2
ENTITIES
  0
SPLINE
  5
74
330
1F
100
AcDbEntity
  8
0
  6
Continuous
 62
     7
370
    25
100
AcDbSpline
210
0.0
220
0.0
230
1.0
 70
     8
 71
     3
 72
    29
 73
    25
 74
     0
 42
0.000000001
 43
0.00000001
 40
0.0
 40
0.0
 40
0.0
 40
0.0
 40
0.0349321406882635
 40
0.0633980643159912
 40
0.0838985515737895
 40
0.1410481598295768
 40
0.1993926718331194
 40
0.2579538570990187
 40
0.3167358876867429
 40
0.3756685440136572
 40
0.4347110736298802
 40
0.4938368192040538
 40
0.5530116495173844
 40
0.6120983013386024
 40
0.6710428299972757
 40
0.7298261731686602
 40
0.7884258360426927
 40
0.846795814520617
 40
0.8655669647427027
 40
0.8834823951604175
 40
0.9012873219477364
 40
0.9267778521638323
 40
0.9604934909203238
 40
1.0
 40
1.0
 40
1.0
 40
1.0
 10
999.5356965544179
 20
492.6319067751958
 30
0.0
 10
1000.883569578999
 20
492.4333496239026
 30
0.0
 10
1003.32981361153
 20
492.0729898291673
 30
0.0
 10
1006.60575163829
 20
492.0159640840604
 30
0.0
 10
1010.73538942802
 20
492.2335779585979
 30
0.0
 10
1015.984355709314
 20
493.1673678188711
 30
0.0
 10
1022.372508778177
 20
495.5507992299069
 30
0.0
 10
1028.274303068325
 20
499.0953335480461
 30
0.0
 10
1033.443378017073
 20
503.6768718192131
 30
0.0
 10
1037.693534959358
 20
509.1460181201966
 30
0.0
 10
1040.869099705304
 20
515.3168785939216
 30
0.0
 10
1042.853671288492
 20
521.9771102782707
 30
0.0
 10
1043.573378899979
 20
528.8911738217583
 30
0.0
 10
1043.003900110452
 20
535.8119925246993
 30
0.0
 10
1041.172254369715
 20
542.4940921323164
 30
0.0
 10
1038.150942747055
 20
548.7081859875798
 30
0.0
 10
1034.056189613029
 20
554.2437095907324
 30
0.0
 10
1030.161844015426
 20
557.8712605925427
 30
0.0
 10
1027.165613516102
 20
560.0506437540199
 30
0.0
 10
1025.378610204994
 20
561.199252897848
 30
0.0
 10
1023.302491036548
 20
562.3758179962066
 30
0.0
 10
1020.593472117824
 20
563.6706042762944
 30
0.0
 10
1016.984204553761
 20
565.0332585544259
 30
0.0
 10
1014.192013075312
 20
565.6366446773083
 30
0.0
 10
1012.68550525964
 20
565.9621975331946
 30
0.0
  0
SPLINE
  5
75
330
1F
100
AcDbEntity
  8
0
  6
Continuous
 62
     7
370
    25
100
AcDbSpline
210
0.0
220
0.0
230
1.0
 70
     8
 71
     3
 72
    29
 73
    25
 74
     0
 42
0.000000001
 43
0.00000001
 40
0.0
 40
0.0
 40
0.0
 40
0.0
 40
0.0349321406882635
 40
0.0633980643159913
 40
0.0838985515737894
 40
0.1410481598295767
 40
0.1993926718331192
 40
0.2579538570990186
 40
0.3167358876867428
 40
0.3756685440136572
 40
0.4347110736298801
 40
0.4938368192040537
 40
0.5530116495173842
 40
0.6120983013386022
 40
0.6710428299972756
 40
0.72982617316866
 40
0.7884258360426927
 40
0.8467958145206171
 40
0.8655669647427026
 40
0.8834823951604174
 40
0.9012873219477362
 40
0.9267778521638323
 40
0.9604934909203238
 40
1.0
 40
1.0
 40
1.0
 40
1.0
 10
1012.68550525964
 20
565.9621975331946
 30
0.0
 10
1011.337632235058
 20
566.1607546844878
 30
0.0
 10
1008.891388202528
 20
566.5211144792231
 30
0.0
 10
1005.615450175768
 20
566.57814022433
 30
0.0
 10
1001.485812386037
 20
566.3605263497925
 30
0.0
 10
996.2368461047437
 20
565.4267364895195
 30
0.0
 10
989.848693035881
 20
563.0433050784835
 30
0.0
 10
983.9468987457319
 20
559.4987707603444
 30
0.0
 10
978.7778237969839
 20
554.9172324891772
 30
0.0
 10
974.5276668546994
 20
549.448086188194
 30
0.0
 10
971.3521021087531
 20
543.277225714469
 30
0.0
 10
969.3675305255653
 20
536.6169940301197
 30
0.0
 10
968.6478229140781
 20
529.7029304866322
 30
0.0
 10
969.2173017036055
 20
522.7821117836911
 30
0.0
 10
971.0489474443426
 20
516.1000121760741
 30
0.0
 10
974.0702590670023
 20
509.8859183208107
 30
0.0
 10
978.1650122010283
 20
504.3503947176582
 30
0.0
 10
982.0593577986316
 20
500.7228437158477
 30
0.0
 10
985.0555882979551
 20
498.5434605543705
 30
0.0
 10
986.842591609063
 20
497.3948514105425
 30
0.0
 10
988.9187107775097
 20
496.2182863121839
 30
0.0
 10
991.6277296962335
 20
494.9235000320961
 30
0.0
 10
995.2369972602966
 20
493.5608457539647
 30
0.0
 10
998.0291887387452
 20
492.9574596310822
 30
0.0
 10
999.5356965544179
 20
492.6319067751958
 30
0.0
  0
SPLINE
  5
76
330
1F
100
AcDbEntity
  8
0
  6
Continuous
 62
     7
370
    25
100
AcDbSpline
210
0.0
220
0.0
230
1.0
 70
     8
 71
     3
 72
    29
 73
    25
 74
     0
 42
0.000000001
 43
0.00000001
 40
0.0
 40
0.0
 40
0.0
 40
0.0
 40
0.0349321406882635
 40
0.0633980643159912
 40
0.0838985515737895
 40
0.1410481598295769
 40
0.1993926718331194
 40
0.2579538570990186
 40
0.3167358876867427
 40
0.3756685440136575
 40
0.4347110736298802
 40
0.4938368192040538
 40
0.5530116495173841
 40
0.6120983013386024
 40
0.6710428299972756
 40
0.72982617316866
 40
0.7884258360426927
 40
0.8467958145206173
 40
0.8655669647427026
 40
0.8834823951604175
 40
0.9012873219477363
 40
0.9267778521638323
 40
0.9604934909203237
 40
1.0
 40
1.0
 40
1.0
 40
1.0
 10
707.8756692905339
 20
530.3563540111256
 30
0.0
 10
707.8793970104275
 20
528.9939397067278
 30
0.0
 10
707.8861624196154
 20
526.5213048211064
 30
0.0
 10
708.3160650518831
 20
523.273196815275
 30
0.0
 10
709.1442919283523
 20
519.221616344168
 30
0.0
 10
710.846918739429
 20
514.169421527308
 30
0.0
 10
714.1522326056842
 20
508.2058533699146
 30
0.0
 10
718.5335876123655
 20
502.8956153638426
 30
0.0
 10
723.8316887490253
 20
498.4639166938441
 30
0.0
 10
729.8711550415836
 20
495.0727159925202
 30
0.0
 10
736.4450431600961
 20
492.8483676728634
 30
0.0
 10
743.3260836210587
 20
491.8744618085207
 30
0.0
 10
750.2703809406863
 20
492.1890861337554
 30
0.0
 10
757.0299853215666
 20
493.7796163046999
 30
0.0
 10
763.3661531016334
 20
496.5828928070306
 30
0.0
 10
769.0629003870974
 20
500.493181380627
 30
0.0
 10
773.929248517222
 20
505.3642880994443
 30
0.0
 10
776.93851260261
 20
509.753978700011
 30
0.0
 10
778.6489742627462
 20
513.0405314652668
 30
0.0
 10
779.5195859047753
 20
514.9782412391903
 30
0.0
 10
780.3749259690061
 20
517.2060135809679
 30
0.0
 10
781.2532266094487
 20
520.0772229077334
 30
0.0
 10
782.065005919454
 20
523.8487813896551
 30
0.0
 10
782.2472201055992
 20
526.6996068939566
 30
0.0
 10
782.3455325235236
 20
528.2377502972648
 30
0.0
  0
SPLINE
  5
77
330
1F
100
AcDbEntity
  8
0
  6
Continuous
 62
     7
370
    25
100
AcDbSpline
210
0.0
220
0.0
230
1.0
 70
     8
 71
     3
 72
    29
 73
    25
 74
     0
 42
0.000000001
 43
0.00000001
 40
0.0
 40
0.0
 40
0.0
 40
0.0
 40
0.0349321406882635
 40
0.0633980643159912
 40
0.0838985515737895
 40
0.1410481598295768
 40
0.1993926718331195
 40
0.2579538570990187
 40
0.3167358876867429
 40
0.3756685440136573
 40
0.4347110736298802
 40
0.4938368192040537
 40
0.5530116495173846
 40
0.6120983013386024
 40
0.671042829997276
 40
0.7298261731686604
 40
0.7884258360426928
 40
0.846795814520617
 40
0.8655669647427028
 40
0.8834823951604175
 40
0.9012873219477364
 40
0.9267778521638325
 40
0.9604934909203239
 40
1.0
 40
1.0
 40
1.0
 40
1.0
 10
782.3455325235236
 20
528.2377502972648
 30
0.0
 10
782.34180480363
 20
529.6001646016626
 30
0.0
 10
782.3350393944421
 20
532.072799487284
 30
0.0
 10
781.9051367621742
 20
535.3209074931153
 30
0.0
 10
781.0769098857052
 20
539.3724879642224
 30
0.0
 10
779.3742830746285
 20
544.4246827810823
 30
0.0
 10
776.0689692083732
 20
550.3882509384756
 30
0.0
 10
771.6876142016921
 20
555.6984889445478
 30
0.0
 10
766.3895130650321
 20
560.1301876145463
 30
0.0
 10
760.3500467724738
 20
563.52138831587
 30
0.0
 10
753.7761586539613
 20
565.745736635527
 30
0.0
 10
746.8951181929988
 20
566.7196424998696
 30
0.0
 10
739.9508208733712
 20
566.405018174635
 30
0.0
 10
733.1912164924909
 20
564.8144880036905
 30
0.0
 10
726.8550487124241
 20
562.0112115013598
 30
0.0
 10
721.1583014269602
 20
558.1009229277633
 30
0.0
 10
716.2919532968355
 20
553.2298162089461
 30
0.0
 10
713.2826892114475
 20
548.8401256083794
 30
0.0
 10
711.5722275513112
 20
545.5535728431237
 30
0.0
 10
710.7016159092822
 20
543.6158630691999
 30
0.0
 10
709.8462758450514
 20
541.3880907274224
 30
0.0
 10
708.9679752046085
 20
538.516881400657
 30
0.0
 10
708.1561958946035
 20
534.7453229187354
 30
0.0
 10
707.9739817084583
 20
531.8944974144339
 30
0.0
 10
707.8756692905339
 20
530.3563540111256
 30
0.0
  0
ARC
  5
78
330
1F
100
AcDbEntity
  8
0
  6
Continuous
 62
     7
370
    25
100
AcDbCircle
 10
1006.110600907
 20
529.2970521542
 30
0.0
 40
36.31056399417614
100
AcDbArc
 50
79.8336018773
 51
259.8336018942
  0
ARC
  5
79
330
1F
100
AcDbEntity
  8
0
  6
Continuous
 62
     7
370
    25
100
AcDbCircle
 10
1006.110600907
 20
529.2970521542
 30
0.0
 40
36.31056399417614
100
AcDbArc
 50
259.8336018942
 51
79.8336018773
  0
ARC
  5
7A
330
1F
100
AcDbEntity
  8
0
  6
Continuous
 62
     7
370
    25
100
AcDbCircle
 10
745.110600907
 20
529.2970521542
 30
0.0
 40
36.31056399417623
100
AcDbArc
 50
178.3704237671
 51
358.370423784
  0
ARC
  5
7B
330
1F
100
AcDbEntity
  8
0
  6
Continuous
 62
     7
370
    25
100
AcDbCircle
 10
745.110600907
 20
529.2970521542
 30
0.0
 40
36.31056399417623
100
AcDbArc
 50
358.370423784
 51
178.3704237671
  0
SPLINE
  5
7C
330
1F
100
AcDbEntity
  8
0
  6
Continuous
 62
     7
370
    25
100
AcDbSpline
210
0.0
220
0.0
230
1.0
 70
    24
 71
     3
 72
     9
 73
     5
 74
     0
 42
0.000000001
 43
0.00000001
 40
0.0
 40
0.0
 40
0.0
 40
0.0
 40
0.5599999999872011
 40
1.0
 40
1.0
 40
1.0
 40
1.0
 10
975.626519336002
 20
506.1122721684148
 30
0.0
 10
975.4716580859204
 20
505.994491876983
 30
0.0
 10
975.1951201393397
 20
505.7841699279928
 30
0.0
 10
974.8308575606923
 20
505.5071286885081
 30
0.0
 10
974.6705820260829
 20
505.3852305431313
 30
0.0
  0
SPLINE
  5
7D
330
1F
100
AcDbEntity
  8
0
  6
Continuous
 62
     7
370
    25
100
AcDbSpline
210
0.0
220
0.0
230
1.0
 70
    24
 71
     3
 72
     9
 73
     5
 74
     0
 42
0.000000001
 43
0.00000001
 40
0.0
 40
0.0
 40
0.0
 40
0.0
 40
0.5600000000054445
 40
1.0
 40
1.0
 40
1.0
 40
1.0
 10
1037.550619787974
 20
553.2088737652591
 30
0.0
 10
1037.345735792664
 20
553.0530484915731
 30
0.0
 10
1036.979871515329
 20
552.7747890742796
 30
0.0
 10
1036.712379127932
 20
552.5713467584856
 30
0.0
 10
1036.594682477479
 20
552.4818321395372
 30
0.0
  0
ARC
  5
7E
330
1F
100
AcDbEntity
  8
0
  6
Continuous
 62
     7
370
    25
100
AcDbCircle
 10
1006.110600907
 20
529.2970521542
 30
0.0
 40
38.29899805700015
100
AcDbArc
 50
37.2549368278
 51
217.2549368278
  0
ARC
  5
7F
330
1F
100
AcDbEntity
  8
0
  6
Continuous
 62
     7
370
    25
100
AcDbCircle
 10
1006.110600907
 20
529.2970521542
 30
0.0
 40
39.50000000000035
100
AcDbArc
 50
37.2549368278
 51
217.2549368513
  0
ARC
  5
80
330
1F
100
AcDbEntity
  8
0
  6
Continuous
 62
     7
370
    25
100
AcDbCircle
 10
1006.110600907
 20
529.2970521542
 30
0.0
 40
38.29899805700015
100
AcDbArc
 50
217.2549368278
 51
37.2549368278
  0
ARC
  5
81
330
1F
100
AcDbEntity
  8
0
  6
Continuous
 62
     7
370
    25
100
AcDbCircle
 10
1006.110600907
 20
529.2970521542
 30
0.0
 40
39.50000000000045
100
AcDbArc
 50
217.2549368513
 51
37.2549368176
  0
SPLINE
  5
82
330
1F
100
AcDbEntity
  8
0
  6
Continuous
 62
     7
370
    25
100
AcDbSpline
210
0.0
220
0.0
230
1.0
 70
    24
 71
     3
 72
     9
 73
     5
 74
     0
 42
0.000000001
 43
0.00000001
 40
0.0
 40
0.0
 40
0.0
 40
0.0
 40
0.5599999999872025
 40
1.0
 40
1.0
 40
1.0
 40
1.0
 10
714.6265193360022
 20
506.1122721684148
 30
0.0
 10
714.4716580859205
 20
505.994491876983
 30
0.0
 10
714.1951201393397
 20
505.7841699279928
 30
0.0
 10
713.8308575606924
 20
505.5071286885081
 30
0.0
 10
713.670582026083
 20
505.3852305431313
 30
0.0
  0
SPLINE
  5
83
330
1F
100
AcDbEntity
  8
0
  6
Continuous
 62
     7
370
    25
100
AcDbSpline
210
0.0
220
0.0
230
1.0
 70
    24
 71
     3
 72
     9
 73
     5
 74
     0
 42
0.000000001
 43
0.00000001
 40
0.0
 40
0.0
 40
0.0
 40
0.0
 40
0.5600000000054461
 40
1.0
 40
1.0
 40
1.0
 40
1.0
 10
776.5506197879746
 20
553.2088737652591
 30
0.0
 10
776.3457357926645
 20
553.0530484915731
 30
0.0
 10
775.9798715153289
 20
552.7747890742796
 30
0.0
 10
775.7123791279322
 20
552.5713467584856
 30
0.0
 10
775.5946824774792
 20
552.4818321395372
 30
0.0
  0
ARC
  5
84
330
1F
100
AcDbEntity
  8
0
  6
Continuous
 62
     7
370
    25
100
AcDbCircle
 10
745.110600907
 20
529.2970521542
 30
0.0
 40
38.29899805700015
100
AcDbArc
 50
37.2549368278
 51
217.2549368278
  0
ARC
  5
85
330
1F
100
AcDbEntity
  8
0
  6
Continuous
 62
     7
370
    25
100
AcDbCircle
 10
745.110600907
 20
529.2970521542
 30
0.0
 40
39.50000000000026
100
AcDbArc
 50
37.2549368278
 51
217.2549368513
  0
ARC
  5
86
330
1F
100
AcDbEntity
  8
0
  6
Continuous
 62
     7
370
    25
100
AcDbCircle
 10
745.110600907
 20
529.2970521542
 30
0.0
 40
38.29899805700015
100
AcDbArc
 50
217.2549368278
 51
37.2549368278
  0
ARC
  5
87
330
1F
100
AcDbEntity
  8
0
  6
Continuous
 62
     7
370
    25
100
AcDbCircle
 10
745.110600907
 20
529.2970521542
 30
0.0
 40
39.50000000000027
100
AcDbArc
 50
217.2549368513
 51
37.2549368176
  0
CIRCLE
  5
88
330
1F
100
AcDbEntity
  8
0
  6
Continuous
 62
     7
370
    25
100
AcDbCircle
 10
745.110600907
 20
529.2970521542
 30
0.0
 40
57.00000000000011
  0
SPLINE
  5
89
330
1F
100
AcDbEntity
  8
0
  6
Continuous
 62
     7
370
    25
100
AcDbSpline
210
0.0
220
0.0
230
1.0
 70
     8
 71
     3
 72
    35
 73
    31
 74
     0
 42
0.000000001
 43
0.00000001
 40
0.0
 40
0.0
 40
0.0
 40
0.0
 40
0.0282546077220522
 40
0.0583834426637935
 40
0.0903495399278267
 40
0.1258616479012818
 40
0.1640104750491875
 40
0.2048405213069451
 40
0.2374624815847436
 40
0.2716127104071184
 40
0.3071914351681349
 40
0.3440550017625768
 40
0.3820151215667329
 40
0.4208413631481724
 40
0.4602672732901841
 40
0.5000000044809538
 40
0.5397327356717235
 40
0.5791586458137358
 40
0.6179848873951752
 40
0.6559450071993314
 40
0.692808573793773
 40
0.7283872985547898
 40
0.7625375273771647
 40
0.795159487654963
 40
0.8359928376182006
 40
0.8741415922595374
 40
0.9096504660940494
 40
0.9416198397637136
 40
0.9717470283705446
 40
1.0
 40
1.0
 40
1.0
 40
1.0
 10
789.1184618117883
 20
524.6514206271424
 30
0.0
 10
789.2223833715827
 20
525.9567792163353
 30
0.0
 10
789.4371199726882
 20
528.6540854078614
 30
0.0
 10
789.2863233963898
 20
532.8452669471228
 30
0.0
 10
788.7125702222829
 20
537.3355694181766
 30
0.0
 10
787.5720869749097
 20
542.1041986820545
 30
0.0
 10
785.7496196630434
 20
547.0970009185784
 30
0.0
 10
783.3823888344645
 20
551.7087990191119
 30
0.0
 10
780.6068507951614
 20
555.8579739875584
 30
0.0
 10
777.5672800106473
 20
559.5077386708894
 30
0.0
 10
774.0047431870049
 20
562.9403791310158
 30
0.0
 10
769.9343877853175
 20
566.0542650389923
 30
0.0
 10
765.3967078290631
 20
568.7466243708418
 30
0.0
 10
760.4586116081217
 20
570.9215839710904
 30
0.0
 10
755.2118579442058
 20
572.4984280334735
 30
0.0
 10
749.7683148255417
 20
573.4193690170483
 30
0.0
 10
744.2524639615513
 20
573.6553419380956
 30
0.0
 10
738.792112047401
 20
573.2087792905055
 30
0.0
 10
733.5087273848668
 20
572.1128367724152
 30
0.0
 10
728.5088997382525
 20
570.4272918084563
 30
0.0
 10
723.8780811179804
 20
568.2319337545621
 30
0.0
 10
719.6773313819039
 20
565.6188145403619
 30
0.0
 10
715.9426862044671
 20
562.6841603352648
 30
0.0
 10
712.3618622011032
 20
559.205870415193
 30
0.0
 10
709.0838050500598
 20
555.1898557465187
 30
0.0
 10
706.2590246527178
 20
550.6876245832923
 30
0.0
 10
704.1480386831167
 20
546.2622185674519
 30
0.0
 10
702.649360636136
 20
541.990763396473
 30
0.0
 10
701.6268647911643
 20
537.9234266286694
 30
0.0
 10
701.2736686351382
 20
535.2408915970365
 30
0.0
 10
701.1027400022695
 20
533.942683681248
 30
0.0
  0
SPLINE
  5
8A
330
1F
100
AcDbEntity
  8
0
  6
Continuous
 62
     7
370
    25
100
AcDbSpline
210
0.0
220
0.0
230
1.0
 70
     8
 71
     3
 72
    35
 73
    31
 74
     0
 42
0.000000001
 43
0.00000001
 40
0.0
 40
0.0
 40
0.0
 40
0.0
 40
0.0282546077224727
 40
0.0583834426636157
 40
0.0903495399278288
 40
0.1258616479030813
 40
0.1640104750499175
 40
0.2048405213069396
 40
0.2374624815847383
 40
0.2716127104071133
 40
0.3071914351681298
 40
0.3440550017625719
 40
0.3820151215667281
 40
0.4208413631481677
 40
0.46026727329018
 40
0.5000000044809499
 40
0.5397327356717198
 40
0.5791586458137318
 40
0.6179848873951714
 40
0.6559450071993277
 40
0.6928085737937696
 40
0.7283872985547862
 40
0.7625375273771612
 40
0.7951594876549597
 40
0.8359928376182577
 40
0.8741415922594713
 40
0.9096504660940462
 40
0.9416198397647848
 40
0.9717470283710182
 40
1.0
 40
1.0
 40
1.0
 40
1.0
 10
701.1027400022695
 20
533.942683681248
 30
0.0
 10
700.99881844247
 20
532.6373250920357
 30
0.0
 10
700.7840818413584
 20
529.9400189005178
 30
0.0
 10
700.9348784176887
 20
525.7488373612575
 30
0.0
 10
701.5086315917803
 20
521.2585348901388
 30
0.0
 10
702.6491148391705
 20
516.489905626218
 30
0.0
 10
704.471582151089
 20
511.4971033897157
 30
0.0
 10
706.8388129796075
 20
506.8853052892471
 30
0.0
 10
709.6143510188974
 20
502.7361303208319
 30
0.0
 10
712.6539218034103
 20
499.0863656375002
 30
0.0
 10
716.2164586270529
 20
495.6537251773738
 30
0.0
 10
720.2868140287402
 20
492.5398392693973
 30
0.0
 10
724.8244939849945
 20
489.8474799375479
 30
0.0
 10
729.7625902059361
 20
487.6725203372993
 30
0.0
 10
735.0093438698522
 20
486.0956762749161
 30
0.0
 10
740.4528869885163
 20
485.1747352913412
 30
0.0
 10
745.9687378525066
 20
484.938762370294
 30
0.0
 10
751.4290897666567
 20
485.3853250178841
 30
0.0
 10
756.712474429191
 20
486.4812675359744
 30
0.0
 10
761.7123020758054
 20
488.1668124999333
 30
0.0
 10
766.3431206960773
 20
490.3621705538275
 30
0.0
 10
770.5438704321539
 20
492.9752897680278
 30
0.0
 10
774.278515609591
 20
495.9099439731246
 30
0.0
 10
777.8593396129559
 20
499.3882338931993
 30
0.0
 10
781.1373967640022
 20
503.4042485618678
 30
0.0
 10
783.9621771613348
 20
507.9064797250999
 30
0.0
 10
786.0731631309608
 20
512.3318857409797
 30
0.0
 10
787.57184117795
 20
516.6033409119838
 30
0.0
 10
788.5943370228947
 20
520.6706776797936
 30
0.0
 10
788.9475331789198
 20
523.3532127113763
 30
0.0
 10
789.1184618117883
 20
524.6514206271424
 30
0.0
  0
SPLINE
  5
8B
330
1F
100
AcDbEntity
  8
0
  6
Continuous
 62
     7
370
    25
100
AcDbSpline
210
0.0
220
0.0
230
1.0
 70
    24
 71
     3
 72
    11
 73
     7
 74
     0
 42
0.000000001
 43
0.00000001
 40
0.0
 40
0.0
 40
0.0
 40
0.0
 40
0.2706996604071811
 40
0.5623161110113825
 40
0.7892984430189679
 40
1.0
 40
1.0
 40
1.0
 40
1.0
 10
701.1027400022696
 20
533.942683681248
 30
0.0
 10
701.6409944026152
 20
533.8858635686496
 30
0.0
 10
702.7590937777006
 20
533.7678328895734
 30
0.0
 10
704.0427155115754
 20
533.6323290620048
 30
0.0
 10
704.8123306004987
 20
533.5510856648642
 30
0.0
 10
704.9247218291199
 20
533.5392212337305
 30
0.0
 10
704.9788271033997
 20
533.5335096821393
 30
0.0
  0
ARC
  5
8C
330
1F
100
AcDbEntity
  8
0
  6
Continuous
 62
     7
370
    25
100
AcDbCircle
 10
745.110600907
 20
529.2970521542
 30
0.0
 40
40.35476230894881
100
AcDbArc
 50
173.973964907
 51
353.973964907
  0
SPLINE
  5
8D
330
1F
100
AcDbEntity
  8
0
  6
Continuous
 62
     7
370
    25
100
AcDbSpline
210
0.0
220
0.0
230
1.0
 70
    24
 71
     3
 72
    11
 73
     7
 74
     0
 42
0.000000001
 43
0.00000001
 40
0.0
 40
0.0
 40
0.0
 40
0.0
 40
0.2706996603325214
 40
0.562316110912321
 40
0.789298442959091
 40
0.9999999999999999
 40
0.9999999999999999
 40
0.9999999999999999
 40
0.9999999999999999
 10
785.2423747106583
 20
525.060594626251
 30
0.0
 10
785.3266413465093
 20
525.0516991304886
 30
0.0
 10
785.5016858474637
 20
525.0332207896748
 30
0.0
 10
786.550589500116
 20
524.9224946653547
 30
0.0
 10
787.8324745934264
 20
524.7871741639462
 30
0.0
 10
788.7005629973385
 20
524.6955355617838
 30
0.0
 10
789.1184618117883
 20
524.6514206271424
 30
0.0
  0
ARC
  5
8E
330
1F
100
AcDbEntity
  8
0
  6
Continuous
 62
     7
370
    25
100
AcDbCircle
 10
745.110600907
 20
529.2970521542
 30
0.0
 40
40.35476230894881
100
AcDbArc
 50
353.973964907
 51
173.973964907
  0
CIRCLE
  5
8F
330
1F
100
AcDbEntity
  8
0
  6
Continuous
 62
     7
370
    25
100
AcDbCircle
 10
745.110600907
 20
529.2970521542
 30
0.0
 40
39.93812333100013
  0
CIRCLE
  5
90
330
1F
100
AcDbEntity
  8
0
  6
Continuous
 62
     7
370
    25
100
AcDbCircle
 10
1006.110600907
 20
529.2970521542
 30
0.0
 40
57.0
  0
SPLINE
  5
91
330
1F
100
AcDbEntity
  8
0
  6
Continuous
 62
     7
370
    25
100
AcDbSpline
210
0.0
220
0.0
230
1.0
 70
     8
 71
     3
 72
    35
 73
    31
 74
     0
 42
0.000000001
 43
0.00000001
 40
0.0
 40
0.0
 40
0.0
 40
0.0
 40
0.0282546077220522
 40
0.0583834426637935
 40
0.0903495399278267
 40
0.1258616479012818
 40
0.1640104750491875
 40
0.2048405213069451
 40
0.2374624815847435
 40
0.2716127104071184
 40
0.307191435168135
 40
0.3440550017625767
 40
0.3820151215667328
 40
0.4208413631481724
 40
0.4602672732901842
 40
0.500000004480954
 40
0.5397327356717238
 40
0.5791586458137357
 40
0.6179848873951752
 40
0.6559450071993314
 40
0.6928085737937731
 40
0.7283872985547897
 40
0.7625375273771646
 40
0.7951594876549629
 40
0.8359928376182006
 40
0.8741415922595374
 40
0.9096504660940495
 40
0.9416198397637136
 40
0.9717470283705445
 40
1.0
 40
1.0
 40
1.0
 40
1.0
 10
1050.118461811788
 20
524.6514206271424
 30
0.0
 10
1050.222383371583
 20
525.9567792163352
 30
0.0
 10
1050.437119972688
 20
528.6540854078614
 30
0.0
 10
1050.28632339639
 20
532.8452669471228
 30
0.0
 10
1049.712570222283
 20
537.3355694181766
 30
0.0
 10
1048.57208697491
 20
542.1041986820545
 30
0.0
 10
1046.749619663043
 20
547.0970009185784
 30
0.0
 10
1044.382388834464
 20
551.7087990191118
 30
0.0
 10
1041.606850795162
 20
555.8579739875584
 30
0.0
 10
1038.567280010647
 20
559.5077386708892
 30
0.0
 10
1035.004743187005
 20
562.9403791310158
 30
0.0
 10
1030.934387785318
 20
566.0542650389923
 30
0.0
 10
1026.396707829063
 20
568.7466243708417
 30
0.0
 10
1021.458611608121
 20
570.9215839710904
 30
0.0
 10
1016.211857944206
 20
572.4984280334735
 30
0.0
 10
1010.768314825542
 20
573.4193690170483
 30
0.0
 10
1005.252463961551
 20
573.6553419380956
 30
0.0
 10
999.7921120474009
 20
573.2087792905054
 30
0.0
 10
994.5087273848666
 20
572.1128367724152
 30
0.0
 10
989.5088997382522
 20
570.4272918084563
 30
0.0
 10
984.8780811179804
 20
568.2319337545621
 30
0.0
 10
980.6773313819037
 20
565.6188145403619
 30
0.0
 10
976.942686204467
 20
562.6841603352648
 30
0.0
 10
973.361862201103
 20
559.2058704151929
 30
0.0
 10
970.0838050500596
 20
555.1898557465187
 30
0.0
 10
967.2590246527177
 20
550.6876245832923
 30
0.0
 10
965.1480386831166
 20
546.2622185674519
 30
0.0
 10
963.6493606361358
 20
541.990763396473
 30
0.0
 10
962.626864791164
 20
537.9234266286693
 30
0.0
 10
962.2736686351379
 20
535.2408915970364
 30
0.0
 10
962.1027400022693
 20
533.942683681248
 30
0.0
  0
SPLINE
  5
92
330
1F
100
AcDbEntity
  8
0
  6
Continuous
 62
     7
370
    25
100
AcDbSpline
210
0.0
220
0.0
230
1.0
 70
     8
 71
     3
 72
    35
 73
    31
 74
     0
 42
0.000000001
 43
0.00000001
 40
0.0
 40
0.0
 40
0.0
 40
0.0
 40
0.0282546077224727
 40
0.0583834426636157
 40
0.0903495399278289
 40
0.1258616479030813
 40
0.1640104750499175
 40
0.2048405213069397
 40
0.2374624815847382
 40
0.2716127104071133
 40
0.3071914351681299
 40
0.3440550017625718
 40
0.382015121566728
 40
0.4208413631481677
 40
0.4602672732901799
 40
0.5000000044809498
 40
0.5397327356717198
 40
0.5791586458137318
 40
0.6179848873951715
 40
0.6559450071993278
 40
0.6928085737937697
 40
0.7283872985547863
 40
0.7625375273771613
 40
0.7951594876549598
 40
0.8359928376182579
 40
0.8741415922594715
 40
0.9096504660940463
 40
0.9416198397647849
 40
0.9717470283710183
 40
1.0
 40
1.0
 40
1.0
 40
1.0
 10
962.1027400022693
 20
533.942683681248
 30
0.0
 10
961.9988184424698
 20
532.6373250920357
 30
0.0
 10
961.7840818413581
 20
529.9400189005178
 30
0.0
 10
961.9348784176884
 20
525.7488373612575
 30
0.0
 10
962.50863159178
 20
521.2585348901388
 30
0.0
 10
963.6491148391704
 20
516.489905626218
 30
0.0
 10
965.4715821510889
 20
511.4971033897157
 30
0.0
 10
967.8388129796074
 20
506.8853052892471
 30
0.0
 10
970.6143510188974
 20
502.7361303208319
 30
0.0
 10
973.6539218034101
 20
499.0863656375001
 30
0.0
 10
977.2164586270528
 20
495.6537251773738
 30
0.0
 10
981.2868140287401
 20
492.5398392693972
 30
0.0
 10
985.8244939849945
 20
489.8474799375479
 30
0.0
 10
990.762590205936
 20
487.6725203372993
 30
0.0
 10
996.0093438698519
 20
486.0956762749161
 30
0.0
 10
1001.452886988516
 20
485.1747352913412
 30
0.0
 10
1006.968737852506
 20
484.9387623702939
 30
0.0
 10
1012.429089766657
 20
485.3853250178841
 30
0.0
 10
1017.712474429191
 20
486.4812675359744
 30
0.0
 10
1022.712302075805
 20
488.1668124999333
 30
0.0
 10
1027.343120696077
 20
490.3621705538275
 30
0.0
 10
1031.543870432154
 20
492.9752897680278
 30
0.0
 10
1035.278515609591
 20
495.9099439731246
 30
0.0
 10
1038.859339612955
 20
499.3882338931992
 30
0.0
 10
1042.137396764002
 20
503.4042485618677
 30
0.0
 10
1044.962177161335
 20
507.9064797250999
 30
0.0
 10
1047.073163130961
 20
512.3318857409797
 30
0.0
 10
1048.57184117795
 20
516.6033409119838
 30
0.0
 10
1049.594337022895
 20
520.6706776797936
 30
0.0
 10
1049.94753317892
 20
523.3532127113763
 30
0.0
 10
1050.118461811788
 20
524.6514206271424
 30
0.0
  0
SPLINE
  5
93
330
1F
100
AcDbEntity
  8
0
  6
Continuous
 62
     7
370
    25
100
AcDbSpline
210
0.0
220
0.0
230
1.0
 70
    24
 71
     3
 72
    11
 73
     7
 74
     0
 42
0.000000001
 43
0.00000001
 40
0.0
 40
0.0
 40
0.0
 40
0.0
 40
0.2706996604071794
 40
0.5623161110113778
 40
0.7892984430189679
 40
1.0
 40
1.0
 40
1.0
 40
1.0
 10
962.1027400022695
 20
533.942683681248
 30
0.0
 10
962.6409944026151
 20
533.8858635686496
 30
0.0
 10
963.7590937777005
 20
533.7678328895734
 30
0.0
 10
965.042715511575
 20
533.6323290620048
 30
0.0
 10
965.8123306004986
 20
533.5510856648642
 30
0.0
 10
965.9247218291198
 20
533.5392212337305
 30
0.0
 10
965.9788271033995
 20
533.5335096821393
 30
0.0
  0
ARC
  5
94
330
1F
100
AcDbEntity
  8
0
  6
Continuous
 62
     7
370
    25
100
AcDbCircle
 10
1006.110600907
 20
529.2970521542
 30
0.0
 40
40.35476230894892
100
AcDbArc
 50
173.973964907
 51
353.973964907
  0
SPLINE
  5
95
330
1F
100
AcDbEntity
  8
0
  6
Continuous
 62
     7
370
    25
100
AcDbSpline
210
0.0
220
0.0
230
1.0
 70
    24
 71
     3
 72
    11
 73
     7
 74
     0
 42
0.000000001
 43
0.00000001
 40
0.0
 40
0.0
 40
0.0
 40
0.0
 40
0.2706996603325209
 40
0.5623161109123203
 40
0.78929844295909
 40
1.0
 40
1.0
 40
1.0
 40
1.0
 10
1046.242374710658
 20
525.060594626251
 30
0.0
 10
1046.326641346509
 20
525.0516991304886
 30
0.0
 10
1046.501685847464
 20
525.0332207896748
 30
0.0
 10
1047.550589500116
 20
524.9224946653547
 30
0.0
 10
1048.832474593426
 20
524.7871741639462
 30
0.0
 10
1049.700562997338
 20
524.6955355617838
 30
0.0
 10
1050.118461811788
 20
524.6514206271424
 30
0.0
  0
ARC
  5
96
330
1F
100
AcDbEntity
  8
0
  6
Continuous
 62
     7
370
    25
100
AcDbCircle
 10
1006.110600907
 20
529.2970521542
 30
0.0
 40
40.35476230894892
100
AcDbArc
 50
353.973964907
 51
173.973964907
  0
CIRCLE
  5
97
330
1F
100
AcDbEntity
  8
0
  6
Continuous
 62
     7
370
    25
100
AcDbCircle
 10
1006.110600907
 20
529.2970521542
 30
0.0
 40
39.93812333100013
  0
LINE
  5
98
330
1F
100
AcDbEntity
  8
0
  6
Continuous
 62
     7
370
    25
100
AcDbLine
 10
869.5370751852
 20
314.1942406273
 30
0.0
 11
869.6577682942
 21
314.4020731594
 31
0.0
  0
LINE
  5
99
330
1F
100
AcDbEntity
  8
0
  6
Continuous
 62
     7
370
    25
100
AcDbLine
 10
869.6577682942
 20
314.4020731594
 30
0.0
 11
870.8321473006
 21
313.7184794094
 31
0.0
  0
LINE
  5
9A
330
1F
100
AcDbEntity
  8
0
  6
Continuous
 62
     7
370
    25
100
AcDbLine
 10
870.8321473006
 20
313.7184794094
 30
0.0
 11
870.7114541916
 21
313.5106468773
 31
0.0
  0
LINE
  5
9B
330
1F
100
AcDbEntity
  8
0
  6
Continuous
 62
     7
370
    25
100
AcDbLine
 10
870.7114541916
 20
313.5106468773
 30
0.0
 11
870.2341905698
 21
313.7885915888
 31
0.0
  0
LINE
  5
9C
330
1F
100
AcDbEntity
  8
0
  6
Continuous
 62
     7
370
    25
100
AcDbLine
 10
870.2341905698
 20
313.7885915888
 30
0.0
 11
869.1088900891
 21
311.8554986401
 31
0.0
  0
LINE
  5
9D
330
1F
100
AcDbEntity
  8
0
  6
Continuous
 62
     7
370
    25
100
AcDbLine
 10
869.1088900891
 20
311.8554986401
 30
0.0
 11
868.8905407301
 21
311.9827021658
 31
0.0
  0
LINE
  5
9E
330
1F
100
AcDbEntity
  8
0
  6
Continuous
 62
     7
370
    25
100
AcDbLine
 10
868.8905407301
 20
311.9827021658
 30
0.0
 11
870.0158412108
 21
313.9157951145
 31
0.0
  0
LINE
  5
9F
330
1F
100
AcDbEntity
  8
0
  6
Continuous
 62
     7
370
    25
100
AcDbLine
 10
870.0158412108
 20
313.9157951145
 30
0.0
 11
869.5370751852
 21
314.1942406273
 31
0.0
  0
LINE
  5
A0
330
1F
100
AcDbEntity
  8
0
  6
Continuous
 62
     7
370
    25
100
AcDbLine
 10
871.5503560638
 20
312.8927423205
 30
0.0
 11
870.8246950061
 21
312.2151581859
 31
0.0
  0
LINE
  5
A1
330
1F
100
AcDbEntity
  8
0
  6
Continuous
 62
     7
370
    25
100
AcDbLine
 10
870.8246950061
 20
312.2151581859
 30
0.0
 11
871.6119546215
 21
311.9031589871
 31
0.0
  0
LINE
  5
A2
330
1F
100
AcDbEntity
  8
0
  6
Continuous
 62
     7
370
    25
100
AcDbLine
 10
871.6119546215
 20
311.9031589871
 30
0.0
 11
871.5503560638
 21
312.8927423205
 31
0.0
  0
LINE
  5
A3
330
1F
100
AcDbEntity
  8
0
  6
Continuous
 62
     7
370
    25
100
AcDbLine
 10
871.7722110318
 20
313.3700059423
 30
0.0
 11
871.9339698459
 21
310.6426421602
 31
0.0
  0
LINE
  5
A4
330
1F
100
AcDbEntity
  8
0
  6
Continuous
 62
     7
370
    25
100
AcDbLine
 10
871.9339698459
 20
310.6426421602
 30
0.0
 11
871.6870748138
 21
310.7402984102
 31
0.0
  0
LINE
  5
A5
330
1F
100
AcDbEntity
  8
0
  6
Continuous
 62
     7
370
    25
100
AcDbLine
 10
871.6870748138
 20
310.7402984102
 30
0.0
 11
871.6254762561
 21
311.6412399166
 31
0.0
  0
LINE
  5
A6
330
1F
100
AcDbEntity
  8
0
  6
Continuous
 62
     7
370
    25
100
AcDbLine
 10
871.6254762561
 20
311.6412399166
 30
0.0
 11
870.6328881151
 21
312.034368923
 31
0.0
  0
LINE
  5
A7
330
1F
100
AcDbEntity
  8
0
  6
Continuous
 62
     7
370
    25
100
AcDbLine
 10
870.6328881151
 20
312.034368923
 30
0.0
 11
869.9733328266
 21
311.4188841474
 31
0.0
  0
LINE
  5
A8
330
1F
100
AcDbEntity
  8
0
  6
Continuous
 62
     7
370
    25
100
AcDbLine
 10
869.9733328266
 20
311.4188841474
 30
0.0
 11
869.716421769
 21
311.5205468077
 31
0.0
  0
LINE
  5
A9
330
1F
100
AcDbEntity
  8
0
  6
Continuous
 62
     7
370
    25
100
AcDbLine
 10
869.716421769
 20
311.5205468077
 30
0.0
 11
871.7156204869
 21
313.3920411987
 31
0.0
  0
LINE
  5
AA
330
1F
100
AcDbEntity
  8
0
  6
Continuous
 62
     7
370
    25
100
AcDbLine
 10
871.7156204869
 20
313.3920411987
 30
0.0
 11
871.7722110318
 21
313.3700059423
 31
0.0
  0
LINE
  5
AB
330
1F
100
AcDbEntity
  8
0
  6
Continuous
 62
     7
370
    25
100
AcDbLine
 10
868.5464983429
 20
330.9671792464
 30
0.0
 11
868.2323957788
 21
330.9671792464
 31
0.0
  0
SPLINE
  5
AC
330
1F
100
AcDbEntity
  8
0
  6
Continuous
 62
     7
370
    25
100
AcDbSpline
210
0.0
220
0.0
230
1.0
 70
     8
 71
     3
 72
    11
 73
     7
 74
     0
 42
0.000000001
 43
0.00000001
 40
0.0
 40
0.0
 40
0.0
 40
0.0
 40
0.2800849611447531
 40
0.5598683320862278
 40
0.7800991540777399
 40
0.9999999999999999
 40
0.9999999999999999
 40
0.9999999999999999
 40
0.9999999999999999
 10
869.2742627660031
 20
331.8646151438674
 30
0.0
 10
869.4159711864899
 20
331.8494009206614
 30
0.0
 10
869.6992354385093
 20
331.8189888566381
 30
0.0
 10
870.0382255620862
 20
331.5941187464665
 30
0.0
 10
870.2534926134425
 20
331.2888722162149
 30
0.0
 10
870.2821702665136
 20
331.0664085941149
 30
0.0
 10
870.2964983429262
 20
330.9552601759187
 30
0.0
  0
SPLINE
  5
AD
330
1F
100
AcDbEntity
  8
0
  6
Continuous
 62
     7
370
    25
100
AcDbSpline
210
0.0
220
0.0
230
1.0
 70
     8
 71
     3
 72
    10
 73
     6
 74
     0
 42
0.000000001
 43
0.00000001
 40
0.0
 40
0.0
 40
0.0
 40
0.0
 40
0.2805082111732021
 40
0.5607923167249119
 40
0.9999999999999999
 40
0.9999999999999999
 40
0.9999999999999999
 40
0.9999999999999999
 10
870.2964983429262
 20
330.9552601759187
 30
0.0
 10
870.2908066233846
 20
330.8743929099681
 30
0.0
 10
870.2794277315709
 20
330.7127229851202
 30
0.0
 10
870.1533277292112
 20
330.4441162284426
 30
0.0
 10
869.9884143285461
 20
330.3143951989717
 30
0.0
 10
869.8877443365159
 20
330.2352080925853
 30
0.0
  0
SPLINE
  5
AE
330
1F
100
AcDbEntity
  8
0
  6
Continuous
 62
     7
370
    25
100
AcDbSpline
210
0.0
220
0.0
230
1.0
 70
     8
 71
     3
 72
     9
 73
     5
 74
     0
 42
0.000000001
 43
0.00000001
 40
0.0
 40
0.0
 40
0.0
 40
0.0
 40
0.5597945113548535
 40
1.0
 40
1.0
 40
1.0
 40
1.0
 10
869.8877443365159
 20
330.2352080925853
 30
0.0
 10
869.9692489878728
 20
330.1926670225193
 30
0.0
 10
870.1148464342639
 20
330.1166729403998
 30
0.0
 10
870.2205291264058
 20
329.9915916698102
 30
0.0
 10
870.2670512275414
 20
329.93653020797
 30
0.0
  0
SPLINE
  5
AF
330
1F
100
AcDbEntity
  8
0
  6
Continuous
 62
     7
370
    25
100
AcDbSpline
210
0.0
220
0.0
230
1.0
 70
     8
 71
     3
 72
     9
 73
     5
 74
     0
 42
0.000000001
 43
0.00000001
 40
0.0
 40
0.0
 40
0.0
 40
0.0
 40
0.5594190832925676
 40
1.0
 40
1.0
 40
1.0
 40
1.0
 10
870.2670512275414
 20
329.93653020797
 30
0.0
 10
870.3341694938025
 20
329.829403922405
 30
0.0
 10
870.4541480005526
 20
329.6379083357074
 30
0.0
 10
870.469306830999
 20
329.4135036139459
 30
0.0
 10
870.4759855224132
 20
329.3146351759186
 30
0.0
  0
SPLINE
  5
B0
330
1F
100
AcDbEntity
  8
0
  6
Continuous
 62
     7
370
    25
100
AcDbSpline
210
0.0
220
0.0
230
1.0
 70
     8
 71
     3
 72
    11
 73
     7
 74
     0
 42
0.000000001
 43
0.00000001
 40
0.0
 40
0.0
 40
0.0
 40
0.0
 40
0.2793039999354488
 40
0.5588382577771545
 40
0.7792769515121084
 40
0.9999999999999999
 40
0.9999999999999999
 40
0.9999999999999999
 40
0.9999999999999999
 10
870.4759855224133
 20
329.3146351759187
 30
0.0
 10
870.4508762623965
 20
329.1428653322315
 30
0.0
 10
870.4006370423168
 20
328.7991840379893
 30
0.0
 10
870.0720951997178
 20
328.4216463631547
 30
0.0
 10
869.6717673848244
 20
328.2165477833324
 30
0.0
 10
869.4007461464437
 20
328.1956057368255
 30
0.0
 10
869.2651481826697
 20
328.1851279643802
 30
0.0
  0
SPLINE
  5
B1
330
1F
100
AcDbEntity
  8
0
  6
Continuous
 62
     7
370
    25
100
AcDbSpline
210
0.0
220
0.0
230
1.0
 70
     8
 71
     3
 72
    11
 73
     7
 74
     0
 42
0.000000001
 43
0.00000001
 40
0.0
 40
0.0
 40
0.0
 40
0.0
 40
0.279885900584683
 40
0.5589785364560376
 40
0.7792628697075613
 40
0.9999999999999999
 40
0.9999999999999999
 40
0.9999999999999999
 40
0.9999999999999999
 10
869.2651481826697
 20
328.1851279643802
 30
0.0
 10
869.1045515054515
 20
328.1991877791381
 30
0.0
 10
868.783813321057
 20
328.2272675597192
 30
0.0
 10
868.4049400010135
 20
328.4959855518564
 30
0.0
 10
868.1849098704333
 20
328.8495759240231
 30
0.0
 10
868.1268434252363
 20
329.0945609635256
 30
0.0
 10
868.0977803942081
 20
329.2171792464314
 30
0.0
  0
LINE
  5
B2
330
1F
100
AcDbEntity
  8
0
  6
Continuous
 62
     7
370
    25
100
AcDbLine
 10
868.0977803942
 20
329.2171792464
 30
0.0
 11
868.4118829583
 21
329.2171792464
 31
0.0
  0
SPLINE
  5
B3
330
1F
100
AcDbEntity
  8
0
  6
Continuous
 62
     7
370
    25
100
AcDbSpline
210
0.0
220
0.0
230
1.0
 70
     8
 71
     3
 72
     9
 73
     5
 74
     0
 42
0.000000001
 43
0.00000001
 40
0.0
 40
0.0
 40
0.0
 40
0.0
 40
0.5606944343828941
 40
1.0
 40
1.0
 40
1.0
 40
1.0
 10
868.4118829583107
 20
329.2171792464315
 30
0.0
 10
868.4439243781293
 20
329.1154222193546
 30
0.0
 10
868.5010703347391
 20
328.9339382936424
 30
0.0
 10
868.6295706683616
 20
328.7946120168164
 30
0.0
 10
868.6860215801056
 20
328.73340520797
 30
0.0
  0
SPLINE
  5
B4
330
1F
100
AcDbEntity
  8
0
  6
Continuous
 62
     7
370
    25
100
AcDbSpline
210
0.0
220
0.0
230
1.0
 70
     8
 71
     3
 72
     9
 73
     5
 74
     0
 42
0.000000001
 43
0.00000001
 40
0.0
 40
0.0
 40
0.0
 40
0.0
 40
0.5587479503296247
 40
1.0
 40
1.0
 40
1.0
 40
1.0
 10
868.6860215801056
 20
328.73340520797
 30
0.0
 10
868.786601126807
 20
328.670498330443
 30
0.0
 10
868.9666099244088
 20
328.5579129017361
 30
0.0
 10
869.1776397943676
 20
328.548330553954
 30
0.0
 10
869.2707571570286
 20
328.5441023233545
 30
0.0
  0
SPLINE
  5
B5
330
1F
100
AcDbEntity
  8
0
  6
Continuous
 62
     7
370
    25
100
AcDbSpline
210
0.0
220
0.0
230
1.0
 70
     8
 71
     3
 72
    11
 73
     7
 74
     0
 42
0.000000001
 43
0.00000001
 40
0.0
 40
0.0
 40
0.0
 40
0.0
 40
0.2805990659720798
 40
0.5601509464763395
 40
0.7803025772768333
 40
1.0
 40
1.0
 40
1.0
 40
1.0
 10
869.2707571570286
 20
328.5441023233546
 30
0.0
 10
869.3921257697415
 20
328.5522152328061
 30
0.0
 10
869.6344100519362
 20
328.5684107746275
 30
0.0
 10
869.9276778949754
 20
328.7500190678643
 30
0.0
 10
870.126680363303
 20
328.9993656789748
 30
0.0
 10
870.1501568409332
 20
329.1895119700451
 30
0.0
 10
870.1618829583107
 20
329.2844869387392
 30
0.0
  0
LINE
  5
B6
330
1F
100
AcDbEntity
  8
0
  6
Continuous
 62
     7
370
    25
100
AcDbLine
 10
869.0849598814
 20
330.0248715541
 30
0.0
 11
869.0849598814
 21
330.3838459131
 31
0.0
  0
SPLINE
  5
B7
330
1F
100
AcDbEntity
  8
0
  6
Continuous
 62
     7
370
    25
100
AcDbSpline
210
0.0
220
0.0
230
1.0
 70
     8
 71
     3
 72
    11
 73
     7
 74
     0
 42
0.000000001
 43
0.00000001
 40
0.0
 40
0.0
 40
0.0
 40
0.0
 40
0.4994184848717901
 40
0.7490159550700064
 40
0.8745437054092435
 40
1.0
 40
1.0
 40
1.0
 40
1.0
 10
869.0849598813877
 20
330.3838459130981
 30
0.0
 10
869.2826807749639
 20
330.4021303180019
 30
0.0
 10
869.5792178644494
 20
330.4295528332205
 30
0.0
 10
869.8691076030543
 20
330.6349077536106
 30
0.0
 10
869.9683041757171
 20
330.8090827860618
 30
0.0
 10
869.9776994694089
 20
330.9074785461944
 30
0.0
 10
869.9823957788235
 20
330.9566624195085
 30
0.0
  0
SPLINE
  5
B8
330
1F
100
AcDbEntity
  8
0
  6
Continuous
 62
     7
370
    25
100
AcDbSpline
210
0.0
220
0.0
230
1.0
 70
     8
 71
     3
 72
    10
 73
     6
 74
     0
 42
0.000000001
 43
0.00000001
 40
0.0
 40
0.0
 40
0.0
 40
0.0
 40
0.278858991625922
 40
0.5600742373462592
 40
1.0
 40
1.0
 40
1.0
 40
1.0
 10
869.9823957788235
 20
330.9566624195085
 30
0.0
 10
869.964661446905
 20
331.0482727830326
 30
0.0
 10
869.9290429346019
 20
331.2322675833603
 30
0.0
 10
869.6611081982084
 20
331.4589347020402
 30
0.0
 10
869.4234504976506
 20
331.4879439481284
 30
0.0
 10
869.2784694967722
 20
331.505640784893
 30
0.0
  0
SPLINE
  5
B9
330
1F
100
AcDbEntity
  8
0
  6
Continuous
 62
     7
370
    25
100
AcDbSpline
210
0.0
220
0.0
230
1.0
 70
     8
 71
     3
 72
    10
 73
     6
 74
     0
 42
0.000000001
 43
0.00000001
 40
0.0
 40
0.0
 40
0.0
 40
0.0
 40
0.280635963148229
 40
0.5603644085668387
 40
0.9999999999999999
 40
0.9999999999999999
 40
0.9999999999999999
 40
0.9999999999999999
 10
869.2784694967722
 20
331.505640784893
 30
0.0
 10
869.1874521944522
 20
331.4984063095208
 30
0.0
 10
869.0057119206409
 20
331.4839607535494
 30
0.0
 10
868.7163753008006
 20
331.3089361045188
 30
0.0
 10
868.6109366352459
 20
331.0968155938166
 30
0.0
 10
868.546498342926
 20
330.9671792464315
 30
0.0
  0
SPLINE
  5
BA
330
1F
100
AcDbEntity
  8
0
  6
Continuous
 62
     7
370
    25
100
AcDbSpline
210
0.0
220
0.0
230
1.0
 70
     8
 71
     3
 72
    11
 73
     7
 74
     0
 42
0.000000001
 43
0.00000001
 40
0.0
 40
0.0
 40
0.0
 40
0.0
 40
0.1255870223112757
 40
0.2511906762363448
 40
0.5006049654665312
 40
1.0
 40
1.0
 40
1.0
 40
1.0
 10
870.1618829583107
 20
329.2844869387392
 30
0.0
 10
870.1567923677632
 20
329.3455171976229
 30
0.0
 10
870.146610512516
 20
329.467585797688
 30
0.0
 10
870.0375337690211
 20
329.6882986229115
 30
0.0
 10
869.71194922423
 20
329.9898502112227
 30
0.0
 10
869.3358125261806
 20
330.0108598383088
 30
0.0
 10
869.0849598813877
 20
330.0248715541238
 30
0.0
  0
SPLINE
  5
BB
330
1F
100
AcDbEntity
  8
0
  6
Continuous
 62
     7
370
    25
100
AcDbSpline
210
0.0
220
0.0
230
1.0
 70
     8
 71
     3
 72
    11
 73
     7
 74
     0
 42
0.000000001
 43
0.00000001
 40
0.0
 40
0.0
 40
0.0
 40
0.0
 40
0.2802877402650448
 40
0.559679679147516
 40
0.7797465447966404
 40
1.0
 40
1.0
 40
1.0
 40
1.0
 10
868.2323957788235
 20
330.9671792464315
 30
0.0
 10
868.2727238551131
 20
331.1017824983841
 30
0.0
 10
868.3532511189067
 20
331.3705588094484
 30
0.0
 10
868.6207113760382
 20
331.6680759198612
 30
0.0
 10
868.9443039310896
 20
331.8389192792916
 30
0.0
 10
869.1642454203275
 20
331.8560474362738
 30
0.0
 10
869.2742627660031
 20
331.8646151438674
 30
0.0
  0
LINE
  5
BC
330
1F
100
AcDbEntity
  8
0
  6
Continuous
 62
     7
370
    25
100
AcDbLine
 10
879.5849598814
 20
330.8325638618
 30
0.0
 11
879.8990624455
 21
330.8325638618
 31
0.0
  0
LINE
  5
BD
330
1F
100
AcDbEntity
  8
0
  6
Continuous
 62
     7
370
    25
100
AcDbLine
 10
879.8990624455
 20
330.8325638618
 30
0.0
 11
879.8990624455
 21
330.3880526439
 31
0.0
  0
LINE
  5
BE
330
1F
100
AcDbEntity
  8
0
  6
Continuous
 62
     7
370
    25
100
AcDbLine
 10
883.3990624455
 20
329.6602882208
 30
0.0
 11
883.3990624455
 21
328.2748715541
 31
0.0
  0
LINE
  5
BF
330
1F
100
AcDbEntity
  8
0
  6
Continuous
 62
     7
370
    25
100
AcDbLine
 10
883.3990624455
 20
328.2748715541
 30
0.0
 11
883.0849598814
 21
328.2748715541
 31
0.0
  0
SPLINE
  5
C0
330
1F
100
AcDbEntity
  8
0
  6
Continuous
 62
     7
370
    25
100
AcDbSpline
210
0.0
220
0.0
230
1.0
 70
     8
 71
     3
 72
    11
 73
     7
 74
     0
 42
0.000000001
 43
0.00000001
 40
0.0
 40
0.0
 40
0.0
 40
0.0
 40
0.1865439701482463
 40
0.3733497993475691
 40
0.5601302631262558
 40
1.0
 40
1.0
 40
1.0
 40
1.0
 10
880.7263861634389
 20
330.5633330925854
 30
0.0
 10
880.6232987123342
 20
330.5502932548305
 30
0.0
 10
880.4169791022462
 20
330.5241952747918
 30
0.0
 10
880.1574007267603
 20
330.3380701641703
 30
0.0
 10
879.9046410933771
 20
329.9557314032401
 30
0.0
 10
879.9013632729682
 20
329.6004671046011
 30
0.0
 10
879.8990624454902
 20
329.351093509252
 30
0.0
  0
LINE
  5
C1
330
1F
100
AcDbEntity
  8
0
  6
Continuous
 62
     7
370
    25
100
AcDbLine
 10
879.8990624455
 20
329.3510935093
 30
0.0
 11
879.8990624455
 21
328.2748715541
 31
0.0
  0
LINE
  5
C2
330
1F
100
AcDbEntity
  8
0
  6
Continuous
 62
     7
370
    25
100
AcDbLine
 10
879.8990624455
 20
328.2748715541
 30
0.0
 11
879.5849598814
 21
328.2748715541
 31
0.0
  0
LINE
  5
C3
330
1F
100
AcDbEntity
  8
0
  6
Continuous
 62
     7
370
    25
100
AcDbLine
 10
879.5849598814
 20
328.2748715541
 30
0.0
 11
879.5849598814
 21
330.8325638618
 31
0.0
  0
SPLINE
  5
C4
330
1F
100
AcDbEntity
  8
0
  6
Continuous
 62
     7
370
    25
100
AcDbSpline
210
0.0
220
0.0
230
1.0
 70
     8
 71
     3
 72
    11
 73
     7
 74
     0
 42
0.000000001
 43
0.00000001
 40
0.0
 40
0.0
 40
0.0
 40
0.0
 40
0.4994453881352977
 40
0.624933348004522
 40
0.7505609926737551
 40
1.0
 40
1.0
 40
1.0
 40
1.0
 10
883.0849598813877
 20
329.6616904643802
 30
0.0
 10
883.0921850476462
 20
329.8796078780182
 30
0.0
 10
883.1012255702882
 20
330.1522780480276
 30
0.0
 10
882.9130678957808
 20
330.4079480257936
 30
0.0
 10
882.7420701667506
 20
330.5339979506092
 30
0.0
 10
882.5837684669622
 20
330.5516160991761
 30
0.0
 10
882.4784895288236
 20
330.5633330925854
 30
0.0
  0
SPLINE
  5
C5
330
1F
100
AcDbEntity
  8
0
  6
Continuous
 62
     7
370
    25
100
AcDbSpline
210
0.0
220
0.0
230
1.0
 70
     8
 71
     3
 72
     9
 73
     5
 74
     0
 42
0.000000001
 43
0.00000001
 40
0.0
 40
0.0
 40
0.0
 40
0.0
 40
0.5601481652522166
 40
1.0
 40
1.0
 40
1.0
 40
1.0
 10
879.8990624454902
 20
330.3880526438674
 30
0.0
 10
879.9557601600305
 20
330.4648516622686
 30
0.0
 10
880.0569792982112
 20
330.60195649125
 30
0.0
 10
880.1936952926861
 20
330.7031972091272
 30
0.0
 10
880.2538300736953
 20
330.7477281246366
 30
0.0
  0
SPLINE
  5
C6
330
1F
100
AcDbEntity
  8
0
  6
Continuous
 62
     7
370
    25
100
AcDbSpline
210
0.0
220
0.0
230
1.0
 70
     8
 71
     3
 72
    10
 73
     6
 74
     0
 42
0.000000001
 43
0.00000001
 40
0.0
 40
0.0
 40
0.0
 40
0.0
 40
0.281263414717461
 40
0.5620938163030809
 40
1.0
 40
1.0
 40
1.0
 40
1.0
 10
881.595076067285
 20
330.2597473554059
 30
0.0
 10
881.6531619840065
 20
330.3533517381278
 30
0.0
 10
881.7692443925065
 20
330.5404163969272
 30
0.0
 10
882.0766724226754
 20
330.8032913726533
 30
0.0
 10
882.3603438989412
 20
330.8493645518184
 30
0.0
 10
882.5331770288235
 20
330.8774356566879
 30
0.0
  0
SPLINE
  5
C7
330
1F
100
AcDbEntity
  8
0
  6
Continuous
 62
     7
370
    25
100
AcDbSpline
210
0.0
220
0.0
230
1.0
 70
     8
 71
     3
 72
    11
 73
     7
 74
     0
 42
0.000000001
 43
0.00000001
 40
0.0
 40
0.0
 40
0.0
 40
0.0
 40
0.1868852632170335
 40
0.3735789994304735
 40
0.5602676092233665
 40
1.0
 40
1.0
 40
1.0
 40
1.0
 10
882.5331770288235
 20
330.8774356566879
 30
0.0
 10
882.6393119810881
 20
330.8677550432146
 30
0.0
 10
882.8514731145509
 20
330.8484037373225
 30
0.0
 10
883.1274958434841
 20
330.6708478979062
 30
0.0
 10
883.3908979400964
 20
330.2798403942751
 30
0.0
 10
883.3956950149634
 20
329.9158210181052
 30
0.0
 10
883.3990624454901
 20
329.6602882207904
 30
0.0
  0
LINE
  5
C8
330
1F
100
AcDbEntity
  8
0
  6
Continuous
 62
     7
370
    25
100
AcDbLine
 10
881.6490624455
 20
328.2748715541
 30
0.0
 11
881.3349598814
 21
328.2748715541
 31
0.0
  0
SPLINE
  5
C9
330
1F
100
AcDbEntity
  8
0
  6
Continuous
 62
     7
370
    25
100
AcDbSpline
210
0.0
220
0.0
230
1.0
 70
     8
 71
     3
 72
    12
 73
     8
 74
     0
 42
0.000000001
 43
0.00000001
 40
0.0
 40
0.0
 40
0.0
 40
0.0
 40
0.1253168236461686
 40
0.250662162110267
 40
0.3760863717850197
 40
0.5015150308073488
 40
1.0
 40
1.0
 40
1.0
 40
1.0
 10
882.4784895288236
 20
330.5633330925854
 30
0.0
 10
882.4057439314303
 20
330.5577040072599
 30
0.0
 10
882.2602361839781
 20
330.5464445557569
 30
0.0
 10
882.0603792236135
 20
330.4504796963512
 30
0.0
 10
881.8910895879238
 20
330.3113473231897
 30
0.0
 10
881.6443414719208
 20
329.9451992745952
 30
0.0
 10
881.6469657443987
 20
329.5697411619927
 30
0.0
 10
881.6490624454902
 20
329.2697633810469
 30
0.0
  0
LINE
  5
CA
330
1F
100
AcDbEntity
  8
0
  6
Continuous
 62
     7
370
    25
100
AcDbLine
 10
881.6490624455
 20
329.269763381
 30
0.0
 11
881.6490624455
 21
328.2748715541
 31
0.0
  0
SPLINE
  5
CB
330
1F
100
AcDbEntity
  8
0
  6
Continuous
 62
     7
370
    25
100
AcDbSpline
210
0.0
220
0.0
230
1.0
 70
     8
 71
     3
 72
    11
 73
     7
 74
     0
 42
0.000000001
 43
0.00000001
 40
0.0
 40
0.0
 40
0.0
 40
0.0
 40
0.5005372768658468
 40
0.6258968119147674
 40
0.7513678273463994
 40
0.9999999999999999
 40
0.9999999999999999
 40
0.9999999999999999
 40
0.9999999999999999
 10
881.3349598813877
 20
329.575452483611
 30
0.0
 10
881.3445245036005
 20
329.8052516437467
 30
0.0
 10
881.3564845849506
 20
330.0926039916282
 30
0.0
 10
881.1812241775766
 20
330.3812672618203
 30
0.0
 10
881.006542910797
 20
330.5263189293975
 30
0.0
 10
880.8382410301621
 20
330.5485548859946
 30
0.0
 10
880.7263861634389
 20
330.5633330925854
 30
0.0
  0
SPLINE
  5
CC
330
1F
100
AcDbEntity
  8
0
  6
Continuous
 62
     7
370
    25
100
AcDbSpline
210
0.0
220
0.0
230
1.0
 70
     8
 71
     3
 72
     9
 73
     5
 74
     0
 42
0.000000001
 43
0.00000001
 40
0.0
 40
0.0
 40
0.0
 40
0.0
 40
0.5597432622766901
 40
1.0
 40
1.0
 40
1.0
 40
1.0
 10
880.2538300736953
 20
330.7477281246366
 30
0.0
 10
880.3481996355065
 20
330.7892939533862
 30
0.0
 10
880.5167940039806
 20
330.8635526922598
 30
0.0
 10
880.7002888299629
 20
330.8731919212004
 30
0.0
 10
880.781073663439
 20
330.8774356566879
 30
0.0
  0
LINE
  5
CD
330
1F
100
AcDbEntity
  8
0
  6
Continuous
 62
     7
370
    25
100
AcDbLine
 10
883.0849598814
 20
328.2748715541
 30
0.0
 11
883.0849598814
 21
329.6616904644
 31
0.0
  0
SPLINE
  5
CE
330
1F
100
AcDbEntity
  8
0
  6
Continuous
 62
     7
370
    25
100
AcDbSpline
210
0.0
220
0.0
230
1.0
 70
     8
 71
     3
 72
    10
 73
     6
 74
     0
 42
0.000000001
 43
0.00000001
 40
0.0
 40
0.0
 40
0.0
 40
0.0
 40
0.280809118731994
 40
0.5615074020671229
 40
1.0
 40
1.0
 40
1.0
 40
1.0
 10
880.781073663439
 20
330.8774356566879
 30
0.0
 10
880.8832601825441
 20
330.8669372319458
 30
0.0
 10
881.0875928877214
 20
330.8459445261911
 30
0.0
 10
881.4217703329105
 20
330.6585546250494
 30
0.0
 10
881.529433529348
 20
330.4108024917037
 30
0.0
 10
881.595076067285
 20
330.2597473554059
 30
0.0
  0
LINE
  5
CF
330
1F
100
AcDbEntity
  8
0
  6
Continuous
 62
     7
370
    25
100
AcDbLine
 10
881.3349598814
 20
328.2748715541
 30
0.0
 11
881.3349598814
 21
329.5754524836
 31
0.0
  0
LINE
  5
D0
330
1F
100
AcDbEntity
  8
0
  6
Continuous
 62
     7
370
    25
100
AcDbLine
 10
880.8163504666
 20
313.7112153231
 30
0.0
 11
882.0563344409
 21
314.4098331116
 31
0.0
  0
LINE
  5
D1
330
1F
100
AcDbEntity
  8
0
  6
Continuous
 62
     7
370
    25
100
AcDbLine
 10
882.0563344409
 20
314.4098331116
 30
0.0
 11
882.1765267486
 21
314.1964917654
 31
0.0
  0
LINE
  5
D2
330
1F
100
AcDbEntity
  8
0
  6
Continuous
 62
     7
370
    25
100
AcDbLine
 10
882.1765267486
 20
314.1964917654
 30
0.0
 11
881.1528889281
 21
313.6195686885
 31
0.0
  0
LINE
  5
D3
330
1F
100
AcDbEntity
  8
0
  6
Continuous
 62
     7
370
    25
100
AcDbLine
 10
881.1528889281
 20
313.6195686885
 30
0.0
 11
881.534499505
 21
312.9429861564
 31
0.0
  0
LINE
  5
D4
330
1F
100
AcDbEntity
  8
0
  6
Continuous
 62
     7
370
    25
100
AcDbLine
 10
881.534499505
 20
312.9429861564
 30
0.0
 11
882.5491229025
 21
313.5149012205
 31
0.0
  0
LINE
  5
D5
330
1F
100
AcDbEntity
  8
0
  6
Continuous
 62
     7
370
    25
100
AcDbLine
 10
882.5491229025
 20
313.5149012205
 30
0.0
 11
882.6683136076
 21
313.3030622782
 31
0.0
  0
LINE
  5
D6
330
1F
100
AcDbEntity
  8
0
  6
Continuous
 62
     7
370
    25
100
AcDbLine
 10
881.6536902102
 20
312.7311472141
 30
0.0
 11
882.1319554345
 21
311.882289041
 31
0.0
  0
LINE
  5
D7
330
1F
100
AcDbEntity
  8
0
  6
Continuous
 62
     7
370
    25
100
AcDbLine
 10
883.2667711397
 20
312.240862759
 30
0.0
 11
882.0358015884
 21
311.5472529834
 31
0.0
  0
LINE
  5
D8
330
1F
100
AcDbEntity
  8
0
  6
Continuous
 62
     7
370
    25
100
AcDbLine
 10
883.146578832
 20
312.4542041051
 30
0.0
 11
883.2667711397
 21
312.240862759
 31
0.0
  0
LINE
  5
D9
330
1F
100
AcDbEntity
  8
0
  6
Continuous
 62
     7
370
    25
100
AcDbLine
 10
882.6683136076
 20
313.3030622782
 30
0.0
 11
881.6536902102
 21
312.7311472141
 31
0.0
  0
LINE
  5
DA
330
1F
100
AcDbEntity
  8
0
  6
Continuous
 62
     7
370
    25
100
AcDbLine
 10
882.1319554345
 20
311.882289041
 30
0.0
 11
883.146578832
 21
312.4542041051
 31
0.0
  0
LINE
  5
DB
330
1F
100
AcDbEntity
  8
0
  6
Continuous
 62
     7
370
    25
100
AcDbLine
 10
882.0358015884
 20
311.5472529834
 30
0.0
 11
880.8163504666
 21
313.7112153231
 31
0.0
  0
CIRCLE
  5
DC
330
1F
100
AcDbEntity
  8
0
  6
Continuous
 62
     7
370
    25
100
AcDbCircle
 10
875.860600907
 20
323.7784672602
 30
0.0
 40
1.0
  0
LINE
  5
DD
330
1F
100
AcDbEntity
  8
0
  6
Continuous
 62
     7
370
    25
100
AcDbLine
 10
880.7001831483
 20
311.2278549752
 30
0.0
 11
881.5755837893
 21
311.5994495265
 31
0.0
  0
LINE
  5
DE
330
1F
100
AcDbEntity
  8
0
  6
Continuous
 62
     7
370
    25
100
AcDbLine
 10
881.5755837893
 20
311.5994495265
 30
0.0
 11
881.6687328278
 21
311.3795977637
 31
0.0
  0
LINE
  5
DF
330
1F
100
AcDbEntity
  8
0
  6
Continuous
 62
     7
370
    25
100
AcDbLine
 10
881.6687328278
 20
311.3795977637
 30
0.0
 11
880.5639651996
 21
310.9108477637
 31
0.0
  0
LINE
  5
E0
330
1F
100
AcDbEntity
  8
0
  6
Continuous
 62
     7
370
    25
100
AcDbLine
 10
880.5639651996
 20
310.9108477637
 30
0.0
 11
879.5969179239
 21
313.1899943983
 31
0.0
  0
LINE
  5
E1
330
1F
100
AcDbEntity
  8
0
  6
Continuous
 62
     7
370
    25
100
AcDbLine
 10
879.5969179239
 20
313.1899943983
 30
0.0
 11
879.8262849111
 21
313.287149847
 31
0.0
  0
LINE
  5
E2
330
1F
100
AcDbEntity
  8
0
  6
Continuous
 62
     7
370
    25
100
AcDbLine
 10
879.8262849111
 20
313.287149847
 30
0.0
 11
880.7001831483
 21
311.2278549752
 31
0.0
  0
SPLINE
  5
E3
330
1F
100
AcDbEntity
  8
0
  6
Continuous
 62
     7
370
    25
100
AcDbSpline
210
0.0
220
0.0
230
1.0
 70
     8
 71
     3
 72
    11
 73
     7
 74
     0
 42
0.000000001
 43
0.00000001
 40
0.0
 40
0.0
 40
0.0
 40
0.0
 40
0.1868852632170339
 40
0.3735789994304743
 40
0.5602676092233677
 40
1.0
 40
1.0
 40
1.0
 40
1.0
 10
878.0011257467722
 20
330.8774356566879
 30
0.0
 10
878.1072606990368
 20
330.8677550432146
 30
0.0
 10
878.3194218324995
 20
330.8484037373225
 30
0.0
 10
878.5954445614328
 20
330.6708478979062
 30
0.0
 10
878.8588466580452
 20
330.2798403942751
 30
0.0
 10
878.863643732912
 20
329.9158210181052
 30
0.0
 10
878.8670111634389
 20
329.6602882207904
 30
0.0
  0
LINE
  5
E4
330
1F
100
AcDbEntity
  8
0
  6
Continuous
 62
     7
370
    25
100
AcDbLine
 10
878.8670111634
 20
329.6602882208
 30
0.0
 11
878.8670111634
 21
328.2748715541
 31
0.0
  0
LINE
  5
E5
330
1F
100
AcDbEntity
  8
0
  6
Continuous
 62
     7
370
    25
100
AcDbLine
 10
878.8670111634
 20
328.2748715541
 30
0.0
 11
878.5529085993
 21
328.2748715541
 31
0.0
  0
SPLINE
  5
E6
330
1F
100
AcDbEntity
  8
0
  6
Continuous
 62
     7
370
    25
100
AcDbSpline
210
0.0
220
0.0
230
1.0
 70
     8
 71
     3
 72
    11
 73
     7
 74
     0
 42
0.000000001
 43
0.00000001
 40
0.0
 40
0.0
 40
0.0
 40
0.0
 40
0.4994453881352977
 40
0.624933348004522
 40
0.7505609926737551
 40
1.0
 40
1.0
 40
1.0
 40
1.0
 10
878.5529085993363
 20
329.6616904643802
 30
0.0
 10
878.560133765595
 20
329.8796078780182
 30
0.0
 10
878.5691742882369
 20
330.1522780480276
 30
0.0
 10
878.3810166137296
 20
330.4079480257936
 30
0.0
 10
878.2100188846994
 20
330.5339979506092
 30
0.0
 10
878.0517171849109
 20
330.5516160991761
 30
0.0
 10
877.9464382467723
 20
330.5633330925854
 30
0.0
  0
SPLINE
  5
E7
330
1F
100
AcDbEntity
  8
0
  6
Continuous
 62
     7
370
    25
100
AcDbSpline
210
0.0
220
0.0
230
1.0
 70
     8
 71
     3
 72
    12
 73
     8
 74
     0
 42
0.000000001
 43
0.00000001
 40
0.0
 40
0.0
 40
0.0
 40
0.0
 40
0.1253168236461686
 40
0.250662162110267
 40
0.3760863717850197
 40
0.5015150308073488
 40
1.0
 40
1.0
 40
1.0
 40
1.0
 10
877.9464382467723
 20
330.5633330925854
 30
0.0
 10
877.873692649379
 20
330.5577040072599
 30
0.0
 10
877.7281849019269
 20
330.5464445557569
 30
0.0
 10
877.5283279415621
 20
330.4504796963512
 30
0.0
 10
877.3590383058726
 20
330.3113473231897
 30
0.0
 10
877.1122901898696
 20
329.9451992745952
 30
0.0
 10
877.1149144623473
 20
329.5697411619927
 30
0.0
 10
877.1170111634389
 20
329.2697633810469
 30
0.0
  0
LINE
  5
E8
330
1F
100
AcDbEntity
  8
0
  6
Continuous
 62
     7
370
    25
100
AcDbLine
 10
877.1170111634
 20
329.269763381
 30
0.0
 11
877.1170111634
 21
328.2748715541
 31
0.0
  0
LINE
  5
E9
330
1F
100
AcDbEntity
  8
0
  6
Continuous
 62
     7
370
    25
100
AcDbLine
 10
877.1170111634
 20
328.2748715541
 30
0.0
 11
876.8029085993
 21
328.2748715541
 31
0.0
  0
LINE
  5
EA
330
1F
100
AcDbEntity
  8
0
  6
Continuous
 62
     7
370
    25
100
AcDbLine
 10
876.8029085993
 20
328.2748715541
 30
0.0
 11
876.8029085993
 21
329.5754524836
 31
0.0
  0
SPLINE
  5
EB
330
1F
100
AcDbEntity
  8
0
  6
Continuous
 62
     7
370
    25
100
AcDbSpline
210
0.0
220
0.0
230
1.0
 70
     8
 71
     3
 72
    11
 73
     7
 74
     0
 42
0.000000001
 43
0.00000001
 40
0.0
 40
0.0
 40
0.0
 40
0.0
 40
0.5005372768658468
 40
0.6258968119147674
 40
0.7513678273463994
 40
0.9999999999999999
 40
0.9999999999999999
 40
0.9999999999999999
 40
0.9999999999999999
 10
876.8029085993363
 20
329.575452483611
 30
0.0
 10
876.8124732215491
 20
329.8052516437467
 30
0.0
 10
876.8244333028994
 20
330.0926039916282
 30
0.0
 10
876.6491728955252
 20
330.3812672618203
 30
0.0
 10
876.4744916287457
 20
330.5263189293975
 30
0.0
 10
876.3061897481108
 20
330.5485548859946
 30
0.0
 10
876.1943348813877
 20
330.5633330925854
 30
0.0
  0
SPLINE
  5
EC
330
1F
100
AcDbEntity
  8
0
  6
Continuous
 62
     7
370
    25
100
AcDbSpline
210
0.0
220
0.0
230
1.0
 70
     8
 71
     3
 72
    11
 73
     7
 74
     0
 42
0.000000001
 43
0.00000001
 40
0.0
 40
0.0
 40
0.0
 40
0.0
 40
0.1865439701482509
 40
0.3733497993475653
 40
0.560130263126253
 40
1.0
 40
1.0
 40
1.0
 40
1.0
 10
876.1943348813877
 20
330.5633330925854
 30
0.0
 10
876.0912474302828
 20
330.5502932548305
 30
0.0
 10
875.8849278201948
 20
330.5241952747917
 30
0.0
 10
875.6253494447091
 20
330.3380701641702
 30
0.0
 10
875.3725898113258
 20
329.9557314032401
 30
0.0
 10
875.3693119909169
 20
329.6004671046011
 30
0.0
 10
875.367011163439
 20
329.351093509252
 30
0.0
  0
LINE
  5
ED
330
1F
100
AcDbEntity
  8
0
  6
Continuous
 62
     7
370
    25
100
AcDbLine
 10
875.3670111634
 20
329.3510935093
 30
0.0
 11
875.3670111634
 21
328.2748715541
 31
0.0
  0
LINE
  5
EE
330
1F
100
AcDbEntity
  8
0
  6
Continuous
 62
     7
370
    25
100
AcDbLine
 10
875.3670111634
 20
328.2748715541
 30
0.0
 11
875.0529085993
 21
328.2748715541
 31
0.0
  0
LINE
  5
EF
330
1F
100
AcDbEntity
  8
0
  6
Continuous
 62
     7
370
    25
100
AcDbLine
 10
875.0529085993
 20
328.2748715541
 30
0.0
 11
875.0529085993
 21
330.8325638618
 31
0.0
  0
LINE
  5
F0
330
1F
100
AcDbEntity
  8
0
  6
Continuous
 62
     7
370
    25
100
AcDbLine
 10
875.0529085993
 20
330.8325638618
 30
0.0
 11
875.3670111634
 21
330.8325638618
 31
0.0
  0
LINE
  5
F1
330
1F
100
AcDbEntity
  8
0
  6
Continuous
 62
     7
370
    25
100
AcDbLine
 10
875.3670111634
 20
330.8325638618
 30
0.0
 11
875.3670111634
 21
330.3880526439
 31
0.0
  0
SPLINE
  5
F2
330
1F
100
AcDbEntity
  8
0
  6
Continuous
 62
     7
370
    25
100
AcDbSpline
210
0.0
220
0.0
230
1.0
 70
     8
 71
     3
 72
     9
 73
     5
 74
     0
 42
0.000000001
 43
0.00000001
 40
0.0
 40
0.0
 40
0.0
 40
0.0
 40
0.5601481652522012
 40
1.0
 40
1.0
 40
1.0
 40
1.0
 10
875.367011163439
 20
330.3880526438674
 30
0.0
 10
875.4237088779793
 20
330.4648516622686
 30
0.0
 10
875.5249280161598
 20
330.60195649125
 30
0.0
 10
875.6616440106349
 20
330.7031972091272
 30
0.0
 10
875.721778791644
 20
330.7477281246366
 30
0.0
  0
SPLINE
  5
F3
330
1F
100
AcDbEntity
  8
0
  6
Continuous
 62
     7
370
    25
100
AcDbSpline
210
0.0
220
0.0
230
1.0
 70
     8
 71
     3
 72
     9
 73
     5
 74
     0
 42
0.000000001
 43
0.00000001
 40
0.0
 40
0.0
 40
0.0
 40
0.0
 40
0.5597432622767217
 40
1.0
 40
1.0
 40
1.0
 40
1.0
 10
875.721778791644
 20
330.7477281246366
 30
0.0
 10
875.8161483534552
 20
330.7892939533862
 30
0.0
 10
875.9847427219294
 20
330.8635526922599
 30
0.0
 10
876.1682375479116
 20
330.8731919212004
 30
0.0
 10
876.2490223813877
 20
330.8774356566879
 30
0.0
  0
SPLINE
  5
F4
330
1F
100
AcDbEntity
  8
0
  6
Continuous
 62
     7
370
    25
100
AcDbSpline
210
0.0
220
0.0
230
1.0
 70
     8
 71
     3
 72
    10
 73
     6
 74
     0
 42
0.000000001
 43
0.00000001
 40
0.0
 40
0.0
 40
0.0
 40
0.0
 40
0.280809118731994
 40
0.5615074020671229
 40
1.0
 40
1.0
 40
1.0
 40
1.0
 10
876.2490223813877
 20
330.8774356566879
 30
0.0
 10
876.3512089004928
 20
330.8669372319458
 30
0.0
 10
876.5555416056701
 20
330.8459445261911
 30
0.0
 10
876.8897190508591
 20
330.6585546250494
 30
0.0
 10
876.9973822472967
 20
330.4108024917037
 30
0.0
 10
877.0630247852338
 20
330.2597473554059
 30
0.0
  0
SPLINE
  5
F5
330
1F
100
AcDbEntity
  8
0
  6
Continuous
 62
     7
370
    25
100
AcDbSpline
210
0.0
220
0.0
230
1.0
 70
     8
 71
     3
 72
    10
 73
     6
 74
     0
 42
0.000000001
 43
0.00000001
 40
0.0
 40
0.0
 40
0.0
 40
0.0
 40
0.2812634147174266
 40
0.5620938163030601
 40
1.0
 40
1.0
 40
1.0
 40
1.0
 10
877.0630247852338
 20
330.2597473554059
 30
0.0
 10
877.1211107019551
 20
330.3533517381278
 30
0.0
 10
877.2371931104552
 20
330.5404163969272
 30
0.0
 10
877.5446211406241
 20
330.8032913726533
 30
0.0
 10
877.8282926168899
 20
330.8493645518184
 30
0.0
 10
878.0011257467722
 20
330.8774356566879
 30
0.0
  0
LINE
  5
F6
330
1F
100
AcDbEntity
  8
0
  6
Continuous
 62
     7
370
    25
100
AcDbLine
 10
878.5529085993
 20
328.2748715541
 30
0.0
 11
878.5529085993
 21
329.6616904644
 31
0.0
  0
CIRCLE
  5
F7
330
1F
100
AcDbEntity
  8
0
  6
Continuous
 62
     7
370
    25
100
AcDbCircle
 10
875.860600907
 20
323.7784672602
 30
0.0
 40
17.37026209902422
  0
CIRCLE
  5
F8
330
1F
100
AcDbEntity
  8
0
  6
Continuous
 62
     7
370
    25
100
AcDbCircle
 10
875.860600907
 20
323.7784672602
 30
0.0
 40
15.37026209902422
  0
LINE
  5
F9
330
1F
100
AcDbEntity
  8
0
  6
Continuous
 62
     7
370
    25
100
AcDbLine
 10
872.9888060352
 20
331.7748715541
 30
0.0
 11
872.9888060352
 21
331.4158971951
 31
0.0
  0
SPLINE
  5
FA
330
1F
100
AcDbEntity
  8
0
  6
Continuous
 62
     7
370
    25
100
AcDbSpline
210
0.0
220
0.0
230
1.0
 70
     8
 71
     3
 72
    11
 73
     7
 74
     0
 42
0.000000001
 43
0.00000001
 40
0.0
 40
0.0
 40
0.0
 40
0.0
 40
0.2798641432854386
 40
0.5592709536949106
 40
0.7794235060773136
 40
1.0
 40
1.0
 40
1.0
 40
1.0
 10
873.1234214198491
 20
329.4184012015597
 30
0.0
 10
873.1029306489097
 20
329.2368231778053
 30
0.0
 10
873.0619825915036
 20
328.8739638514085
 30
0.0
 10
872.7475453487227
 20
328.4518422348792
 30
0.0
 10
872.331706363678
 20
328.2176786648477
 30
0.0
 10
872.0458393639566
 20
328.1959851536022
 30
0.0
 10
871.9027683749774
 20
328.1851279643802
 30
0.0
  0
SPLINE
  5
FB
330
1F
100
AcDbEntity
  8
0
  6
Continuous
 62
     7
370
    25
100
AcDbSpline
210
0.0
220
0.0
230
1.0
 70
     8
 71
     3
 72
    11
 73
     7
 74
     0
 42
0.000000001
 43
0.00000001
 40
0.0
 40
0.0
 40
0.0
 40
0.0
 40
0.2796245285185958
 40
0.5590191589951495
 40
0.7793803439134449
 40
1.0
 40
1.0
 40
1.0
 40
1.0
 10
871.9027683749774
 20
328.1851279643803
 30
0.0
 10
871.7527210988181
 20
328.2004773876021
 30
0.0
 10
871.4527499104091
 20
328.2311636142575
 30
0.0
 10
871.1135682059306
 20
328.4989964232068
 30
0.0
 10
870.9037578336843
 20
328.8255941691124
 30
0.0
 10
870.8579014913802
 20
329.0566912066046
 30
0.0
 10
870.8349598813876
 20
329.1723074515597
 30
0.0
  0
LINE
  5
FC
330
1F
100
AcDbEntity
  8
0
  6
Continuous
 62
     7
370
    25
100
AcDbLine
 10
870.8349598814
 20
329.1723074516
 30
0.0
 11
871.1490624455
 21
329.1723074516
 31
0.0
  0
SPLINE
  5
FD
330
1F
100
AcDbEntity
  8
0
  6
Continuous
 62
     7
370
    25
100
AcDbSpline
210
0.0
220
0.0
230
1.0
 70
     8
 71
     3
 72
    11
 73
     7
 74
     0
 42
0.000000001
 43
0.00000001
 40
0.0
 40
0.0
 40
0.0
 40
0.0
 40
0.2800501744346117
 40
0.559165713713933
 40
0.7795831368803341
 40
1.0
 40
1.0
 40
1.0
 40
1.0
 10
871.1490624454901
 20
329.1723074515597
 30
0.0
 10
871.1761383139507
 20
329.073430307234
 30
0.0
 10
871.2301996882836
 20
328.8760060096473
 30
0.0
 10
871.4440000257622
 20
328.6759501915803
 30
0.0
 10
871.682124714532
 20
328.5645121880817
 30
0.0
 10
871.8413733333779
 20
328.5509056058349
 30
0.0
 10
871.9209975416439
 20
328.5441023233546
 30
0.0
  0
SPLINE
  5
FE
330
1F
100
AcDbEntity
  8
0
  6
Continuous
 62
     7
370
    25
100
AcDbSpline
210
0.0
220
0.0
230
1.0
 70
     8
 71
     3
 72
    11
 73
     7
 74
     0
 42
0.000000001
 43
0.00000001
 40
0.0
 40
0.0
 40
0.0
 40
0.0
 40
0.2796170238097931
 40
0.5593571245928823
 40
0.7795591890944662
 40
0.9999999999999999
 40
0.9999999999999999
 40
0.9999999999999999
 40
0.9999999999999999
 10
871.9209975416439
 20
328.5441023233546
 30
0.0
 10
872.0521148210289
 20
328.5594942780627
 30
0.0
 10
872.3144070927294
 20
328.5902849624428
 30
0.0
 10
872.6067479296016
 20
328.8295461426477
 30
0.0
 10
872.7845861797052
 20
329.1222166136129
 30
0.0
 10
872.801071653047
 20
329.3285166229131
 30
0.0
 10
872.8093188557466
 20
329.4317225156623
 30
0.0
  0
LINE
  5
FF
330
1F
100
AcDbEntity
  8
0
  6
Continuous
 62
     7
370
    25
100
AcDbLine
 10
872.9888060352
 20
331.4158971951
 30
0.0
 11
871.7983012275
 21
331.4158971951
 31
0.0
  0
LINE
  5
100
330
1F
100
AcDbEntity
  8
0
  6
Continuous
 62
     7
370
    25
100
AcDbLine
 10
871.7983012275
 20
331.4158971951
 30
0.0
 11
871.6096994647
 21
330.4953242785
 31
0.0
  0
SPLINE
  5
101
330
1F
100
AcDbEntity
  8
0
  6
Continuous
 62
     7
370
    25
100
AcDbSpline
210
0.0
220
0.0
230
1.0
 70
     8
 71
     3
 72
     9
 73
     5
 74
     0
 42
0.000000001
 43
0.00000001
 40
0.0
 40
0.0
 40
0.0
 40
0.0
 40
0.5600641881631778
 40
1.0
 40
1.0
 40
1.0
 40
1.0
 10
871.609699464721
 20
330.4953242784828
 30
0.0
 10
871.6853932919645
 20
330.5161666200065
 30
0.0
 10
871.8205453492525
 20
330.5533808214573
 30
0.0
 10
871.9604222307061
 20
330.5602924289375
 30
0.0
 10
872.0219590801056
 20
330.5633330925854
 30
0.0
  0
SPLINE
  5
102
330
1F
100
AcDbEntity
  8
0
  6
Continuous
 62
     7
370
    25
100
AcDbSpline
210
0.0
220
0.0
230
1.0
 70
     8
 71
     3
 72
    11
 73
     7
 74
     0
 42
0.000000001
 43
0.00000001
 40
0.0
 40
0.0
 40
0.0
 40
0.0
 40
0.2795389690236805
 40
0.5586168329831512
 40
0.7790472620763276
 40
1.0
 40
1.0
 40
1.0
 40
1.0
 10
872.8093188557466
 20
329.4317225156623
 30
0.0
 10
872.7963712393878
 20
329.5528243102003
 30
0.0
 10
872.7704973640195
 20
329.7948281394684
 30
0.0
 10
872.5346564479178
 20
330.0575946913465
 30
0.0
 10
872.2493824568303
 20
330.1878898439481
 30
0.0
 10
872.0599810045494
 20
330.198864774678
 30
0.0
 10
871.965168214721
 20
330.204358733611
 30
0.0
  0
LINE
  5
103
330
1F
100
AcDbEntity
  8
0
  6
Continuous
 62
     7
370
    25
100
AcDbLine
 10
871.1939342404
 20
330.0248715541
 30
0.0
 11
871.5529085993
 21
331.7748715541
 31
0.0
  0
LINE
  5
104
330
1F
100
AcDbEntity
  8
0
  6
Continuous
 62
     7
370
    25
100
AcDbLine
 10
871.5529085993
 20
331.7748715541
 30
0.0
 11
872.9888060352
 21
331.7748715541
 31
0.0
  0
SPLINE
  5
105
330
1F
100
AcDbEntity
  8
0
  6
Continuous
 62
     7
370
    25
100
AcDbSpline
210
0.0
220
0.0
230
1.0
 70
     8
 71
     3
 72
    11
 73
     7
 74
     0
 42
0.000000001
 43
0.00000001
 40
0.0
 40
0.0
 40
0.0
 40
0.0
 40
0.2796881013872924
 40
0.5590254628568485
 40
0.7792915544457107
 40
1.0
 40
1.0
 40
1.0
 40
1.0
 10
872.0219590801056
 20
330.5633330925854
 30
0.0
 10
872.1893332681502
 20
330.5455769456469
 30
0.0
 10
872.5238717504017
 20
330.510086918679
 30
0.0
 10
872.8918557414988
 20
330.1950482209392
 30
0.0
 10
873.09674237524
 20
329.8118678155066
 30
0.0
 10
873.1145224597451
 20
329.5496444207637
 30
0.0
 10
873.1234214198491
 20
329.4184012015597
 30
0.0
  0
SPLINE
  5
106
330
1F
100
AcDbEntity
  8
0
  6
Continuous
 62
     7
370
    25
100
AcDbSpline
210
0.0
220
0.0
230
1.0
 70
     8
 71
     3
 72
     9
 73
     5
 74
     0
 42
0.000000001
 43
0.00000001
 40
0.0
 40
0.0
 40
0.0
 40
0.0
 40
0.5594161579528085
 40
1.0
 40
1.0
 40
1.0
 40
1.0
 10
871.965168214721
 20
330.204358733611
 30
0.0
 10
871.8169418329524
 20
330.1889947366595
 30
0.0
 10
871.5519756183347
 20
330.1615303941785
 30
0.0
 10
871.3034365416615
 20
330.0666668839364
 30
0.0
 10
871.193934240362
 20
330.0248715541238
 30
0.0
  0
LINE
  5
107
330
1F
100
AcDbEntity
  8
0
  6
Continuous
 62
     7
370
    25
100
AcDbLine
 10
872.8330307782
 20
311.8744188938
 30
0.0
 11
873.244689432
 21
311.7867786694
 31
0.0
  0
SPLINE
  5
108
330
1F
100
AcDbEntity
  8
0
  6
Continuous
 62
     7
370
    25
100
AcDbSpline
210
0.0
220
0.0
230
1.0
 70
     8
 71
     3
 72
    11
 73
     7
 74
     0
 42
0.000000001
 43
0.00000001
 40
0.0
 40
0.0
 40
0.0
 40
0.0
 40
0.4990852027492871
 40
0.6247854232084254
 40
0.7505539693395156
 40
0.9999999999999999
 40
0.9999999999999999
 40
0.9999999999999999
 40
0.9999999999999999
 10
873.2446894320422
 20
311.7867786694417
 30
0.0
 10
873.3918517043129
 20
311.7577003888275
 30
0.0
 10
873.5760784496754
 20
311.7212984162591
 30
0.0
 10
873.7740100126488
 20
311.8150666048254
 30
0.0
 10
873.8840406232788
 20
311.912182259532
 30
0.0
 10
873.9202418929091
 20
312.0161425175312
 30
0.0
 10
873.9443088230677
 20
312.0852562335443
 30
0.0
  0
LINE
  5
109
330
1F
100
AcDbEntity
  8
0
  6
Continuous
 62
     7
370
    25
100
AcDbLine
 10
873.4299859064
 20
312.6176079964
 30
0.0
 11
872.9987960026
 21
312.7037458169
 31
0.0
  0
LINE
  5
10A
330
1F
100
AcDbEntity
  8
0
  6
Continuous
 62
     7
370
    25
100
AcDbLine
 10
872.9987960026
 20
312.7037458169
 30
0.0
 11
872.8330307782
 21
311.8744188938
 31
0.0
  0
LINE
  5
10B
330
1F
100
AcDbEntity
  8
0
  6
Continuous
 62
     7
370
    25
100
AcDbLine
 10
872.8019810987
 20
312.9897033489
 30
0.0
 11
873.2877583423
 21
312.8925479002
 31
0.0
  0
SPLINE
  5
10C
330
1F
100
AcDbEntity
  8
0
  6
Continuous
 62
     7
370
    25
100
AcDbSpline
210
0.0
220
0.0
230
1.0
 70
     8
 71
     3
 72
     9
 73
     5
 74
     0
 42
0.000000001
 43
0.00000001
 40
0.0
 40
0.0
 40
0.0
 40
0.0
 40
0.560301865225413
 40
1.0
 40
1.0
 40
1.0
 40
1.0
 10
873.2877583422985
 20
312.8925479002109
 30
0.0
 10
873.3937779808476
 20
312.8720040746546
 30
0.0
 10
873.582996766522
 20
312.8353384363061
 30
0.0
 10
873.764738060129
 20
312.7714157875761
 30
0.0
 10
873.8446493679395
 20
312.7433091181597
 30
0.0
  0
SPLINE
  5
10D
330
1F
100
AcDbEntity
  8
0
  6
Continuous
 62
     7
370
    25
100
AcDbSpline
210
0.0
220
0.0
230
1.0
 70
     8
 71
     3
 72
    11
 73
     7
 74
     0
 42
0.000000001
 43
0.00000001
 40
0.0
 40
0.0
 40
0.0
 40
0.0
 40
0.2797926998321755
 40
0.5594382739304272
 40
0.7795788446031116
 40
1.0
 40
1.0
 40
1.0
 40
1.0
 10
873.8446493679395
 20
312.7433091181597
 30
0.0
 10
873.9139670921691
 20
312.7022358257066
 30
0.0
 10
874.0525660907098
 20
312.6201108387128
 30
0.0
 10
874.1764618970797
 20
312.4262208811098
 30
0.0
 10
874.2231060159404
 20
312.2224292820478
 30
0.0
 10
874.2055141860864
 20
312.0972865303377
 30
0.0
 10
874.1967126692216
 20
312.0346753040571
 30
0.0
  0
SPLINE
  5
10E
330
1F
100
AcDbEntity
  8
0
  6
Continuous
 62
     7
370
    25
100
AcDbSpline
210
0.0
220
0.0
230
1.0
 70
     8
 71
     3
 72
    11
 73
     7
 74
     0
 42
0.000000001
 43
0.00000001
 40
0.0
 40
0.0
 40
0.0
 40
0.0
 40
0.2495279978551752
 40
0.3753778677299383
 40
0.5010697867246079
 40
1.0
 40
1.0
 40
1.0
 40
1.0
 10
873.9443088230677
 20
312.0852562335443
 30
0.0
 10
873.9482169470493
 20
312.1563558148838
 30
0.0
 10
873.9540961400041
 20
312.2633145909295
 30
0.0
 10
873.8930453891156
 20
312.392187316772
 30
0.0
 10
873.7547231765416
 20
312.5547727128878
 30
0.0
 10
873.5741903451992
 20
312.58970504951
 30
0.0
 10
873.429985906401
 20
312.6176079963648
 30
0.0
  0
SPLINE
  5
10F
330
1F
100
AcDbEntity
  8
0
  6
Continuous
 62
     7
370
    25
100
AcDbSpline
210
0.0
220
0.0
230
1.0
 70
     8
 71
     3
 72
    11
 73
     7
 74
     0
 42
0.000000001
 43
0.00000001
 40
0.0
 40
0.0
 40
0.0
 40
0.0
 40
0.2801196586260997
 40
0.5592799232203884
 40
0.7794314120206077
 40
1.0
 40
1.0
 40
1.0
 40
1.0
 10
874.1967126692216
 20
312.0346753040571
 30
0.0
 10
874.1748852348379
 20
311.9556460399897
 30
0.0
 10
874.1313051238022
 20
311.7978581826271
 30
0.0
 10
873.9696191649531
 20
311.6279174784914
 30
0.0
 10
873.7786701168816
 20
311.5358161790773
 30
0.0
 10
873.6510886261422
 20
311.5228401379736
 30
0.0
 10
873.5872375089651
 20
311.516345977134
 30
0.0
  0
SPLINE
  5
110
330
1F
100
AcDbEntity
  8
0
  6
Continuous
 62
     7
370
    25
100
AcDbSpline
210
0.0
220
0.0
230
1.0
 70
     8
 71
     3
 72
     9
 73
     5
 74
     0
 42
0.000000001
 43
0.00000001
 40
0.0
 40
0.0
 40
0.0
 40
0.0
 40
0.5597062821770297
 40
1.0
 40
1.0
 40
1.0
 40
1.0
 10
873.5872375089651
 20
311.5163459771341
 30
0.0
 10
873.4690703142818
 20
311.524981917629
 30
0.0
 10
873.2579467331354
 20
311.5404113326096
 30
0.0
 10
873.0505487363475
 20
311.5824652973263
 30
0.0
 10
872.9592327012729
 20
311.6009813938007
 30
0.0
  0
LINE
  5
111
330
1F
100
AcDbEntity
  8
0
  6
Continuous
 62
     7
370
    25
100
AcDbLine
 10
872.9592327013
 20
311.6009813938
 30
0.0
 11
872.7854546564
 21
311.6355366823
 31
0.0
  0
LINE
  5
112
330
1F
100
AcDbEntity
  8
0
  6
Continuous
 62
     7
370
    25
100
AcDbLine
 10
872.7854546564
 20
311.6355366823
 30
0.0
 11
872.5585916756
 21
310.5007209771
 31
0.0
  0
LINE
  5
113
330
1F
100
AcDbEntity
  8
0
  6
Continuous
 62
     7
370
    25
100
AcDbLine
 10
872.5585916756
 20
310.5007209771
 30
0.0
 11
872.3147014513
 21
310.5492987015
 31
0.0
  0
LINE
  5
114
330
1F
100
AcDbEntity
  8
0
  6
Continuous
 62
     7
370
    25
100
AcDbLine
 10
872.3147014513
 20
310.5492987015
 30
0.0
 11
872.8019810987
 21
312.9897033489
 31
0.0
  0
LINE
  5
115
330
1F
100
AcDbEntity
  8
0
  6
Continuous
 62
     7
370
    25
100
AcDbLine
 10
875.184976229
 20
312.5857943588
 30
0.0
 11
875.43537687
 21
312.5953095831
 31
0.0
  0
LINE
  5
116
330
1F
100
AcDbEntity
  8
0
  6
Continuous
 62
     7
370
    25
100
AcDbLine
 10
876.9497999469
 20
312.6539033331
 30
0.0
 11
877.0454529918
 21
310.1674249677
 31
0.0
  0
LINE
  5
117
330
1F
100
AcDbEntity
  8
0
  6
Continuous
 62
     7
370
    25
100
AcDbLine
 10
877.0454529918
 20
310.1674249677
 30
0.0
 11
876.7950523508
 21
310.1574089421
 31
0.0
  0
LINE
  5
118
330
1F
100
AcDbEntity
  8
0
  6
Continuous
 62
     7
370
    25
100
AcDbLine
 10
876.7950523508
 20
310.1574089421
 30
0.0
 11
876.7489786328
 21
311.3573288139
 31
0.0
  0
LINE
  5
119
330
1F
100
AcDbEntity
  8
0
  6
Continuous
 62
     7
370
    25
100
AcDbLine
 10
875.4849561969
 20
311.3087510895
 30
0.0
 11
875.5310299149
 21
310.1088312177
 31
0.0
  0
LINE
  5
11A
330
1F
100
AcDbEntity
  8
0
  6
Continuous
 62
     7
370
    25
100
AcDbLine
 10
876.6993993059
 20
312.6438873075
 30
0.0
 11
876.9497999469
 21
312.6539033331
 31
0.0
  0
LINE
  5
11B
330
1F
100
AcDbEntity
  8
0
  6
Continuous
 62
     7
370
    25
100
AcDbLine
 10
876.7489786328
 20
311.3573288139
 30
0.0
 11
875.4849561969
 21
311.3087510895
 31
0.0
  0
LINE
  5
11C
330
1F
100
AcDbEntity
  8
0
  6
Continuous
 62
     7
370
    25
100
AcDbLine
 10
875.5310299149
 20
310.1088312177
 30
0.0
 11
875.2806292738
 21
310.0993159934
 31
0.0
  0
LINE
  5
11D
330
1F
100
AcDbEntity
  8
0
  6
Continuous
 62
     7
370
    25
100
AcDbLine
 10
875.2806292738
 20
310.0993159934
 30
0.0
 11
875.184976229
 21
312.5857943588
 31
0.0
  0
LINE
  5
11E
330
1F
100
AcDbEntity
  8
0
  6
Continuous
 62
     7
370
    25
100
AcDbLine
 10
875.43537687
 20
312.5953095831
 30
0.0
 11
875.4754409725
 21
311.5521405126
 31
0.0
  0
LINE
  5
11F
330
1F
100
AcDbEntity
  8
0
  6
Continuous
 62
     7
370
    25
100
AcDbLine
 10
876.7394634084
 20
311.600718237
 30
0.0
 11
876.6993993059
 21
312.6438873075
 31
0.0
  0
LINE
  5
120
330
1F
100
AcDbEntity
  8
0
  6
Continuous
 62
     7
370
    25
100
AcDbLine
 10
875.4754409725
 20
311.5521405126
 30
0.0
 11
876.7394634084
 21
311.600718237
 31
0.0
  0
SPLINE
  5
121
330
1F
100
AcDbEntity
  8
0
  6
Continuous
 62
     7
370
    25
100
AcDbSpline
210
0.0
220
0.0
230
1.0
 70
     8
 71
     3
 72
    11
 73
     7
 74
     0
 42
0.000000001
 43
0.00000001
 40
0.0
 40
0.0
 40
0.0
 40
0.0
 40
0.2795853946967604
 40
0.5593117102135101
 40
0.779570459576127
 40
1.0
 40
1.0
 40
1.0
 40
1.0
 10
879.8565274175564
 20
311.9434147431555
 30
0.0
 10
879.8746952938811
 20
311.7495351716324
 30
0.0
 10
879.9110402037758
 20
311.3616783064998
 30
0.0
 10
879.651012693117
 20
310.8689705757512
 30
0.0
 10
879.2839429692596
 20
310.5233602612348
 30
0.0
 10
878.9919589966453
 20
310.4350853367461
 30
0.0
 10
878.845910430377
 20
310.3909307687964
 30
0.0
  0
SPLINE
  5
122
330
1F
100
AcDbEntity
  8
0
  6
Continuous
 62
     7
370
    25
100
AcDbSpline
210
0.0
220
0.0
230
1.0
 70
     8
 71
     3
 72
    11
 73
     7
 74
     0
 42
0.000000001
 43
0.00000001
 40
0.0
 40
0.0
 40
0.0
 40
0.0
 40
0.2794307182324189
 40
0.559095419712079
 40
0.7794760642147381
 40
1.0
 40
1.0
 40
1.0
 40
1.0
 10
878.3481139560181
 20
312.7136471149503
 30
0.0
 10
878.2001337875662
 20
312.6603525490813
 30
0.0
 10
877.9040495384438
 20
312.5537187907694
 30
0.0
 10
877.6222425527255
 20
312.2007907281665
 30
0.0
 10
877.4977765414012
 20
311.8115263302627
 30
0.0
 10
877.527805923665
 20
311.5666125518794
 30
0.0
 10
877.5428254944795
 20
311.4441158649502
 30
0.0
  0
SPLINE
  5
123
330
1F
100
AcDbEntity
  8
0
  6
Continuous
 62
     7
370
    25
100
AcDbSpline
210
0.0
220
0.0
230
1.0
 70
     8
 71
     3
 72
    11
 73
     7
 74
     0
 42
0.000000001
 43
0.00000001
 40
0.0
 40
0.0
 40
0.0
 40
0.0
 40
0.2796889082015323
 40
0.5591090126616102
 40
0.7796641885216679
 40
1.0
 40
1.0
 40
1.0
 40
1.0
 10
879.6046243726847
 20
311.890329807258
 30
0.0
 10
879.5548582521106
 20
312.0399502410528
 30
0.0
 10
879.4553738402435
 20
312.3390473112619
 30
0.0
 10
879.1022309742598
 20
312.6214016390386
 30
0.0
 10
878.7160917587757
 20
312.7521560227134
 30
0.0
 10
878.4707325309483
 20
312.7264791590482
 30
0.0
 10
878.3481139560181
 20
312.7136471149503
 30
0.0
  0
SPLINE
  5
124
330
1F
100
AcDbEntity
  8
0
  6
Continuous
 62
     7
370
    25
100
AcDbSpline
210
0.0
220
0.0
230
1.0
 70
     8
 71
     3
 72
    11
 73
     7
 74
     0
 42
0.000000001
 43
0.00000001
 40
0.0
 40
0.0
 40
0.0
 40
0.0
 40
0.2797502484930197
 40
0.5593369297581224
 40
0.779567192358966
 40
1.0
 40
1.0
 40
1.0
 40
1.0
 10
878.2860145970437
 20
312.9500253200786
 30
0.0
 10
878.4814626863443
 20
312.9701592652261
 30
0.0
 10
878.8722445883637
 20
313.0104153834009
 30
0.0
 10
879.3740949220777
 20
312.7563273685223
 30
0.0
 10
879.7234321098119
 20
312.3855734743171
 30
0.0
 10
879.8121487224964
 20
312.0908461427356
 30
0.0
 10
879.8565274175564
 20
311.9434147431554
 30
0.0
  0
SPLINE
  5
125
330
1F
100
AcDbEntity
  8
0
  6
Continuous
 62
     7
370
    25
100
AcDbSpline
210
0.0
220
0.0
230
1.0
 70
     8
 71
     3
 72
    11
 73
     7
 74
     0
 42
0.000000001
 43
0.00000001
 40
0.0
 40
0.0
 40
0.0
 40
0.0
 40
0.2797089870275234
 40
0.5593166732041047
 40
0.7796787964274654
 40
1.0
 40
1.0
 40
1.0
 40
1.0
 10
877.2889192444795
 20
311.3905301277708
 30
0.0
 10
877.272076510792
 20
311.583592864779
 30
0.0
 10
877.2383971432682
 20
311.9696484181977
 30
0.0
 10
877.4823444741511
 20
312.4691030907093
 30
0.0
 10
877.8515709490505
 20
312.8119840120883
 30
0.0
 10
878.1412090124936
 20
312.9040143992423
 30
0.0
 10
878.2860145970437
 20
312.9500253200786
 30
0.0
  0
SPLINE
  5
126
330
1F
100
AcDbEntity
  8
0
  6
Continuous
 62
     7
370
    25
100
AcDbSpline
210
0.0
220
0.0
230
1.0
 70
     8
 71
     3
 72
    11
 73
     7
 74
     0
 42
0.000000001
 43
0.00000001
 40
0.0
 40
0.0
 40
0.0
 40
0.0
 40
0.2796754780685956
 40
0.5593363591827404
 40
0.779617121239063
 40
1.0
 40
1.0
 40
1.0
 40
1.0
 10
878.845910430377
 20
310.3909307687964
 30
0.0
 10
878.6522746838822
 20
310.3719192091807
 30
0.0
 10
878.2650132972208
 20
310.3338970822094
 30
0.0
 10
877.7713979163497
 20
310.5898609453282
 30
0.0
 10
877.4219230653581
 20
310.952950316321
 30
0.0
 10
877.3332607001311
 20
311.2446476585666
 30
0.0
 10
877.2889192444795
 20
311.3905301277708
 30
0.0
  0
SPLINE
  5
127
330
1F
100
AcDbEntity
  8
0
  6
Continuous
 62
     7
370
    25
100
AcDbSpline
210
0.0
220
0.0
230
1.0
 70
     8
 71
     3
 72
    11
 73
     7
 74
     0
 42
0.000000001
 43
0.00000001
 40
0.0
 40
0.0
 40
0.0
 40
0.0
 40
0.2796599066902246
 40
0.55916112318071
 40
0.779496907561735
 40
0.9999999999999999
 40
0.9999999999999999
 40
0.9999999999999999
 40
0.9999999999999999
 10
878.787316680377
 20
310.6268081726426
 30
0.0
 10
878.9369240020735
 20
310.677700973239
 30
0.0
 10
879.2360537522973
 20
310.7794576958244
 30
0.0
 10
879.5240925869414
 20
311.1306755021959
 30
0.0
 10
879.648779345897
 20
311.5215711986035
 30
0.0
 10
879.6193464205697
 20
311.7673791745273
 30
0.0
 10
879.6046243726847
 20
311.890329807258
 30
0.0
  0
SPLINE
  5
128
330
1F
100
AcDbEntity
  8
0
  6
Continuous
 62
     7
370
    25
100
AcDbSpline
210
0.0
220
0.0
230
1.0
 70
     8
 71
     3
 72
    11
 73
     7
 74
     0
 42
0.000000001
 43
0.00000001
 40
0.0
 40
0.0
 40
0.0
 40
0.0
 40
0.2796613318902433
 40
0.5593708389412733
 40
0.7796493272858918
 40
0.9999999999999999
 40
0.9999999999999999
 40
0.9999999999999999
 40
0.9999999999999999
 10
877.5428254944796
 20
311.4441158649503
 30
0.0
 10
877.591960906122
 20
311.2954589112841
 30
0.0
 10
877.6902401935959
 20
310.9981193959328
 30
0.0
 10
878.0408309336196
 20
310.7196905932068
 30
0.0
 10
878.4221875029792
 20
310.5828968705864
 30
0.0
 10
878.6655936628865
 20
310.6121694734668
 30
0.0
 10
878.787316680377
 20
310.6268081726426
 30
0.0
  0
CIRCLE
  5
129
330
1F
100
AcDbEntity
  8
0
  6
Continuous
 62
     7
370
    25
100
AcDbCircle
 10
875.860600907
 20
323.7784672602
 30
0.0
 40
17.49999999999994
  0
LINE
  5
12A
330
1F
100
AcDbEntity
  8
0
  6
Continuous
 62
     7
370
    25
100
AcDbLine
 10
879.7425191207
 20
724.3057347411
 30
0.0
 11
880.6164173579
 21
722.2464398693
 31
0.0
  0
LINE
  5
12B
330
1F
100
AcDbEntity
  8
0
  6
Continuous
 62
     7
370
    25
100
AcDbLine
 10
880.6164173579
 20
722.2464398693
 30
0.0
 11
881.491817999
 21
722.6180344206
 31
0.0
  0
LINE
  5
12C
330
1F
100
AcDbEntity
  8
0
  6
Continuous
 62
     7
370
    25
100
AcDbLine
 10
881.491817999
 20
722.6180344206
 30
0.0
 11
881.5849670374
 21
722.3981826577
 31
0.0
  0
LINE
  5
12D
330
1F
100
AcDbEntity
  8
0
  6
Continuous
 62
     7
370
    25
100
AcDbLine
 10
881.5849670374
 20
722.3981826577
 30
0.0
 11
880.4801994092
 21
721.9294326577
 31
0.0
  0
LINE
  5
12E
330
1F
100
AcDbEntity
  8
0
  6
Continuous
 62
     7
370
    25
100
AcDbLine
 10
880.4801994092
 20
721.9294326577
 30
0.0
 11
879.5131521336
 21
724.2085792924
 31
0.0
  0
LINE
  5
12F
330
1F
100
AcDbEntity
  8
0
  6
Continuous
 62
     7
370
    25
100
AcDbLine
 10
879.5131521336
 20
724.2085792924
 30
0.0
 11
879.7425191207
 21
724.3057347411
 31
0.0
  0
LINE
  5
130
330
1F
100
AcDbEntity
  8
0
  6
Continuous
 62
     7
370
    25
100
AcDbLine
 10
882.5845478172
 20
724.3216471723
 30
0.0
 11
881.5699244198
 21
723.7497321082
 31
0.0
  0
LINE
  5
131
330
1F
100
AcDbEntity
  8
0
  6
Continuous
 62
     7
370
    25
100
AcDbLine
 10
881.5699244198
 20
723.7497321082
 30
0.0
 11
882.0481896442
 21
722.9008739351
 31
0.0
  0
LINE
  5
132
330
1F
100
AcDbEntity
  8
0
  6
Continuous
 62
     7
370
    25
100
AcDbLine
 10
882.0481896442
 20
722.9008739351
 30
0.0
 11
883.0628130416
 21
723.4727889992
 31
0.0
  0
LINE
  5
133
330
1F
100
AcDbEntity
  8
0
  6
Continuous
 62
     7
370
    25
100
AcDbLine
 10
880.7325846762
 20
724.7298002171
 30
0.0
 11
881.9725686506
 21
725.4284180056
 31
0.0
  0
LINE
  5
134
330
1F
100
AcDbEntity
  8
0
  6
Continuous
 62
     7
370
    25
100
AcDbLine
 10
881.9725686506
 20
725.4284180056
 30
0.0
 11
882.0927609583
 21
725.2150766594
 31
0.0
  0
LINE
  5
135
330
1F
100
AcDbEntity
  8
0
  6
Continuous
 62
     7
370
    25
100
AcDbLine
 10
881.0691231377
 20
724.6381535825
 30
0.0
 11
881.4507337147
 21
723.9615710505
 31
0.0
  0
LINE
  5
136
330
1F
100
AcDbEntity
  8
0
  6
Continuous
 62
     7
370
    25
100
AcDbLine
 10
881.4507337147
 20
723.9615710505
 30
0.0
 11
882.4653571121
 21
724.5334861146
 31
0.0
  0
LINE
  5
137
330
1F
100
AcDbEntity
  8
0
  6
Continuous
 62
     7
370
    25
100
AcDbLine
 10
882.4653571121
 20
724.5334861146
 30
0.0
 11
882.5845478172
 21
724.3216471723
 31
0.0
  0
LINE
  5
138
330
1F
100
AcDbEntity
  8
0
  6
Continuous
 62
     7
370
    25
100
AcDbLine
 10
883.0628130416
 20
723.4727889992
 30
0.0
 11
883.1830053493
 21
723.259447653
 31
0.0
  0
LINE
  5
139
330
1F
100
AcDbEntity
  8
0
  6
Continuous
 62
     7
370
    25
100
AcDbLine
 10
883.1830053493
 20
723.259447653
 30
0.0
 11
881.952035798
 21
722.5658378774
 31
0.0
  0
LINE
  5
13A
330
1F
100
AcDbEntity
  8
0
  6
Continuous
 62
     7
370
    25
100
AcDbLine
 10
881.952035798
 20
722.5658378774
 30
0.0
 11
880.7325846762
 21
724.7298002171
 31
0.0
  0
LINE
  5
13B
330
1F
100
AcDbEntity
  8
0
  6
Continuous
 62
     7
370
    25
100
AcDbLine
 10
882.0927609583
 20
725.2150766594
 30
0.0
 11
881.0691231377
 21
724.6381535825
 31
0.0
  0
SPLINE
  5
13C
330
1F
100
AcDbEntity
  8
0
  6
Continuous
 62
     7
370
    25
100
AcDbSpline
210
0.0
220
0.0
230
1.0
 70
     8
 71
     3
 72
     9
 73
     5
 74
     0
 42
0.000000001
 43
0.00000001
 40
0.0
 40
0.0
 40
0.0
 40
0.0
 40
0.5594161579528085
 40
1.0
 40
1.0
 40
1.0
 40
1.0
 10
871.881402424344
 20
741.2229436276426
 30
0.0
 10
871.7331760425752
 20
741.2075796306912
 30
0.0
 10
871.4682098279577
 20
741.1801152882102
 30
0.0
 10
871.2196707512845
 20
741.085251777968
 30
0.0
 10
871.1101684499849
 20
741.0434564481554
 30
0.0
  0
LINE
  5
13D
330
1F
100
AcDbEntity
  8
0
  6
Continuous
 62
     7
370
    25
100
AcDbLine
 10
871.11016845
 20
741.0434564482
 30
0.0
 11
871.469142809
 21
742.7934564482
 31
0.0
  0
LINE
  5
13E
330
1F
100
AcDbEntity
  8
0
  6
Continuous
 62
     7
370
    25
100
AcDbLine
 10
871.469142809
 20
742.7934564482
 30
0.0
 11
872.9050402449
 21
742.7934564482
 31
0.0
  0
LINE
  5
13F
330
1F
100
AcDbEntity
  8
0
  6
Continuous
 62
     7
370
    25
100
AcDbLine
 10
872.9050402449
 20
742.7934564482
 30
0.0
 11
872.9050402449
 21
742.4344820892
 31
0.0
  0
LINE
  5
140
330
1F
100
AcDbEntity
  8
0
  6
Continuous
 62
     7
370
    25
100
AcDbLine
 10
872.9050402449
 20
742.4344820892
 30
0.0
 11
871.7145354372
 21
742.4344820892
 31
0.0
  0
LINE
  5
141
330
1F
100
AcDbEntity
  8
0
  6
Continuous
 62
     7
370
    25
100
AcDbLine
 10
871.7145354372
 20
742.4344820892
 30
0.0
 11
871.5259336743
 21
741.5139091725
 31
0.0
  0
SPLINE
  5
142
330
1F
100
AcDbEntity
  8
0
  6
Continuous
 62
     7
370
    25
100
AcDbSpline
210
0.0
220
0.0
230
1.0
 70
     8
 71
     3
 72
    11
 73
     7
 74
     0
 42
0.000000001
 43
0.00000001
 40
0.0
 40
0.0
 40
0.0
 40
0.0
 40
0.2796170238097931
 40
0.5593571245928823
 40
0.7795591890944662
 40
0.9999999999999999
 40
0.9999999999999999
 40
0.9999999999999999
 40
0.9999999999999999
 10
871.837231751267
 20
739.5626872173862
 30
0.0
 10
871.9683490306519
 20
739.5780791720944
 30
0.0
 10
872.2306413023524
 20
739.6088698564745
 30
0.0
 10
872.5229821392246
 20
739.8481310366793
 30
0.0
 10
872.7008203893282
 20
740.1408015076446
 30
0.0
 10
872.71730586267
 20
740.3471015169448
 30
0.0
 10
872.7255530653696
 20
740.450307409694
 30
0.0
  0
SPLINE
  5
143
330
1F
100
AcDbEntity
  8
0
  6
Continuous
 62
     7
370
    25
100
AcDbSpline
210
0.0
220
0.0
230
1.0
 70
     8
 71
     3
 72
    11
 73
     7
 74
     0
 42
0.000000001
 43
0.00000001
 40
0.0
 40
0.0
 40
0.0
 40
0.0
 40
0.2795389690236805
 40
0.5586168329831512
 40
0.7790472620763276
 40
1.0
 40
1.0
 40
1.0
 40
1.0
 10
872.7255530653696
 20
740.450307409694
 30
0.0
 10
872.7126054490107
 20
740.5714092042319
 30
0.0
 10
872.6867315736426
 20
740.8134130335
 30
0.0
 10
872.4508906575408
 20
741.0761795853782
 30
0.0
 10
872.1656166664533
 20
741.2064747379796
 30
0.0
 10
871.9762152141724
 20
741.2174496687096
 30
0.0
 10
871.881402424344
 20
741.2229436276426
 30
0.0
  0
SPLINE
  5
144
330
1F
100
AcDbEntity
  8
0
  6
Continuous
 62
     7
370
    25
100
AcDbSpline
210
0.0
220
0.0
230
1.0
 70
     8
 71
     3
 72
    11
 73
     7
 74
     0
 42
0.000000001
 43
0.00000001
 40
0.0
 40
0.0
 40
0.0
 40
0.0
 40
0.2796881013872924
 40
0.5590254628568485
 40
0.7792915544457107
 40
1.0
 40
1.0
 40
1.0
 40
1.0
 10
871.9381932897286
 20
741.581917986617
 30
0.0
 10
872.1055674777731
 20
741.5641618396786
 30
0.0
 10
872.4401059600247
 20
741.5286718127107
 30
0.0
 10
872.8080899511217
 20
741.2136331149705
 30
0.0
 10
873.0129765848628
 20
740.8304527095382
 30
0.0
 10
873.030756669368
 20
740.5682293147954
 30
0.0
 10
873.0396556294721
 20
740.4369860955914
 30
0.0
  0
SPLINE
  5
145
330
1F
100
AcDbEntity
  8
0
  6
Continuous
 62
     7
370
    25
100
AcDbSpline
210
0.0
220
0.0
230
1.0
 70
     8
 71
     3
 72
     9
 73
     5
 74
     0
 42
0.000000001
 43
0.00000001
 40
0.0
 40
0.0
 40
0.0
 40
0.0
 40
0.5600641881631778
 40
1.0
 40
1.0
 40
1.0
 40
1.0
 10
871.525933674344
 20
741.5139091725144
 30
0.0
 10
871.6016275015875
 20
741.5347515140381
 30
0.0
 10
871.7367795588752
 20
741.5719657154889
 30
0.0
 10
871.876656440329
 20
741.5788773229691
 30
0.0
 10
871.9381932897286
 20
741.581917986617
 30
0.0
  0
SPLINE
  5
146
330
1F
100
AcDbEntity
  8
0
  6
Continuous
 62
     7
370
    25
100
AcDbSpline
210
0.0
220
0.0
230
1.0
 70
     8
 71
     3
 72
    11
 73
     7
 74
     0
 42
0.000000001
 43
0.00000001
 40
0.0
 40
0.0
 40
0.0
 40
0.0
 40
0.2798641432854386
 40
0.5592709536949106
 40
0.7794235060773136
 40
1.0
 40
1.0
 40
1.0
 40
1.0
 10
873.039655629472
 20
740.4369860955914
 30
0.0
 10
873.0191648585328
 20
740.255408071837
 30
0.0
 10
872.9782168011267
 20
739.8925487454402
 30
0.0
 10
872.6637795583456
 20
739.4704271289108
 30
0.0
 10
872.247940573301
 20
739.2362635588793
 30
0.0
 10
871.9620735735796
 20
739.2145700476339
 30
0.0
 10
871.8190025846003
 20
739.2037128584119
 30
0.0
  0
SPLINE
  5
147
330
1F
100
AcDbEntity
  8
0
  6
Continuous
 62
     7
370
    25
100
AcDbSpline
210
0.0
220
0.0
230
1.0
 70
     8
 71
     3
 72
    11
 73
     7
 74
     0
 42
0.000000001
 43
0.00000001
 40
0.0
 40
0.0
 40
0.0
 40
0.0
 40
0.2796245285185958
 40
0.5590191589951495
 40
0.7793803439134449
 40
1.0
 40
1.0
 40
1.0
 40
1.0
 10
871.8190025846003
 20
739.2037128584119
 30
0.0
 10
871.6689553084411
 20
739.2190622816337
 30
0.0
 10
871.3689841200321
 20
739.2497485082891
 30
0.0
 10
871.0298024155536
 20
739.5175813172385
 30
0.0
 10
870.819992043307
 20
739.844179063144
 30
0.0
 10
870.7741357010032
 20
740.0752761006362
 30
0.0
 10
870.7511940910107
 20
740.1908923455914
 30
0.0
  0
SPLINE
  5
148
330
1F
100
AcDbEntity
  8
0
  6
Continuous
 62
     7
370
    25
100
AcDbSpline
210
0.0
220
0.0
230
1.0
 70
     8
 71
     3
 72
    11
 73
     7
 74
     0
 42
0.000000001
 43
0.00000001
 40
0.0
 40
0.0
 40
0.0
 40
0.0
 40
0.2800501744346117
 40
0.559165713713933
 40
0.7795831368803341
 40
1.0
 40
1.0
 40
1.0
 40
1.0
 10
871.0652966551131
 20
740.1908923455914
 30
0.0
 10
871.0923725235737
 20
740.0920152012658
 30
0.0
 10
871.1464338979066
 20
739.894590903679
 30
0.0
 10
871.3602342353851
 20
739.6945350856118
 30
0.0
 10
871.5983589241549
 20
739.5830970821136
 30
0.0
 10
871.7576075430007
 20
739.5694904998666
 30
0.0
 10
871.837231751267
 20
739.5626872173862
 30
0.0
  0
LINE
  5
149
330
1F
100
AcDbEntity
  8
0
  6
Continuous
 62
     7
370
    25
100
AcDbLine
 10
870.751194091
 20
740.1908923456
 30
0.0
 11
871.0652966551
 21
740.1908923456
 31
0.0
  0
SPLINE
  5
14A
330
1F
100
AcDbEntity
  8
0
  6
Continuous
 62
     7
370
    25
100
AcDbSpline
210
0.0
220
0.0
230
1.0
 70
     8
 71
     3
 72
    11
 73
     7
 74
     0
 42
0.000000001
 43
0.00000001
 40
0.0
 40
0.0
 40
0.0
 40
0.0
 40
0.2797926998321755
 40
0.5594382739304272
 40
0.7795788446031116
 40
1.0
 40
1.0
 40
1.0
 40
1.0
 10
873.7608835775626
 20
723.7618940121913
 30
0.0
 10
873.830201301792
 20
723.7208207197381
 30
0.0
 10
873.9688003003328
 20
723.6386957327445
 30
0.0
 10
874.0926961067026
 20
723.4448057751415
 30
0.0
 10
874.1393402255633
 20
723.2410141760794
 30
0.0
 10
874.1217483957093
 20
723.1158714243693
 30
0.0
 10
874.1129468788446
 20
723.0532601980888
 30
0.0
  0
SPLINE
  5
14B
330
1F
100
AcDbEntity
  8
0
  6
Continuous
 62
     7
370
    25
100
AcDbSpline
210
0.0
220
0.0
230
1.0
 70
     8
 71
     3
 72
    11
 73
     7
 74
     0
 42
0.000000001
 43
0.00000001
 40
0.0
 40
0.0
 40
0.0
 40
0.0
 40
0.2801196586260997
 40
0.5592799232203884
 40
0.7794314120206077
 40
1.0
 40
1.0
 40
1.0
 40
1.0
 10
874.1129468788446
 20
723.0532601980888
 30
0.0
 10
874.0911194444608
 20
722.9742309340213
 30
0.0
 10
874.047539333425
 20
722.8164430766587
 30
0.0
 10
873.8858533745761
 20
722.6465023725231
 30
0.0
 10
873.6949043265046
 20
722.5544010731089
 30
0.0
 10
873.5673228357651
 20
722.5414250320052
 30
0.0
 10
873.5034717185881
 20
722.5349308711657
 30
0.0
  0
SPLINE
  5
14C
330
1F
100
AcDbEntity
  8
0
  6
Continuous
 62
     7
370
    25
100
AcDbSpline
210
0.0
220
0.0
230
1.0
 70
     8
 71
     3
 72
     9
 73
     5
 74
     0
 42
0.000000001
 43
0.00000001
 40
0.0
 40
0.0
 40
0.0
 40
0.0
 40
0.5597062821770297
 40
1.0
 40
1.0
 40
1.0
 40
1.0
 10
873.5034717185881
 20
722.5349308711657
 30
0.0
 10
873.3853045239049
 20
722.5435668116606
 30
0.0
 10
873.1741809427583
 20
722.5589962266412
 30
0.0
 10
872.9667829459706
 20
722.601050191358
 30
0.0
 10
872.8754669108957
 20
722.6195662878323
 30
0.0
  0
LINE
  5
14D
330
1F
100
AcDbEntity
  8
0
  6
Continuous
 62
     7
370
    25
100
AcDbLine
 10
872.8754669109
 20
722.6195662878
 30
0.0
 11
872.701688866
 21
722.6541215763
 31
0.0
  0
LINE
  5
14E
330
1F
100
AcDbEntity
  8
0
  6
Continuous
 62
     7
370
    25
100
AcDbLine
 10
872.701688866
 20
722.6541215763
 30
0.0
 11
872.4748258853
 21
721.5193058712
 31
0.0
  0
LINE
  5
14F
330
1F
100
AcDbEntity
  8
0
  6
Continuous
 62
     7
370
    25
100
AcDbLine
 10
872.4748258853
 20
721.5193058712
 30
0.0
 11
872.2309356609
 21
721.5678835955
 31
0.0
  0
LINE
  5
150
330
1F
100
AcDbEntity
  8
0
  6
Continuous
 62
     7
370
    25
100
AcDbLine
 10
872.2309356609
 20
721.5678835955
 30
0.0
 11
872.7182153083
 21
724.008288243
 31
0.0
  0
LINE
  5
151
330
1F
100
AcDbEntity
  8
0
  6
Continuous
 62
     7
370
    25
100
AcDbLine
 10
873.346220116
 20
723.6361928904
 30
0.0
 11
872.9150302122
 21
723.7223307109
 31
0.0
  0
LINE
  5
152
330
1F
100
AcDbEntity
  8
0
  6
Continuous
 62
     7
370
    25
100
AcDbLine
 10
872.7182153083
 20
724.008288243
 30
0.0
 11
873.2039925519
 21
723.9111327942
 31
0.0
  0
SPLINE
  5
153
330
1F
100
AcDbEntity
  8
0
  6
Continuous
 62
     7
370
    25
100
AcDbSpline
210
0.0
220
0.0
230
1.0
 70
     8
 71
     3
 72
     9
 73
     5
 74
     0
 42
0.000000001
 43
0.00000001
 40
0.0
 40
0.0
 40
0.0
 40
0.0
 40
0.560301865225413
 40
1.0
 40
1.0
 40
1.0
 40
1.0
 10
873.2039925519215
 20
723.9111327942426
 30
0.0
 10
873.3100121904705
 20
723.8905889686862
 30
0.0
 10
873.4992309761449
 20
723.8539233303377
 30
0.0
 10
873.6809722697519
 20
723.7900006816078
 30
0.0
 10
873.7608835775626
 20
723.7618940121913
 30
0.0
  0
LINE
  5
154
330
1F
100
AcDbEntity
  8
0
  6
Continuous
 62
     7
370
    25
100
AcDbLine
 10
872.9150302122
 20
723.7223307109
 30
0.0
 11
872.7492649878
 21
722.8930037878
 31
0.0
  0
SPLINE
  5
155
330
1F
100
AcDbEntity
  8
0
  6
Continuous
 62
     7
370
    25
100
AcDbSpline
210
0.0
220
0.0
230
1.0
 70
     8
 71
     3
 72
    11
 73
     7
 74
     0
 42
0.000000001
 43
0.00000001
 40
0.0
 40
0.0
 40
0.0
 40
0.0
 40
0.4990852027492871
 40
0.6247854232084254
 40
0.7505539693395156
 40
0.9999999999999999
 40
0.9999999999999999
 40
0.9999999999999999
 40
0.9999999999999999
 10
873.1609236416651
 20
722.8053635634734
 30
0.0
 10
873.3080859139359
 20
722.776285282859
 30
0.0
 10
873.4923126592982
 20
722.7398833102905
 30
0.0
 10
873.6902442222718
 20
722.8336514988572
 30
0.0
 10
873.8002748329017
 20
722.9307671535636
 30
0.0
 10
873.8364761025322
 20
723.0347274115627
 30
0.0
 10
873.8605430326907
 20
723.103841127576
 30
0.0
  0
LINE
  5
156
330
1F
100
AcDbEntity
  8
0
  6
Continuous
 62
     7
370
    25
100
AcDbLine
 10
872.7492649878
 20
722.8930037878
 30
0.0
 11
873.1609236417
 21
722.8053635635
 31
0.0
  0
SPLINE
  5
157
330
1F
100
AcDbEntity
  8
0
  6
Continuous
 62
     7
370
    25
100
AcDbSpline
210
0.0
220
0.0
230
1.0
 70
     8
 71
     3
 72
    11
 73
     7
 74
     0
 42
0.000000001
 43
0.00000001
 40
0.0
 40
0.0
 40
0.0
 40
0.0
 40
0.2495279978551752
 40
0.3753778677299383
 40
0.5010697867246079
 40
1.0
 40
1.0
 40
1.0
 40
1.0
 10
873.8605430326907
 20
723.103841127576
 30
0.0
 10
873.8644511566722
 20
723.1749407089155
 30
0.0
 10
873.8703303496271
 20
723.2818994849614
 30
0.0
 10
873.8092795987385
 20
723.4107722108035
 30
0.0
 10
873.6709573861646
 20
723.5733576069196
 30
0.0
 10
873.4904245548221
 20
723.6082899435416
 30
0.0
 10
873.346220116024
 20
723.6361928903965
 30
0.0
  0
LINE
  5
158
330
1F
100
AcDbEntity
  8
0
  6
Continuous
 62
     7
370
    25
100
AcDbLine
 10
876.8660341565
 20
723.6724882272
 30
0.0
 11
876.9616872014
 21
721.1860098618
 31
0.0
  0
LINE
  5
159
330
1F
100
AcDbEntity
  8
0
  6
Continuous
 62
     7
370
    25
100
AcDbLine
 10
876.9616872014
 20
721.1860098618
 30
0.0
 11
876.7112865604
 21
721.1759938361
 31
0.0
  0
LINE
  5
15A
330
1F
100
AcDbEntity
  8
0
  6
Continuous
 62
     7
370
    25
100
AcDbLine
 10
875.3516110796
 20
723.6138944772
 30
0.0
 11
875.3916751822
 21
722.5707254066
 31
0.0
  0
LINE
  5
15B
330
1F
100
AcDbEntity
  8
0
  6
Continuous
 62
     7
370
    25
100
AcDbLine
 10
875.3916751822
 20
722.5707254066
 30
0.0
 11
876.6556976181
 21
722.619303131
 31
0.0
  0
LINE
  5
15C
330
1F
100
AcDbEntity
  8
0
  6
Continuous
 62
     7
370
    25
100
AcDbLine
 10
876.6556976181
 20
722.619303131
 30
0.0
 11
876.6156335155
 21
723.6624722015
 31
0.0
  0
LINE
  5
15D
330
1F
100
AcDbEntity
  8
0
  6
Continuous
 62
     7
370
    25
100
AcDbLine
 10
876.7112865604
 20
721.1759938361
 30
0.0
 11
876.6652128424
 21
722.3759137079
 31
0.0
  0
LINE
  5
15E
330
1F
100
AcDbEntity
  8
0
  6
Continuous
 62
     7
370
    25
100
AcDbLine
 10
876.6652128424
 20
722.3759137079
 30
0.0
 11
875.4011904065
 21
722.3273359836
 31
0.0
  0
LINE
  5
15F
330
1F
100
AcDbEntity
  8
0
  6
Continuous
 62
     7
370
    25
100
AcDbLine
 10
875.4011904065
 20
722.3273359836
 30
0.0
 11
875.4472641245
 21
721.1274161118
 31
0.0
  0
LINE
  5
160
330
1F
100
AcDbEntity
  8
0
  6
Continuous
 62
     7
370
    25
100
AcDbLine
 10
875.4472641245
 20
721.1274161118
 30
0.0
 11
875.1968634835
 21
721.1179008874
 31
0.0
  0
LINE
  5
161
330
1F
100
AcDbEntity
  8
0
  6
Continuous
 62
     7
370
    25
100
AcDbLine
 10
875.1968634835
 20
721.1179008874
 30
0.0
 11
875.1012104386
 21
723.6043792528
 31
0.0
  0
LINE
  5
162
330
1F
100
AcDbEntity
  8
0
  6
Continuous
 62
     7
370
    25
100
AcDbLine
 10
875.1012104386
 20
723.6043792528
 30
0.0
 11
875.3516110796
 21
723.6138944772
 31
0.0
  0
LINE
  5
163
330
1F
100
AcDbEntity
  8
0
  6
Continuous
 62
     7
370
    25
100
AcDbLine
 10
876.6156335155
 20
723.6624722015
 30
0.0
 11
876.8660341565
 21
723.6724882272
 31
0.0
  0
SPLINE
  5
164
330
1F
100
AcDbEntity
  8
0
  6
Continuous
 62
     7
370
    25
100
AcDbSpline
210
0.0
220
0.0
230
1.0
 70
     8
 71
     3
 72
    11
 73
     7
 74
     0
 42
0.000000001
 43
0.00000001
 40
0.0
 40
0.0
 40
0.0
 40
0.0
 40
0.2796613318902433
 40
0.5593708389412733
 40
0.7796493272858918
 40
0.9999999999999999
 40
0.9999999999999999
 40
0.9999999999999999
 40
0.9999999999999999
 10
877.4590597041025
 20
722.4627007589819
 30
0.0
 10
877.5081951157449
 20
722.3140438053157
 30
0.0
 10
877.6064744032188
 20
722.0167042899644
 30
0.0
 10
877.9570651432425
 20
721.7382754872385
 30
0.0
 10
878.3384217126021
 20
721.6014817646179
 30
0.0
 10
878.5818278725095
 20
721.6307543674984
 30
0.0
 10
878.70355089
 20
721.6453930666742
 30
0.0
  0
SPLINE
  5
165
330
1F
100
AcDbEntity
  8
0
  6
Continuous
 62
     7
370
    25
100
AcDbSpline
210
0.0
220
0.0
230
1.0
 70
     8
 71
     3
 72
    11
 73
     7
 74
     0
 42
0.000000001
 43
0.00000001
 40
0.0
 40
0.0
 40
0.0
 40
0.0
 40
0.2796599066902246
 40
0.55916112318071
 40
0.779496907561735
 40
0.9999999999999999
 40
0.9999999999999999
 40
0.9999999999999999
 40
0.9999999999999999
 10
878.70355089
 20
721.6453930666742
 30
0.0
 10
878.8531582116964
 20
721.6962858672707
 30
0.0
 10
879.1522879619203
 20
721.7980425898561
 30
0.0
 10
879.4403267965642
 20
722.1492603962276
 30
0.0
 10
879.5650135555197
 20
722.5401560926352
 30
0.0
 10
879.5355806301927
 20
722.785964068559
 30
0.0
 10
879.5208585823077
 20
722.9089147012897
 30
0.0
  0
SPLINE
  5
166
330
1F
100
AcDbEntity
  8
0
  6
Continuous
 62
     7
370
    25
100
AcDbSpline
210
0.0
220
0.0
230
1.0
 70
     8
 71
     3
 72
    11
 73
     7
 74
     0
 42
0.000000001
 43
0.00000001
 40
0.0
 40
0.0
 40
0.0
 40
0.0
 40
0.2796889082015323
 40
0.5591090126616102
 40
0.7796641885216679
 40
1.0
 40
1.0
 40
1.0
 40
1.0
 10
879.5208585823077
 20
722.9089147012897
 30
0.0
 10
879.4710924617335
 20
723.0585351350844
 30
0.0
 10
879.3716080498665
 20
723.3576322052935
 30
0.0
 10
879.0184651838827
 20
723.6399865330702
 30
0.0
 10
878.6323259683988
 20
723.7707409167451
 30
0.0
 10
878.3869667405712
 20
723.7450640530798
 30
0.0
 10
878.264348165641
 20
723.732232008982
 30
0.0
  0
SPLINE
  5
167
330
1F
100
AcDbEntity
  8
0
  6
Continuous
 62
     7
370
    25
100
AcDbSpline
210
0.0
220
0.0
230
1.0
 70
     8
 71
     3
 72
    11
 73
     7
 74
     0
 42
0.000000001
 43
0.00000001
 40
0.0
 40
0.0
 40
0.0
 40
0.0
 40
0.2794307182324189
 40
0.559095419712079
 40
0.7794760642147381
 40
1.0
 40
1.0
 40
1.0
 40
1.0
 10
878.264348165641
 20
723.732232008982
 30
0.0
 10
878.1163679971893
 20
723.678937443113
 30
0.0
 10
877.8202837480668
 20
723.572303684801
 30
0.0
 10
877.5384767623485
 20
723.2193756221982
 30
0.0
 10
877.4140107510241
 20
722.8301112242943
 30
0.0
 10
877.444040133288
 20
722.585197445911
 30
0.0
 10
877.4590597041025
 20
722.462700758982
 30
0.0
  0
SPLINE
  5
168
330
1F
100
AcDbEntity
  8
0
  6
Continuous
 62
     7
370
    25
100
AcDbSpline
210
0.0
220
0.0
230
1.0
 70
     8
 71
     3
 72
    11
 73
     7
 74
     0
 42
0.000000001
 43
0.00000001
 40
0.0
 40
0.0
 40
0.0
 40
0.0
 40
0.2797502484930197
 40
0.5593369297581224
 40
0.779567192358966
 40
1.0
 40
1.0
 40
1.0
 40
1.0
 10
878.2022488066666
 20
723.9686102141102
 30
0.0
 10
878.3976968959672
 20
723.9887441592577
 30
0.0
 10
878.7884787979867
 20
724.0290002774326
 30
0.0
 10
879.2903291317007
 20
723.7749122625539
 30
0.0
 10
879.6396663194348
 20
723.4041583683488
 30
0.0
 10
879.7283829321194
 20
723.1094310367673
 30
0.0
 10
879.7727616271794
 20
722.9619996371871
 30
0.0
  0
SPLINE
  5
169
330
1F
100
AcDbEntity
  8
0
  6
Continuous
 62
     7
370
    25
100
AcDbSpline
210
0.0
220
0.0
230
1.0
 70
     8
 71
     3
 72
    11
 73
     7
 74
     0
 42
0.000000001
 43
0.00000001
 40
0.0
 40
0.0
 40
0.0
 40
0.0
 40
0.2795853946967604
 40
0.5593117102135101
 40
0.779570459576127
 40
1.0
 40
1.0
 40
1.0
 40
1.0
 10
879.7727616271794
 20
722.9619996371871
 30
0.0
 10
879.790929503504
 20
722.7681200656641
 30
0.0
 10
879.8272744133986
 20
722.3802632005314
 30
0.0
 10
879.5672469027401
 20
721.8875554697829
 30
0.0
 10
879.2001771788825
 20
721.5419451552665
 30
0.0
 10
878.9081932062682
 20
721.4536702307778
 30
0.0
 10
878.7621446399999
 20
721.4095156628282
 30
0.0
  0
SPLINE
  5
16A
330
1F
100
AcDbEntity
  8
0
  6
Continuous
 62
     7
370
    25
100
AcDbSpline
210
0.0
220
0.0
230
1.0
 70
     8
 71
     3
 72
    11
 73
     7
 74
     0
 42
0.000000001
 43
0.00000001
 40
0.0
 40
0.0
 40
0.0
 40
0.0
 40
0.2796754780685956
 40
0.5593363591827404
 40
0.779617121239063
 40
1.0
 40
1.0
 40
1.0
 40
1.0
 10
878.7621446399999
 20
721.4095156628281
 30
0.0
 10
878.5685088935052
 20
721.3905041032123
 30
0.0
 10
878.1812475068436
 20
721.3524819762412
 30
0.0
 10
877.6876321259725
 20
721.6084458393599
 30
0.0
 10
877.3381572749811
 20
721.9715352103526
 30
0.0
 10
877.249494909754
 20
722.2632325525982
 30
0.0
 10
877.2051534541025
 20
722.4091150218024
 30
0.0
  0
SPLINE
  5
16B
330
1F
100
AcDbEntity
  8
0
  6
Continuous
 62
     7
370
    25
100
AcDbSpline
210
0.0
220
0.0
230
1.0
 70
     8
 71
     3
 72
    11
 73
     7
 74
     0
 42
0.000000001
 43
0.00000001
 40
0.0
 40
0.0
 40
0.0
 40
0.0
 40
0.2797089870275234
 40
0.5593166732041047
 40
0.7796787964274654
 40
1.0
 40
1.0
 40
1.0
 40
1.0
 10
877.2051534541025
 20
722.4091150218024
 30
0.0
 10
877.188310720415
 20
722.6021777588106
 30
0.0
 10
877.1546313528912
 20
722.9882333122292
 30
0.0
 10
877.398578683774
 20
723.487687984741
 30
0.0
 10
877.7678051586735
 20
723.8305689061201
 30
0.0
 10
878.0574432221164
 20
723.922599293274
 30
0.0
 10
878.2022488066666
 20
723.9686102141102
 30
0.0
  0
CIRCLE
  5
16C
330
1F
100
AcDbEntity
  8
0
  6
Continuous
 62
     7
370
    25
100
AcDbCircle
 10
875.7768351167
 20
734.7970521542
 30
0.0
 40
1.0
  0
LINE
  5
16D
330
1F
100
AcDbEntity
  8
0
  6
Continuous
 62
     7
370
    25
100
AcDbLine
 10
874.969142809
 20
741.8511487558
 30
0.0
 11
875.2832453731
 21
741.8511487558
 31
0.0
  0
LINE
  5
16E
330
1F
100
AcDbEntity
  8
0
  6
Continuous
 62
     7
370
    25
100
AcDbLine
 10
875.2832453731
 20
741.8511487558
 30
0.0
 11
875.2832453731
 21
741.4066375379
 31
0.0
  0
SPLINE
  5
16F
330
1F
100
AcDbEntity
  8
0
  6
Continuous
 62
     7
370
    25
100
AcDbSpline
210
0.0
220
0.0
230
1.0
 70
     8
 71
     3
 72
     9
 73
     5
 74
     0
 42
0.000000001
 43
0.00000001
 40
0.0
 40
0.0
 40
0.0
 40
0.0
 40
0.5601481652522012
 40
1.0
 40
1.0
 40
1.0
 40
1.0
 10
875.2832453730618
 20
741.4066375378991
 30
0.0
 10
875.3399430876023
 20
741.4834365563003
 30
0.0
 10
875.4411622257828
 20
741.6205413852816
 30
0.0
 10
875.5778782202578
 20
741.7217821031587
 30
0.0
 10
875.6380130012669
 20
741.7663130186683
 30
0.0
  0
SPLINE
  5
170
330
1F
100
AcDbEntity
  8
0
  6
Continuous
 62
     7
370
    25
100
AcDbSpline
210
0.0
220
0.0
230
1.0
 70
     8
 71
     3
 72
     9
 73
     5
 74
     0
 42
0.000000001
 43
0.00000001
 40
0.0
 40
0.0
 40
0.0
 40
0.0
 40
0.5597432622767217
 40
1.0
 40
1.0
 40
1.0
 40
1.0
 10
875.6380130012669
 20
741.7663130186683
 30
0.0
 10
875.7323825630782
 20
741.8078788474179
 30
0.0
 10
875.9009769315522
 20
741.8821375862914
 30
0.0
 10
876.0844717575345
 20
741.891776815232
 30
0.0
 10
876.1652565910106
 20
741.8960205507195
 30
0.0
  0
SPLINE
  5
171
330
1F
100
AcDbEntity
  8
0
  6
Continuous
 62
     7
370
    25
100
AcDbSpline
210
0.0
220
0.0
230
1.0
 70
     8
 71
     3
 72
    11
 73
     7
 74
     0
 42
0.000000001
 43
0.00000001
 40
0.0
 40
0.0
 40
0.0
 40
0.0
 40
0.5005372768658468
 40
0.6258968119147674
 40
0.7513678273463994
 40
0.9999999999999999
 40
0.9999999999999999
 40
0.9999999999999999
 40
0.9999999999999999
 10
876.7191428089593
 20
740.5940373776426
 30
0.0
 10
876.728707431172
 20
740.8238365377783
 30
0.0
 10
876.7406675125224
 20
741.1111888856599
 30
0.0
 10
876.5654071051483
 20
741.3998521558519
 30
0.0
 10
876.3907258383687
 20
741.5449038234292
 30
0.0
 10
876.2224239577337
 20
741.5671397800262
 30
0.0
 10
876.1105690910106
 20
741.581917986617
 30
0.0
  0
LINE
  5
172
330
1F
100
AcDbEntity
  8
0
  6
Continuous
 62
     7
370
    25
100
AcDbLine
 10
876.719142809
 20
739.2934564482
 30
0.0
 11
876.719142809
 21
740.5940373776
 31
0.0
  0
SPLINE
  5
173
330
1F
100
AcDbEntity
  8
0
  6
Continuous
 62
     7
370
    25
100
AcDbSpline
210
0.0
220
0.0
230
1.0
 70
     8
 71
     3
 72
    11
 73
     7
 74
     0
 42
0.000000001
 43
0.00000001
 40
0.0
 40
0.0
 40
0.0
 40
0.0
 40
0.1865439701482509
 40
0.3733497993475653
 40
0.560130263126253
 40
1.0
 40
1.0
 40
1.0
 40
1.0
 10
876.1105690910106
 20
741.581917986617
 30
0.0
 10
876.0074816399057
 20
741.5688781488622
 30
0.0
 10
875.8011620298178
 20
741.5427801688235
 30
0.0
 10
875.5415836543319
 20
741.3566550582019
 30
0.0
 10
875.2888240209487
 20
740.9743162972715
 30
0.0
 10
875.2855462005398
 20
740.6190519986328
 30
0.0
 10
875.2832453730618
 20
740.3696784032836
 30
0.0
  0
LINE
  5
174
330
1F
100
AcDbEntity
  8
0
  6
Continuous
 62
     7
370
    25
100
AcDbLine
 10
875.2832453731
 20
740.3696784033
 30
0.0
 11
875.2832453731
 21
739.2934564482
 31
0.0
  0
LINE
  5
175
330
1F
100
AcDbEntity
  8
0
  6
Continuous
 62
     7
370
    25
100
AcDbLine
 10
877.0332453731
 20
740.2883482751
 30
0.0
 11
877.0332453731
 21
739.2934564482
 31
0.0
  0
LINE
  5
176
330
1F
100
AcDbEntity
  8
0
  6
Continuous
 62
     7
370
    25
100
AcDbLine
 10
875.2832453731
 20
739.2934564482
 30
0.0
 11
874.969142809
 21
739.2934564482
 31
0.0
  0
LINE
  5
177
330
1F
100
AcDbEntity
  8
0
  6
Continuous
 62
     7
370
    25
100
AcDbLine
 10
878.469142809
 20
739.2934564482
 30
0.0
 11
878.469142809
 21
740.6802753584
 31
0.0
  0
SPLINE
  5
178
330
1F
100
AcDbEntity
  8
0
  6
Continuous
 62
     7
370
    25
100
AcDbSpline
210
0.0
220
0.0
230
1.0
 70
     8
 71
     3
 72
    11
 73
     7
 74
     0
 42
0.000000001
 43
0.00000001
 40
0.0
 40
0.0
 40
0.0
 40
0.0
 40
0.1868852632170339
 40
0.3735789994304743
 40
0.5602676092233677
 40
1.0
 40
1.0
 40
1.0
 40
1.0
 10
877.9173599563952
 20
741.8960205507195
 30
0.0
 10
878.0234949086598
 20
741.8863399372462
 30
0.0
 10
878.2356560421225
 20
741.8669886313543
 30
0.0
 10
878.5116787710557
 20
741.6894327919379
 30
0.0
 10
878.7750808676681
 20
741.2984252883068
 30
0.0
 10
878.779877942535
 20
740.9344059121369
 30
0.0
 10
878.7832453730618
 20
740.6788731148222
 30
0.0
  0
LINE
  5
179
330
1F
100
AcDbEntity
  8
0
  6
Continuous
 62
     7
370
    25
100
AcDbLine
 10
878.7832453731
 20
740.6788731148
 30
0.0
 11
878.7832453731
 21
739.2934564482
 31
0.0
  0
LINE
  5
17A
330
1F
100
AcDbEntity
  8
0
  6
Continuous
 62
     7
370
    25
100
AcDbLine
 10
878.7832453731
 20
739.2934564482
 30
0.0
 11
878.469142809
 21
739.2934564482
 31
0.0
  0
SPLINE
  5
17B
330
1F
100
AcDbEntity
  8
0
  6
Continuous
 62
     7
370
    25
100
AcDbSpline
210
0.0
220
0.0
230
1.0
 70
     8
 71
     3
 72
    11
 73
     7
 74
     0
 42
0.000000001
 43
0.00000001
 40
0.0
 40
0.0
 40
0.0
 40
0.0
 40
0.4994453881352977
 40
0.624933348004522
 40
0.7505609926737551
 40
1.0
 40
1.0
 40
1.0
 40
1.0
 10
878.4691428089593
 20
740.6802753584119
 30
0.0
 10
878.4763679752178
 20
740.8981927720498
 30
0.0
 10
878.4854084978598
 20
741.1708629420592
 30
0.0
 10
878.2972508233524
 20
741.4265329198253
 30
0.0
 10
878.1262530943222
 20
741.5525828446408
 30
0.0
 10
877.9679513945338
 20
741.5702009932077
 30
0.0
 10
877.8626724563951
 20
741.581917986617
 30
0.0
  0
SPLINE
  5
17C
330
1F
100
AcDbEntity
  8
0
  6
Continuous
 62
     7
370
    25
100
AcDbSpline
210
0.0
220
0.0
230
1.0
 70
     8
 71
     3
 72
    10
 73
     6
 74
     0
 42
0.000000001
 43
0.00000001
 40
0.0
 40
0.0
 40
0.0
 40
0.0
 40
0.280809118731994
 40
0.5615074020671229
 40
1.0
 40
1.0
 40
1.0
 40
1.0
 10
876.1652565910106
 20
741.8960205507195
 30
0.0
 10
876.2674431101157
 20
741.8855221259774
 30
0.0
 10
876.471775815293
 20
741.8645294202229
 30
0.0
 10
876.8059532604822
 20
741.6771395190812
 30
0.0
 10
876.9136164569196
 20
741.4293873857354
 30
0.0
 10
876.9792589948568
 20
741.2783322494375
 30
0.0
  0
SPLINE
  5
17D
330
1F
100
AcDbEntity
  8
0
  6
Continuous
 62
     7
370
    25
100
AcDbSpline
210
0.0
220
0.0
230
1.0
 70
     8
 71
     3
 72
    10
 73
     6
 74
     0
 42
0.000000001
 43
0.00000001
 40
0.0
 40
0.0
 40
0.0
 40
0.0
 40
0.2812634147174266
 40
0.5620938163030601
 40
1.0
 40
1.0
 40
1.0
 40
1.0
 10
876.9792589948568
 20
741.2783322494375
 30
0.0
 10
877.037344911578
 20
741.3719366321594
 30
0.0
 10
877.1534273200781
 20
741.5590012909588
 30
0.0
 10
877.4608553502471
 20
741.8218762666849
 30
0.0
 10
877.7445268265129
 20
741.8679494458501
 30
0.0
 10
877.9173599563952
 20
741.8960205507195
 30
0.0
  0
LINE
  5
17E
330
1F
100
AcDbEntity
  8
0
  6
Continuous
 62
     7
370
    25
100
AcDbLine
 10
877.0332453731
 20
739.2934564482
 30
0.0
 11
876.719142809
 21
739.2934564482
 31
0.0
  0
SPLINE
  5
17F
330
1F
100
AcDbEntity
  8
0
  6
Continuous
 62
     7
370
    25
100
AcDbSpline
210
0.0
220
0.0
230
1.0
 70
     8
 71
     3
 72
    12
 73
     8
 74
     0
 42
0.000000001
 43
0.00000001
 40
0.0
 40
0.0
 40
0.0
 40
0.0
 40
0.1253168236461686
 40
0.250662162110267
 40
0.3760863717850197
 40
0.5015150308073488
 40
1.0
 40
1.0
 40
1.0
 40
1.0
 10
877.8626724563951
 20
741.581917986617
 30
0.0
 10
877.789926859002
 20
741.5762889012916
 30
0.0
 10
877.6444191115497
 20
741.5650294497885
 30
0.0
 10
877.4445621511851
 20
741.4690645903828
 30
0.0
 10
877.2752725154955
 20
741.3299322172212
 30
0.0
 10
877.0285243994925
 20
740.963784168627
 30
0.0
 10
877.0311486719704
 20
740.5883260560245
 30
0.0
 10
877.0332453730618
 20
740.2883482750786
 30
0.0
  0
LINE
  5
180
330
1F
100
AcDbEntity
  8
0
  6
Continuous
 62
     7
370
    25
100
AcDbLine
 10
874.969142809
 20
739.2934564482
 30
0.0
 11
874.969142809
 21
741.8511487558
 31
0.0
  0
SPLINE
  5
181
330
1F
100
AcDbEntity
  8
0
  6
Continuous
 62
     7
370
    25
100
AcDbSpline
210
0.0
220
0.0
230
1.0
 70
     8
 71
     3
 72
    10
 73
     6
 74
     0
 42
0.000000001
 43
0.00000001
 40
0.0
 40
0.0
 40
0.0
 40
0.0
 40
0.280809118731994
 40
0.5615074020671229
 40
1.0
 40
1.0
 40
1.0
 40
1.0
 10
880.6973078730618
 20
741.8960205507195
 30
0.0
 10
880.7994943921669
 20
741.8855221259774
 30
0.0
 10
881.0038270973444
 20
741.8645294202229
 30
0.0
 10
881.3380045425334
 20
741.6771395190812
 30
0.0
 10
881.4456677389709
 20
741.4293873857354
 30
0.0
 10
881.511310276908
 20
741.2783322494375
 30
0.0
  0
SPLINE
  5
182
330
1F
100
AcDbEntity
  8
0
  6
Continuous
 62
     7
370
    25
100
AcDbSpline
210
0.0
220
0.0
230
1.0
 70
     8
 71
     3
 72
    10
 73
     6
 74
     0
 42
0.000000001
 43
0.00000001
 40
0.0
 40
0.0
 40
0.0
 40
0.0
 40
0.281263414717461
 40
0.5620938163030809
 40
1.0
 40
1.0
 40
1.0
 40
1.0
 10
881.511310276908
 20
741.2783322494375
 30
0.0
 10
881.5693961936292
 20
741.3719366321594
 30
0.0
 10
881.6854786021295
 20
741.5590012909588
 30
0.0
 10
881.9929066322984
 20
741.821876266685
 30
0.0
 10
882.2765781085642
 20
741.8679494458501
 30
0.0
 10
882.4494112384465
 20
741.8960205507195
 30
0.0
  0
SPLINE
  5
183
330
1F
100
AcDbEntity
  8
0
  6
Continuous
 62
     7
370
    25
100
AcDbSpline
210
0.0
220
0.0
230
1.0
 70
     8
 71
     3
 72
    11
 73
     7
 74
     0
 42
0.000000001
 43
0.00000001
 40
0.0
 40
0.0
 40
0.0
 40
0.0
 40
0.5005372768658468
 40
0.6258968119147674
 40
0.7513678273463994
 40
0.9999999999999999
 40
0.9999999999999999
 40
0.9999999999999999
 40
0.9999999999999999
 10
881.2511940910106
 20
740.5940373776426
 30
0.0
 10
881.2607587132234
 20
740.8238365377783
 30
0.0
 10
881.2727187945737
 20
741.1111888856599
 30
0.0
 10
881.0974583871996
 20
741.3998521558519
 30
0.0
 10
880.9227771204199
 20
741.5449038234292
 30
0.0
 10
880.754475239785
 20
741.5671397800262
 30
0.0
 10
880.6426203730618
 20
741.581917986617
 30
0.0
  0
SPLINE
  5
184
330
1F
100
AcDbEntity
  8
0
  6
Continuous
 62
     7
370
    25
100
AcDbSpline
210
0.0
220
0.0
230
1.0
 70
     8
 71
     3
 72
    11
 73
     7
 74
     0
 42
0.000000001
 43
0.00000001
 40
0.0
 40
0.0
 40
0.0
 40
0.0
 40
0.1865439701482463
 40
0.3733497993475691
 40
0.5601302631262558
 40
1.0
 40
1.0
 40
1.0
 40
1.0
 10
880.6426203730618
 20
741.581917986617
 30
0.0
 10
880.539532921957
 20
741.5688781488622
 30
0.0
 10
880.3332133118691
 20
741.5427801688235
 30
0.0
 10
880.0736349363832
 20
741.3566550582019
 30
0.0
 10
879.820875303
 20
740.9743162972716
 30
0.0
 10
879.8175974825912
 20
740.6190519986328
 30
0.0
 10
879.8152966551131
 20
740.3696784032836
 30
0.0
  0
LINE
  5
185
330
1F
100
AcDbEntity
  8
0
  6
Continuous
 62
     7
370
    25
100
AcDbLine
 10
879.8152966551
 20
740.3696784033
 30
0.0
 11
879.8152966551
 21
739.2934564482
 31
0.0
  0
LINE
  5
186
330
1F
100
AcDbEntity
  8
0
  6
Continuous
 62
     7
370
    25
100
AcDbLine
 10
879.501194091
 20
741.8511487558
 30
0.0
 11
879.8152966551
 21
741.8511487558
 31
0.0
  0
LINE
  5
187
330
1F
100
AcDbEntity
  8
0
  6
Continuous
 62
     7
370
    25
100
AcDbLine
 10
879.8152966551
 20
741.8511487558
 30
0.0
 11
879.8152966551
 21
741.4066375379
 31
0.0
  0
SPLINE
  5
188
330
1F
100
AcDbEntity
  8
0
  6
Continuous
 62
     7
370
    25
100
AcDbSpline
210
0.0
220
0.0
230
1.0
 70
     8
 71
     3
 72
     9
 73
     5
 74
     0
 42
0.000000001
 43
0.00000001
 40
0.0
 40
0.0
 40
0.0
 40
0.0
 40
0.5601481652522166
 40
1.0
 40
1.0
 40
1.0
 40
1.0
 10
879.8152966551131
 20
741.4066375378991
 30
0.0
 10
879.8719943696535
 20
741.4834365563003
 30
0.0
 10
879.9732135078342
 20
741.6205413852816
 30
0.0
 10
880.109929502309
 20
741.7217821031588
 30
0.0
 10
880.1700642833182
 20
741.7663130186683
 30
0.0
  0
SPLINE
  5
189
330
1F
100
AcDbEntity
  8
0
  6
Continuous
 62
     7
370
    25
100
AcDbSpline
210
0.0
220
0.0
230
1.0
 70
     8
 71
     3
 72
     9
 73
     5
 74
     0
 42
0.000000001
 43
0.00000001
 40
0.0
 40
0.0
 40
0.0
 40
0.0
 40
0.5597432622766901
 40
1.0
 40
1.0
 40
1.0
 40
1.0
 10
880.1700642833183
 20
741.7663130186683
 30
0.0
 10
880.2644338451295
 20
741.8078788474179
 30
0.0
 10
880.4330282136036
 20
741.8821375862914
 30
0.0
 10
880.6165230395858
 20
741.891776815232
 30
0.0
 10
880.6973078730618
 20
741.8960205507195
 30
0.0
  0
SPLINE
  5
18A
330
1F
100
AcDbEntity
  8
0
  6
Continuous
 62
     7
370
    25
100
AcDbSpline
210
0.0
220
0.0
230
1.0
 70
     8
 71
     3
 72
    12
 73
     8
 74
     0
 42
0.000000001
 43
0.00000001
 40
0.0
 40
0.0
 40
0.0
 40
0.0
 40
0.1253168236461686
 40
0.250662162110267
 40
0.3760863717850197
 40
0.5015150308073488
 40
1.0
 40
1.0
 40
1.0
 40
1.0
 10
882.3947237384465
 20
741.581917986617
 30
0.0
 10
882.3219781410531
 20
741.5762889012916
 30
0.0
 10
882.176470393601
 20
741.5650294497885
 30
0.0
 10
881.9766134332364
 20
741.4690645903828
 30
0.0
 10
881.8073237975468
 20
741.3299322172212
 30
0.0
 10
881.5605756815438
 20
740.963784168627
 30
0.0
 10
881.5631999540217
 20
740.5883260560245
 30
0.0
 10
881.5652966551131
 20
740.2883482750786
 30
0.0
  0
LINE
  5
18B
330
1F
100
AcDbEntity
  8
0
  6
Continuous
 62
     7
370
    25
100
AcDbLine
 10
881.5652966551
 20
740.2883482751
 30
0.0
 11
881.5652966551
 21
739.2934564482
 31
0.0
  0
LINE
  5
18C
330
1F
100
AcDbEntity
  8
0
  6
Continuous
 62
     7
370
    25
100
AcDbLine
 10
881.251194091
 20
739.2934564482
 30
0.0
 11
881.251194091
 21
740.5940373776
 31
0.0
  0
LINE
  5
18D
330
1F
100
AcDbEntity
  8
0
  6
Continuous
 62
     7
370
    25
100
AcDbLine
 10
879.501194091
 20
739.2934564482
 30
0.0
 11
879.501194091
 21
741.8511487558
 31
0.0
  0
SPLINE
  5
18E
330
1F
100
AcDbEntity
  8
0
  6
Continuous
 62
     7
370
    25
100
AcDbSpline
210
0.0
220
0.0
230
1.0
 70
     8
 71
     3
 72
    11
 73
     7
 74
     0
 42
0.000000001
 43
0.00000001
 40
0.0
 40
0.0
 40
0.0
 40
0.0
 40
0.1868852632170335
 40
0.3735789994304735
 40
0.5602676092233665
 40
1.0
 40
1.0
 40
1.0
 40
1.0
 10
882.4494112384465
 20
741.8960205507195
 30
0.0
 10
882.5555461907111
 20
741.8863399372461
 30
0.0
 10
882.7677073241739
 20
741.8669886313542
 30
0.0
 10
883.043730053107
 20
741.6894327919379
 30
0.0
 10
883.3071321497193
 20
741.2984252883068
 30
0.0
 10
883.3119292245864
 20
740.9344059121368
 30
0.0
 10
883.3152966551132
 20
740.6788731148222
 30
0.0
  0
LINE
  5
18F
330
1F
100
AcDbEntity
  8
0
  6
Continuous
 62
     7
370
    25
100
AcDbLine
 10
881.5652966551
 20
739.2934564482
 30
0.0
 11
881.251194091
 21
739.2934564482
 31
0.0
  0
LINE
  5
190
330
1F
100
AcDbEntity
  8
0
  6
Continuous
 62
     7
370
    25
100
AcDbLine
 10
879.8152966551
 20
739.2934564482
 30
0.0
 11
879.501194091
 21
739.2934564482
 31
0.0
  0
LINE
  5
191
330
1F
100
AcDbEntity
  8
0
  6
Continuous
 62
     7
370
    25
100
AcDbLine
 10
883.3152966551
 20
740.6788731148
 30
0.0
 11
883.3152966551
 21
739.2934564482
 31
0.0
  0
LINE
  5
192
330
1F
100
AcDbEntity
  8
0
  6
Continuous
 62
     7
370
    25
100
AcDbLine
 10
883.3152966551
 20
739.2934564482
 30
0.0
 11
883.001194091
 21
739.2934564482
 31
0.0
  0
LINE
  5
193
330
1F
100
AcDbEntity
  8
0
  6
Continuous
 62
     7
370
    25
100
AcDbLine
 10
883.001194091
 20
739.2934564482
 30
0.0
 11
883.001194091
 21
740.6802753584
 31
0.0
  0
SPLINE
  5
194
330
1F
100
AcDbEntity
  8
0
  6
Continuous
 62
     7
370
    25
100
AcDbSpline
210
0.0
220
0.0
230
1.0
 70
     8
 71
     3
 72
    11
 73
     7
 74
     0
 42
0.000000001
 43
0.00000001
 40
0.0
 40
0.0
 40
0.0
 40
0.0
 40
0.4994453881352977
 40
0.624933348004522
 40
0.7505609926737551
 40
1.0
 40
1.0
 40
1.0
 40
1.0
 10
883.0011940910106
 20
740.6802753584119
 30
0.0
 10
883.0084192572691
 20
740.8981927720498
 30
0.0
 10
883.0174597799111
 20
741.1708629420592
 30
0.0
 10
882.8293021054038
 20
741.4265329198253
 30
0.0
 10
882.6583043763736
 20
741.5525828446408
 30
0.0
 10
882.5000026765852
 20
741.5702009932077
 30
0.0
 10
882.3947237384465
 20
741.581917986617
 30
0.0
  0
CIRCLE
  5
195
330
1F
100
AcDbEntity
  8
0
  6
Continuous
 62
     7
370
    25
100
AcDbCircle
 10
875.7768351167
 20
734.7970521542
 30
0.0
 40
17.37026209902422
  0
CIRCLE
  5
196
330
1F
100
AcDbEntity
  8
0
  6
Continuous
 62
     7
370
    25
100
AcDbCircle
 10
875.7768351167
 20
734.7970521542
 30
0.0
 40
15.37026209902422
  0
LINE
  5
197
330
1F
100
AcDbEntity
  8
0
  6
Continuous
 62
     7
370
    25
100
AcDbLine
 10
869.4533093948
 20
725.2128255213
 30
0.0
 11
869.5740025038
 21
725.4206580534
 31
0.0
  0
LINE
  5
198
330
1F
100
AcDbEntity
  8
0
  6
Continuous
 62
     7
370
    25
100
AcDbLine
 10
869.5740025038
 20
725.4206580534
 30
0.0
 11
870.7483815102
 21
724.7370643034
 31
0.0
  0
LINE
  5
199
330
1F
100
AcDbEntity
  8
0
  6
Continuous
 62
     7
370
    25
100
AcDbLine
 10
870.7483815102
 20
724.7370643034
 30
0.0
 11
870.6276884012
 21
724.5292317713
 31
0.0
  0
LINE
  5
19A
330
1F
100
AcDbEntity
  8
0
  6
Continuous
 62
     7
370
    25
100
AcDbLine
 10
870.6276884012
 20
724.5292317713
 30
0.0
 11
870.1504247794
 21
724.8071764829
 31
0.0
  0
LINE
  5
19B
330
1F
100
AcDbEntity
  8
0
  6
Continuous
 62
     7
370
    25
100
AcDbLine
 10
870.1504247794
 20
724.8071764829
 30
0.0
 11
869.0251242987
 21
722.8740835342
 31
0.0
  0
LINE
  5
19C
330
1F
100
AcDbEntity
  8
0
  6
Continuous
 62
     7
370
    25
100
AcDbLine
 10
869.0251242987
 20
722.8740835342
 30
0.0
 11
868.8067749397
 21
723.0012870598
 31
0.0
  0
LINE
  5
19D
330
1F
100
AcDbEntity
  8
0
  6
Continuous
 62
     7
370
    25
100
AcDbLine
 10
868.8067749397
 20
723.0012870598
 30
0.0
 11
869.9320754205
 21
724.9343800085
 31
0.0
  0
LINE
  5
19E
330
1F
100
AcDbEntity
  8
0
  6
Continuous
 62
     7
370
    25
100
AcDbLine
 10
869.9320754205
 20
724.9343800085
 30
0.0
 11
869.4533093948
 21
725.2128255213
 31
0.0
  0
LINE
  5
19F
330
1F
100
AcDbEntity
  8
0
  6
Continuous
 62
     7
370
    25
100
AcDbLine
 10
870.7409292158
 20
723.2337430799
 30
0.0
 11
871.5281888311
 21
722.9217438812
 31
0.0
  0
LINE
  5
1A0
330
1F
100
AcDbEntity
  8
0
  6
Continuous
 62
     7
370
    25
100
AcDbLine
 10
871.4665902734
 20
723.9113272145
 30
0.0
 11
870.7409292158
 21
723.2337430799
 31
0.0
  0
LINE
  5
1A1
330
1F
100
AcDbEntity
  8
0
  6
Continuous
 62
     7
370
    25
100
AcDbLine
 10
871.8502040555
 20
721.6612270543
 30
0.0
 11
871.6033090234
 21
721.7588833043
 31
0.0
  0
LINE
  5
1A2
330
1F
100
AcDbEntity
  8
0
  6
Continuous
 62
     7
370
    25
100
AcDbLine
 10
871.6033090234
 20
721.7588833043
 30
0.0
 11
871.5417104658
 21
722.6598248107
 31
0.0
  0
LINE
  5
1A3
330
1F
100
AcDbEntity
  8
0
  6
Continuous
 62
     7
370
    25
100
AcDbLine
 10
871.5417104658
 20
722.6598248107
 30
0.0
 11
870.5491223247
 21
723.0529538171
 31
0.0
  0
LINE
  5
1A4
330
1F
100
AcDbEntity
  8
0
  6
Continuous
 62
     7
370
    25
100
AcDbLine
 10
869.8895670363
 20
722.4374690414
 30
0.0
 11
869.6326559786
 21
722.5391317017
 31
0.0
  0
LINE
  5
1A5
330
1F
100
AcDbEntity
  8
0
  6
Continuous
 62
     7
370
    25
100
AcDbLine
 10
869.6326559786
 20
722.5391317017
 30
0.0
 11
871.6318546965
 21
724.4106260927
 31
0.0
  0
LINE
  5
1A6
330
1F
100
AcDbEntity
  8
0
  6
Continuous
 62
     7
370
    25
100
AcDbLine
 10
871.6318546965
 20
724.4106260927
 30
0.0
 11
871.6884452414
 21
724.3885908363
 31
0.0
  0
LINE
  5
1A7
330
1F
100
AcDbEntity
  8
0
  6
Continuous
 62
     7
370
    25
100
AcDbLine
 10
871.5281888311
 20
722.9217438812
 30
0.0
 11
871.4665902734
 21
723.9113272145
 31
0.0
  0
LINE
  5
1A8
330
1F
100
AcDbEntity
  8
0
  6
Continuous
 62
     7
370
    25
100
AcDbLine
 10
870.5491223247
 20
723.0529538171
 30
0.0
 11
869.8895670363
 21
722.4374690414
 31
0.0
  0
LINE
  5
1A9
330
1F
100
AcDbEntity
  8
0
  6
Continuous
 62
     7
370
    25
100
AcDbLine
 10
871.6884452414
 20
724.3885908363
 30
0.0
 11
871.8502040555
 21
721.6612270543
 31
0.0
  0
SPLINE
  5
1AA
330
1F
100
AcDbEntity
  8
0
  6
Continuous
 62
     7
370
    25
100
AcDbSpline
210
0.0
220
0.0
230
1.0
 70
     8
 71
     3
 72
    11
 73
     7
 74
     0
 42
0.000000001
 43
0.00000001
 40
0.0
 40
0.0
 40
0.0
 40
0.0
 40
0.1255870223112757
 40
0.2511906762363448
 40
0.5006049654665312
 40
1.0
 40
1.0
 40
1.0
 40
1.0
 10
870.0781171679337
 20
740.3030718327708
 30
0.0
 10
870.073026577386
 20
740.3641020916546
 30
0.0
 10
870.062844722139
 20
740.4861706917197
 30
0.0
 10
869.953767978644
 20
740.706883516943
 30
0.0
 10
869.6281834338529
 20
741.0084351052548
 30
0.0
 10
869.2520467358034
 20
741.0294447323406
 30
0.0
 10
869.0011940910106
 20
741.0434564481554
 30
0.0
  0
LINE
  5
1AB
330
1F
100
AcDbEntity
  8
0
  6
Continuous
 62
     7
370
    25
100
AcDbLine
 10
869.001194091
 20
741.0434564482
 30
0.0
 11
869.001194091
 21
741.4024308071
 31
0.0
  0
SPLINE
  5
1AC
330
1F
100
AcDbEntity
  8
0
  6
Continuous
 62
     7
370
    25
100
AcDbSpline
210
0.0
220
0.0
230
1.0
 70
     8
 71
     3
 72
    11
 73
     7
 74
     0
 42
0.000000001
 43
0.00000001
 40
0.0
 40
0.0
 40
0.0
 40
0.0
 40
0.4994184848717901
 40
0.7490159550700064
 40
0.8745437054092435
 40
1.0
 40
1.0
 40
1.0
 40
1.0
 10
869.0011940910105
 20
741.4024308071299
 30
0.0
 10
869.1989149845867
 20
741.4207152120337
 30
0.0
 10
869.4954520740725
 20
741.4481377272523
 30
0.0
 10
869.7853418126773
 20
741.6534926476422
 30
0.0
 10
869.8845383853401
 20
741.8276676800934
 30
0.0
 10
869.8939336790318
 20
741.926063440226
 30
0.0
 10
869.8986299884465
 20
741.9752473135402
 30
0.0
  0
SPLINE
  5
1AD
330
1F
100
AcDbEntity
  8
0
  6
Continuous
 62
     7
370
    25
100
AcDbSpline
210
0.0
220
0.0
230
1.0
 70
     8
 71
     3
 72
    10
 73
     6
 74
     0
 42
0.000000001
 43
0.00000001
 40
0.0
 40
0.0
 40
0.0
 40
0.0
 40
0.278858991625922
 40
0.5600742373462592
 40
1.0
 40
1.0
 40
1.0
 40
1.0
 10
869.8986299884465
 20
741.9752473135402
 30
0.0
 10
869.8808956565281
 20
742.0668576770643
 30
0.0
 10
869.8452771442247
 20
742.250852477392
 30
0.0
 10
869.5773424078312
 20
742.4775195960717
 30
0.0
 10
869.3396847072734
 20
742.50652884216
 30
0.0
 10
869.1947037063952
 20
742.5242256789247
 30
0.0
  0
SPLINE
  5
1AE
330
1F
100
AcDbEntity
  8
0
  6
Continuous
 62
     7
370
    25
100
AcDbSpline
210
0.0
220
0.0
230
1.0
 70
     8
 71
     3
 72
    10
 73
     6
 74
     0
 42
0.000000001
 43
0.00000001
 40
0.0
 40
0.0
 40
0.0
 40
0.0
 40
0.280635963148229
 40
0.5603644085668387
 40
0.9999999999999999
 40
0.9999999999999999
 40
0.9999999999999999
 40
0.9999999999999999
 10
869.1947037063952
 20
742.5242256789246
 30
0.0
 10
869.1036864040752
 20
742.5169912035525
 30
0.0
 10
868.9219461302639
 20
742.502545647581
 30
0.0
 10
868.6326095104235
 20
742.3275209985504
 30
0.0
 10
868.5271708448689
 20
742.1154004878483
 30
0.0
 10
868.462732552549
 20
741.9857641404632
 30
0.0
  0
SPLINE
  5
1AF
330
1F
100
AcDbEntity
  8
0
  6
Continuous
 62
     7
370
    25
100
AcDbSpline
210
0.0
220
0.0
230
1.0
 70
     8
 71
     3
 72
     9
 73
     5
 74
     0
 42
0.000000001
 43
0.00000001
 40
0.0
 40
0.0
 40
0.0
 40
0.0
 40
0.5606944343828941
 40
1.0
 40
1.0
 40
1.0
 40
1.0
 10
868.3281171679337
 20
740.2357641404631
 30
0.0
 10
868.3601585877523
 20
740.1340071133864
 30
0.0
 10
868.4173045443621
 20
739.952523187674
 30
0.0
 10
868.5458048779846
 20
739.813196910848
 30
0.0
 10
868.6022557897285
 20
739.7519901020015
 30
0.0
  0
LINE
  5
1B0
330
1F
100
AcDbEntity
  8
0
  6
Continuous
 62
     7
370
    25
100
AcDbLine
 10
868.4627325525
 20
741.9857641405
 30
0.0
 11
868.1486299884
 21
741.9857641405
 31
0.0
  0
SPLINE
  5
1B1
330
1F
100
AcDbEntity
  8
0
  6
Continuous
 62
     7
370
    25
100
AcDbSpline
210
0.0
220
0.0
230
1.0
 70
     8
 71
     3
 72
    11
 73
     7
 74
     0
 42
0.000000001
 43
0.00000001
 40
0.0
 40
0.0
 40
0.0
 40
0.0
 40
0.2793039999354488
 40
0.5588382577771545
 40
0.7792769515121084
 40
0.9999999999999999
 40
0.9999999999999999
 40
0.9999999999999999
 40
0.9999999999999999
 10
870.3922197320362
 20
740.3332200699504
 30
0.0
 10
870.3671104720195
 20
740.1614502262631
 30
0.0
 10
870.3168712519398
 20
739.8177689320208
 30
0.0
 10
869.9883294093406
 20
739.4402312571864
 30
0.0
 10
869.5880015944474
 20
739.235132677364
 30
0.0
 10
869.3169803560666
 20
739.2141906308572
 30
0.0
 10
869.1813823922927
 20
739.2037128584119
 30
0.0
  0
SPLINE
  5
1B2
330
1F
100
AcDbEntity
  8
0
  6
Continuous
 62
     7
370
    25
100
AcDbSpline
210
0.0
220
0.0
230
1.0
 70
     8
 71
     3
 72
    11
 73
     7
 74
     0
 42
0.000000001
 43
0.00000001
 40
0.0
 40
0.0
 40
0.0
 40
0.0
 40
0.279885900584683
 40
0.5589785364560376
 40
0.7792628697075613
 40
0.9999999999999999
 40
0.9999999999999999
 40
0.9999999999999999
 40
0.9999999999999999
 10
869.1813823922927
 20
739.2037128584119
 30
0.0
 10
869.0207857150745
 20
739.2177726731696
 30
0.0
 10
868.70004753068
 20
739.2458524537509
 30
0.0
 10
868.3211742106365
 20
739.5145704458881
 30
0.0
 10
868.1011440800561
 20
739.8681608180547
 30
0.0
 10
868.0430776348592
 20
740.1131458575574
 30
0.0
 10
868.0140146038311
 20
740.2357641404632
 30
0.0
  0
LINE
  5
1B3
330
1F
100
AcDbEntity
  8
0
  6
Continuous
 62
     7
370
    25
100
AcDbLine
 10
868.0140146038
 20
740.2357641405
 30
0.0
 11
868.3281171679
 21
740.2357641405
 31
0.0
  0
SPLINE
  5
1B4
330
1F
100
AcDbEntity
  8
0
  6
Continuous
 62
     7
370
    25
100
AcDbSpline
210
0.0
220
0.0
230
1.0
 70
     8
 71
     3
 72
    11
 73
     7
 74
     0
 42
0.000000001
 43
0.00000001
 40
0.0
 40
0.0
 40
0.0
 40
0.0
 40
0.2805990659720798
 40
0.5601509464763395
 40
0.7803025772768333
 40
1.0
 40
1.0
 40
1.0
 40
1.0
 10
869.1869913666517
 20
739.5626872173862
 30
0.0
 10
869.3083599793642
 20
739.5708001268378
 30
0.0
 10
869.5506442615591
 20
739.586995668659
 30
0.0
 10
869.8439121045983
 20
739.768603961896
 30
0.0
 10
870.042914572926
 20
740.0179505730065
 30
0.0
 10
870.0663910505561
 20
740.2080968640768
 30
0.0
 10
870.0781171679337
 20
740.3030718327708
 30
0.0
  0
SPLINE
  5
1B5
330
1F
100
AcDbEntity
  8
0
  6
Continuous
 62
     7
370
    25
100
AcDbSpline
210
0.0
220
0.0
230
1.0
 70
     8
 71
     3
 72
    11
 73
     7
 74
     0
 42
0.000000001
 43
0.00000001
 40
0.0
 40
0.0
 40
0.0
 40
0.0
 40
0.2802877402650448
 40
0.559679679147516
 40
0.7797465447966404
 40
1.0
 40
1.0
 40
1.0
 40
1.0
 10
868.1486299884465
 20
741.9857641404632
 30
0.0
 10
868.1889580647362
 20
742.1203673924157
 30
0.0
 10
868.2694853285295
 20
742.3891437034799
 30
0.0
 10
868.5369455856611
 20
742.686660813893
 30
0.0
 10
868.8605381407125
 20
742.8575041733232
 30
0.0
 10
869.0804796299503
 20
742.8746323303054
 30
0.0
 10
869.190496975626
 20
742.8832000378991
 30
0.0
  0
SPLINE
  5
1B6
330
1F
100
AcDbEntity
  8
0
  6
Continuous
 62
     7
370
    25
100
AcDbSpline
210
0.0
220
0.0
230
1.0
 70
     8
 71
     3
 72
    11
 73
     7
 74
     0
 42
0.000000001
 43
0.00000001
 40
0.0
 40
0.0
 40
0.0
 40
0.0
 40
0.2800849611447531
 40
0.5598683320862278
 40
0.7800991540777399
 40
0.9999999999999999
 40
0.9999999999999999
 40
0.9999999999999999
 40
0.9999999999999999
 10
869.190496975626
 20
742.8832000378991
 30
0.0
 10
869.3322053961127
 20
742.867985814693
 30
0.0
 10
869.6154696481321
 20
742.8375737506698
 30
0.0
 10
869.954459771709
 20
742.6127036404984
 30
0.0
 10
870.1697268230655
 20
742.3074571102466
 30
0.0
 10
870.1984044761366
 20
742.0849934881466
 30
0.0
 10
870.212732552549
 20
741.9738450699504
 30
0.0
  0
SPLINE
  5
1B7
330
1F
100
AcDbEntity
  8
0
  6
Continuous
 62
     7
370
    25
100
AcDbSpline
210
0.0
220
0.0
230
1.0
 70
     8
 71
     3
 72
    10
 73
     6
 74
     0
 42
0.000000001
 43
0.00000001
 40
0.0
 40
0.0
 40
0.0
 40
0.0
 40
0.2805082111732021
 40
0.5607923167249119
 40
0.9999999999999999
 40
0.9999999999999999
 40
0.9999999999999999
 40
0.9999999999999999
 10
870.212732552549
 20
741.9738450699504
 30
0.0
 10
870.2070408330076
 20
741.8929778039998
 30
0.0
 10
870.1956619411937
 20
741.7313078791518
 30
0.0
 10
870.0695619388342
 20
741.4627011224742
 30
0.0
 10
869.9046485381691
 20
741.3329800930034
 30
0.0
 10
869.8039785461388
 20
741.253792986617
 30
0.0
  0
SPLINE
  5
1B8
330
1F
100
AcDbEntity
  8
0
  6
Continuous
 62
     7
370
    25
100
AcDbSpline
210
0.0
220
0.0
230
1.0
 70
     8
 71
     3
 72
     9
 73
     5
 74
     0
 42
0.000000001
 43
0.00000001
 40
0.0
 40
0.0
 40
0.0
 40
0.0
 40
0.5597945113548535
 40
1.0
 40
1.0
 40
1.0
 40
1.0
 10
869.8039785461388
 20
741.253792986617
 30
0.0
 10
869.8854831974958
 20
741.211251916551
 30
0.0
 10
870.0310806438868
 20
741.1352578344315
 30
0.0
 10
870.1367633360287
 20
741.0101765638418
 30
0.0
 10
870.1832854371645
 20
740.9551151020016
 30
0.0
  0
SPLINE
  5
1B9
330
1F
100
AcDbEntity
  8
0
  6
Continuous
 62
     7
370
    25
100
AcDbSpline
210
0.0
220
0.0
230
1.0
 70
     8
 71
     3
 72
     9
 73
     5
 74
     0
 42
0.000000001
 43
0.00000001
 40
0.0
 40
0.0
 40
0.0
 40
0.0
 40
0.5594190832925676
 40
1.0
 40
1.0
 40
1.0
 40
1.0
 10
870.1832854371645
 20
740.9551151020016
 30
0.0
 10
870.2504037034255
 20
740.8479888164367
 30
0.0
 10
870.3703822101755
 20
740.656493229739
 30
0.0
 10
870.3855410406219
 20
740.4320885079776
 30
0.0
 10
870.3922197320362
 20
740.3332200699504
 30
0.0
  0
SPLINE
  5
1BA
330
1F
100
AcDbEntity
  8
0
  6
Continuous
 62
     7
370
    25
100
AcDbSpline
210
0.0
220
0.0
230
1.0
 70
     8
 71
     3
 72
     9
 73
     5
 74
     0
 42
0.000000001
 43
0.00000001
 40
0.0
 40
0.0
 40
0.0
 40
0.0
 40
0.5587479503296247
 40
1.0
 40
1.0
 40
1.0
 40
1.0
 10
868.6022557897285
 20
739.7519901020015
 30
0.0
 10
868.7028353364299
 20
739.6890832244745
 30
0.0
 10
868.8828441340318
 20
739.5764977957676
 30
0.0
 10
869.0938740039905
 20
739.5669154479858
 30
0.0
 10
869.1869913666516
 20
739.5626872173863
 30
0.0
  0
CIRCLE
  5
1BB
330
1F
100
AcDbEntity
  8
0
  6
Continuous
 62
     7
370
    25
100
AcDbCircle
 10
875.7768351167
 20
734.7970521542
 30
0.0
 40
17.49999999999989
  0
ARC
  5
1BC
330
1F
100
AcDbEntity
  8
0
  6
Continuous
 62
     7
370
    25
100
AcDbCircle
 10
565.110600907
 20
379.2970521542
 30
0.0
 40
49.99999999999994
100
AcDbArc
 50
180.0
 51
195.418231842
  0
ARC
  5
1BD
330
1F
100
AcDbEntity
  8
0
  6
Continuous
 62
     7
370
    25
100
AcDbCircle
 10
565.110600907
 20
379.2970521542
 30
0.0
 40
50.0
100
AcDbArc
 50
240.8417835422
 51
270.0
  0
LINE
  5
1BE
330
1F
100
AcDbEntity
  8
0
  6
Continuous
 62
     7
370
    25
100
AcDbLine
 10
565.110600907
 20
327.7970521542
 30
0.0
 11
565.110600907
 21
329.2970521542
 31
0.0
  0
LINE
  5
1BF
330
1F
100
AcDbEntity
  8
0
  6
Continuous
 62
     7
370
    25
100
AcDbLine
 10
805.110600907
 20
729.2970521542
 30
0.0
 11
565.110600907
 21
729.2970521542
 31
0.0
  0
LINE
  5
1C0
330
1F
100
AcDbEntity
  8
0
  6
Continuous
 62
     7
370
    25
100
AcDbLine
 10
565.110600907
 20
729.2970521542
 30
0.0
 11
565.110600907
 21
730.7970521542
 31
0.0
  0
LINE
  5
1C1
330
1F
100
AcDbEntity
  8
0
  6
Continuous
 62
     7
370
    25
100
AcDbLine
 10
565.110600907
 20
730.7970521542
 30
0.0
 11
805.110600907
 21
730.7970521542
 31
0.0
  0
LINE
  5
1C2
330
1F
100
AcDbEntity
  8
0
  6
Continuous
 62
     7
370
    25
100
AcDbLine
 10
805.110600907
 20
729.2970521542
 30
0.0
 11
805.110600907
 21
730.7970521542
 31
0.0
  0
LINE
  5
1C3
330
1F
100
AcDbEntity
  8
0
  6
Continuous
 62
     7
370
    25
100
AcDbLine
 10
856.610600907
 20
679.2970521542
 30
0.0
 11
856.610600907
 21
379.2970521542
 31
0.0
  0
LINE
  5
1C4
330
1F
100
AcDbEntity
  8
0
  6
Continuous
 62
     7
370
    25
100
AcDbLine
 10
856.610600907
 20
379.2970521542
 30
0.0
 11
855.110600907
 21
379.2970521542
 31
0.0
  0
LINE
  5
1C5
330
1F
100
AcDbEntity
  8
0
  6
Continuous
 62
     7
370
    25
100
AcDbLine
 10
855.110600907
 20
379.2970521542
 30
0.0
 11
855.110600907
 21
679.2970521542
 31
0.0
  0
LINE
  5
1C6
330
1F
100
AcDbEntity
  8
0
  6
Continuous
 62
     7
370
    25
100
AcDbLine
 10
856.610600907
 20
679.2970521542
 30
0.0
 11
855.110600907
 21
679.2970521542
 31
0.0
  0
LINE
  5
1C7
330
1F
100
AcDbEntity
  8
0
  6
Continuous
 62
     7
370
    25
100
AcDbLine
 10
805.110600907
 20
327.7970521542
 30
0.0
 11
565.110600907
 21
327.7970521542
 31
0.0
  0
LINE
  5
1C8
330
1F
100
AcDbEntity
  8
0
  6
Continuous
 62
     7
370
    25
100
AcDbLine
 10
565.110600907
 20
329.2970521542
 30
0.0
 11
805.110600907
 21
329.2970521542
 31
0.0
  0
LINE
  5
1C9
330
1F
100
AcDbEntity
  8
0
  6
Continuous
 62
     7
370
    25
100
AcDbLine
 10
805.110600907
 20
327.7970521542
 30
0.0
 11
805.110600907
 21
329.2970521542
 31
0.0
  0
ARC
  5
1CA
330
1F
100
AcDbEntity
  8
0
  6
Continuous
 62
     7
370
    25
100
AcDbCircle
 10
805.110600907
 20
679.2970521542
 30
0.0
 40
50.0
100
AcDbArc
 50
0.0
 51
90.0
  0
ARC
  5
1CB
330
1F
100
AcDbEntity
  8
0
  6
Continuous
 62
     7
370
    25
100
AcDbCircle
 10
565.110600907
 20
679.2970521542
 30
0.0
 40
50.00000000000001
100
AcDbArc
 50
90.0
 51
119.1582164597
  0
ARC
  5
1CC
330
1F
100
AcDbEntity
  8
0
  6
Continuous
 62
     7
370
    25
100
AcDbCircle
 10
565.110600907
 20
679.2970521542
 30
0.0
 40
49.99999999999996
100
AcDbArc
 50
164.5817681567
 51
180.0
  0
LINE
  5
1CD
330
1F
100
AcDbEntity
  8
0
  6
Continuous
 62
     7
370
    25
100
AcDbLine
 10
515.110600907
 20
679.2970521542
 30
0.0
 11
515.110600907
 21
379.2970521542
 31
0.0
  0
ARC
  5
1CE
330
1F
100
AcDbEntity
  8
0
  6
Continuous
 62
     7
370
    25
100
AcDbCircle
 10
805.110600907
 20
379.2970521542
 30
0.0
 40
50.0
100
AcDbArc
 50
270.0
 51
0.0
  0
LINE
  5
1CF
330
1F
100
AcDbEntity
  8
0
  6
Continuous
 62
     7
370
    25
100
AcDbLine
 10
855.110600907
 20
679.2970521542
 30
0.0
 11
845.7439513486
 21
679.2970521542
 31
0.0
  0
SPLINE
  5
1D0
330
1F
100
AcDbEntity
  8
0
  6
Continuous
 62
     7
370
    25
100
AcDbSpline
210
0.0
220
0.0
230
1.0
 70
     8
 71
     3
 72
    17
 73
    13
 74
     0
 42
0.000000001
 43
0.00000001
 40
0.0
 40
0.0
 40
0.0
 40
0.0
 40
0.1039779861448106
 40
0.2108733928885866
 40
0.3148488686723705
 40
0.4217416688463788
 40
0.5257165288746996
 40
0.6326082776735731
 40
0.7369144933992322
 40
0.8441657984698606
 40
0.9214963024514674
 40
1.0
 40
1.0
 40
1.0
 40
1.0
 10
805.1106009070287
 20
719.9829372293076
 30
0.0
 10
807.3253188601811
 20
719.879818360861
 30
0.0
 10
811.8168954562318
 20
719.670687308545
 30
0.0
 10
818.3435579569058
 20
717.9621319457998
 30
0.0
 10
824.5635739801677
 20
715.2542491854015
 30
0.0
 10
830.1977809822658
 20
711.567717340543
 30
0.0
 10
835.1906170697682
 20
706.966342789436
 30
0.0
 10
839.3208560094118
 20
701.6436015986898
 30
0.0
 10
842.5505327754124
 20
695.6520922726045
 30
0.0
 10
844.5231851174144
 20
689.803168086606
 30
0.0
 10
845.5764126280404
 20
684.2860869566397
 30
0.0
 10
845.6878255187922
 20
680.9683894868672
 30
0.0
 10
845.7439513486339
 20
679.2970521541946
 30
0.0
  0
LINE
  5
1D1
330
1F
100
AcDbEntity
  8
0
  6
Continuous
 62
     7
370
    25
100
AcDbLine
 10
805.110600907
 20
729.2970521542
 30
0.0
 11
805.110600907
 21
719.9829372293
 31
0.0
  0
LINE
  5
1D2
330
1F
100
AcDbEntity
  8
0
  6
Continuous
 62
     7
370
    25
100
AcDbLine
 10
805.110600907
 20
329.2970521542
 30
0.0
 11
805.110600907
 21
338.6111670791
 31
0.0
  0
SPLINE
  5
1D3
330
1F
100
AcDbEntity
  8
0
  6
Continuous
 62
     7
370
    25
100
AcDbSpline
210
0.0
220
0.0
230
1.0
 70
     8
 71
     3
 72
    17
 73
    13
 74
     0
 42
0.000000001
 43
0.00000001
 40
0.0
 40
0.0
 40
0.0
 40
0.0
 40
0.1066370337473706
 40
0.2132740117592268
 40
0.3197513535917443
 40
0.4262286324921373
 40
0.5322324743580422
 40
0.6382362745782247
 40
0.7438014085233524
 40
0.8493665397208009
 40
0.9246832657262031
 40
1.0
 40
1.0
 40
1.0
 40
1.0
 10
845.7439513486339
 20
379.2970521541952
 30
0.0
 10
845.6362684427975
 20
377.0260053271315
 30
0.0
 10
845.420902687407
 20
372.4839128600021
 30
0.0
 10
843.6779629057495
 20
365.858435783953
 30
0.0
 10
840.9164006645524
 20
359.6186072476091
 30
0.0
 10
837.1574164848315
 20
353.9280488570001
 30
0.0
 10
832.4997403124801
 20
348.9648156957905
 30
0.0
 10
827.110205760944
 20
344.839020265341
 30
0.0
 10
821.1100010148562
 20
341.6830651520808
 30
0.0
 10
815.2987382034112
 20
339.7660178528448
 30
0.0
 10
809.9204811092765
 20
338.773890467727
 30
0.0
 10
806.7138943664485
 20
338.6654082106157
 30
0.0
 10
805.1106009070282
 20
338.6111670790829
 30
0.0
  0
LINE
  5
1D4
330
1F
100
AcDbEntity
  8
0
  6
Continuous
 62
     7
370
    25
100
AcDbLine
 10
855.110600907
 20
379.2970521542
 30
0.0
 11
845.7439513486
 21
379.2970521542
 31
0.0
  0
LINE
  5
1D5
330
1F
100
AcDbEntity
  8
0
  6
Continuous
 62
     7
370
    25
100
AcDbLine
 10
515.110600907
 20
379.2970521542
 30
0.0
 11
523.1197079411
 21
379.2970521542
 31
0.0
  0
SPLINE
  5
1D6
330
1F
100
AcDbEntity
  8
0
  6
Continuous
 62
     7
370
    25
100
AcDbSpline
210
0.0
220
0.0
230
1.0
 70
     8
 71
     3
 72
    17
 73
    13
 74
     0
 42
0.000000001
 43
0.00000001
 40
0.0
 40
0.0
 40
0.0
 40
0.0
 40
0.1055800160184122
 40
0.2111598794381945
 40
0.3167497908007417
 40
0.4223395935833421
 40
0.527302007541284
 40
0.6322644066692545
 40
0.736840157331737
 40
0.8414159895691455
 40
0.9207079720271623
 40
1.0
 40
1.0
 40
1.0
 40
1.0
 10
565.1106009070288
 20
337.3245821492493
 30
0.0
 10
562.7884270680158
 20
337.4325005054571
 30
0.0
 10
558.144082746312
 20
337.6483370618943
 30
0.0
 10
551.3616191564263
 20
339.4126766797357
 30
0.0
 10
544.9630713744008
 20
342.2134556570658
 30
0.0
 10
539.1180944772719
 20
346.0308758628533
 30
0.0
 10
534.0088019448508
 20
350.762598571998
 30
0.0
 10
529.7454484468024
 20
356.24092076952
 30
0.0
 10
526.4593521830918
 20
362.3478007265759
 30
0.0
 10
524.4013772706234
 20
368.3687241097164
 30
0.0
 10
523.2996027493308
 20
374.0671368531164
 30
0.0
 10
523.1796728886268
 20
377.5537467202745
 30
0.0
 10
523.1197079410643
 20
379.2970521541955
 30
0.0
  0
LINE
  5
1D7
330
1F
100
AcDbEntity
  8
0
  6
Continuous
 62
     7
370
    25
100
AcDbLine
 10
565.110600907
 20
329.2970521542
 30
0.0
 11
565.110600907
 21
337.3245821492
 31
0.0
  0
LINE
  5
1D8
330
1F
100
AcDbEntity
  8
0
  6
Continuous
 62
     7
370
    25
100
AcDbLine
 10
565.110600907
 20
729.2970521542
 30
0.0
 11
565.110600907
 21
721.2695221591
 31
0.0
  0
SPLINE
  5
1D9
330
1F
100
AcDbEntity
  8
0
  6
Continuous
 62
     7
370
    25
100
AcDbSpline
210
0.0
220
0.0
230
1.0
 70
     8
 71
     3
 72
    17
 73
    13
 74
     0
 42
0.000000001
 43
0.00000001
 40
0.0
 40
0.0
 40
0.0
 40
0.0
 40
0.1036840528330376
 40
0.2102667622276604
 40
0.3139762931752493
 40
0.4205880655841456
 40
0.5238453999280959
 40
0.6299661672500473
 40
0.7331400226786787
 40
0.8391691684324373
 40
0.9189379997691306
 40
1.0
 40
1.0
 40
1.0
 40
1.0
 10
523.1197079410643
 20
679.2970521541952
 30
0.0
 10
523.2226640402604
 20
681.5778677586203
 30
0.0
 10
523.4314545440848
 20
686.2032628823337
 30
0.0
 10
525.1789681547922
 20
692.9279600811333
 30
0.0
 10
527.9549347936816
 20
699.3401004613831
 30
0.0
 10
531.7338390820024
 20
705.1443232682087
 30
0.0
 10
536.4447826151682
 20
710.285557721998
 30
0.0
 10
541.8798968007492
 20
714.536542922741
 30
0.0
 10
547.9897327673076
 20
717.8706834190141
 30
0.0
 10
554.0173070323513
 20
719.9492398509217
 30
0.0
 10
559.7918254199924
 20
721.0871251670022
 30
0.0
 10
563.328197614825
 20
721.2083981278544
 30
0.0
 10
565.1106009070293
 20
721.2695221591409
 30
0.0
  0
LINE
  5
1DA
330
1F
100
AcDbEntity
  8
0
  6
Continuous
 62
     7
370
    25
100
AcDbLine
 10
515.110600907
 20
679.2970521542
 30
0.0
 11
523.1197079411
 21
679.2970521542
 31
0.0
  0
SPLINE
  5
1DB
330
1F
100
AcDbEntity
  8
0
  6
Continuous
 62
     7
370
    25
100
AcDbSpline
210
0.0
220
0.0
230
1.0
 70
     8
 71
     3
 72
    11
 73
     7
 74
     0
 42
0.000000001
 43
0.00000001
 40
0.0
 40
0.0
 40
0.0
 40
0.0
 40
0.2497477886999951
 40
0.4996152733637826
 40
0.7497701168085437
 40
1.0
 40
1.0
 40
1.0
 40
1.0
 10
844.5537129009645
 20
508.4583078503425
 30
0.0
 10
844.5963470074485
 20
497.6876015214951
 30
0.0
 10
844.681635653552
 20
476.1410268157941
 30
0.0
 10
844.9530607761475
 20
443.8393288879902
 30
0.0
 10
845.2988041891269
 20
411.5476841870278
 30
0.0
 10
845.5955541281854
 20
390.0483375418845
 30
0.0
 10
845.7439513486339
 20
379.2970521541952
 30
0.0
  0
SPLINE
  5
1DC
330
1F
100
AcDbEntity
  8
0
  6
Continuous
 62
     7
370
    25
100
AcDbSpline
210
0.0
220
0.0
230
1.0
 70
     8
 71
     3
 72
     9
 73
     5
 74
     0
 42
0.000000001
 43
0.00000001
 40
0.0
 40
0.0
 40
0.0
 40
0.0
 40
0.4999249197055474
 40
1.0
 40
1.0
 40
1.0
 40
1.0
 10
844.5537129009645
 20
550.1357964580369
 30
0.0
 10
844.5389035228548
 20
543.19059152986
 30
0.0
 10
844.5092803183975
 20
529.298095568131
 30
0.0
 10
844.5389005575113
 20
515.4055991247545
 30
0.0
 10
844.5537129009645
 20
508.4583078503425
 30
0.0
  0
SPLINE
  5
1DD
330
1F
100
AcDbEntity
  8
0
  6
Continuous
 62
     7
370
    25
100
AcDbSpline
210
0.0
220
0.0
230
1.0
 70
     8
 71
     3
 72
    11
 73
     7
 74
     0
 42
0.000000001
 43
0.00000001
 40
0.0
 40
0.0
 40
0.0
 40
0.0
 40
0.2497935786588409
 40
0.4996593749926217
 40
0.7497761982192852
 40
1.0
 40
1.0
 40
1.0
 40
1.0
 10
845.7439513486339
 20
679.2970521541946
 30
0.0
 10
845.595801566984
 20
668.564521594211
 30
0.0
 10
845.2994591721883
 20
647.0963575986317
 30
0.0
 10
844.9537403533584
 20
614.8253004273968
 30
0.0
 10
844.6819106957295
 20
582.5048814980076
 30
0.0
 10
844.5964515899312
 20
560.9270293353065
 30
0.0
 10
844.5537129009645
 20
550.1357964580369
 30
0.0
  0
SPLINE
  5
1DE
330
1F
100
AcDbEntity
  8
0
  6
Continuous
 62
     7
370
    25
100
AcDbSpline
210
0.0
220
0.0
230
1.0
 70
     8
 71
     3
 72
    13
 73
     9
 74
     0
 42
0.000000001
 43
0.00000001
 40
0.0
 40
0.0
 40
0.0
 40
0.0
 40
0.1744080803952008
 40
0.3488153467904441
 40
0.5237084102528777
 40
0.698603525354938
 40
0.8492714468383558
 40
1.0
 40
1.0
 40
1.0
 40
1.0
 10
805.1106009070282
 20
338.6111670790829
 30
0.0
 10
791.1423039843615
 20
338.6759860418089
 30
0.0
 10
763.2057753320692
 20
338.805623664737
 30
0.0
 10
721.2378301138378
 20
338.7855760512871
 30
0.0
 10
679.2509354389545
 20
338.6028286068271
 30
0.0
 10
639.2093854299509
 20
338.2723370451495
 30
0.0
 10
601.1534904609541
 20
337.8444324350954
 30
0.0
 10
577.12650858766
 20
337.4978888158287
 30
0.0
 10
565.1106009070289
 20
337.3245821492494
 30
0.0
  0
SPLINE
  5
1DF
330
1F
100
AcDbEntity
  8
0
  6
Continuous
 62
     7
370
    25
100
AcDbSpline
210
0.0
220
0.0
230
1.0
 70
     8
 71
     3
 72
    15
 73
    11
 74
     0
 42
0.000000001
 43
0.00000001
 40
0.0
 40
0.0
 40
0.0
 40
0.0
 40
0.124608517403471
 40
0.2492166884812778
 40
0.3739663765738589
 40
0.498715525665012
 40
0.6239452198943903
 40
0.7491745551205462
 40
0.874587099487377
 40
1.0
 40
1.0
 40
1.0
 40
1.0
 10
565.1106009070293
 20
721.2695221591409
 30
0.0
 10
575.0432748717449
 20
721.1251497529679
 30
0.0
 10
594.9085951951992
 20
720.8364053418773
 30
0.0
 10
624.775558118374
 20
720.4793650640584
 30
0.0
 10
654.6874526439526
 20
720.1872745455382
 30
0.0
 10
684.6798891600417
 20
719.971678852493
 30
0.0
 10
714.7319126093961
 20
719.8382625899773
 30
0.0
 10
744.8479736771035
 20
719.7934990397426
 30
0.0
 10
774.9803335079702
 20
719.8332451364315
 30
0.0
 10
795.0671689336102
 20
719.9330398177829
 30
0.0
 10
805.1106009070287
 20
719.9829372293076
 30
0.0
  0
SPLINE
  5
1E0
330
1F
100
AcDbEntity
  8
0
  6
Continuous
 62
     7
370
    25
100
AcDbSpline
210
0.0
220
0.0
230
1.0
 70
     8
 71
     3
 72
    15
 73
    11
 74
     0
 42
0.000000001
 43
0.00000001
 40
0.0
 40
0.0
 40
0.0
 40
0.0
 40
0.1338067183964184
 40
0.2676302517871854
 40
0.4014336098445921
 40
0.535940385944852
 40
0.6704685020422687
 40
0.8049770874156125
 40
0.9024749818287723
 40
1.0
 40
1.0
 40
1.0
 40
1.0
 10
523.1197079410643
 20
379.2970521541955
 30
0.0
 10
523.276702361845
 20
392.6507246048643
 30
0.0
 10
523.5907109323132
 20
419.3597476127238
 30
0.0
 10
523.9072834482414
 20
459.5048272068375
 30
0.0
 10
524.0949639931437
 20
499.7557436444308
 30
0.0
 10
524.1275409271032
 20
540.0973500032997
 30
0.0
 10
524.0118287884342
 20
580.5024283294671
 30
0.0
 10
523.7742080267793
 20
617.1727895701164
 30
0.0
 10
523.469535608873
 20
650.1060712890202
 30
0.0
 10
523.2363279751618
 20
669.5658230459973
 30
0.0
 10
523.1197079410643
 20
679.2970521541952
 30
0.0
  0
SPLINE
  5
1E1
330
1F
100
AcDbEntity
  8
0
  6
Continuous
 62
     7
370
    25
100
AcDbSpline
210
0.0
220
0.0
230
1.0
 70
     8
 71
     3
 72
    13
 73
     9
 74
     0
 42
0.000000001
 43
0.00000001
 40
0.0
 40
0.0
 40
0.0
 40
0.0
 40
0.1746132956186676
 40
0.3492259615952349
 40
0.5242760436431373
 40
0.699327762450658
 40
0.8496361464414217
 40
1.0
 40
1.0
 40
1.0
 40
1.0
 10
806.3423996140465
 20
688.5950234356966
 30
0.0
 10
792.0858089597858
 20
688.5492805253289
 30
0.0
 10
763.572679059433
 20
688.4577948695388
 30
0.0
 10
720.7450903846129
 20
688.4741382377392
 30
0.0
 10
677.900006206242
 20
688.5981029216264
 30
0.0
 10
637.0798078096964
 20
688.8473929416975
 30
0.0
 10
598.321714586658
 20
689.1952060318556
 30
0.0
 10
573.8762245692967
 20
689.4945783121976
 30
0.0
 10
561.6512246454678
 20
689.6442920672412
 30
0.0
  0
LWPOLYLINE
  5
1E2
330
1F
100
AcDbEntity
  8
0
  6
Continuous
 62
     7
370
    25
100
AcDbPolyline
 90
       14
 70
   128
 43
0.0
 10
561.6512246455
 20
689.6442920672
 10
561.7523026586
 20
693.2242574899
 10
561.8892024681
 20
696.7337853512
 10
562.0604638114
 20
700.1354407412
 10
562.2642599035
 20
703.3929393882
 10
562.4984169226
 20
706.4715346899
 10
562.7604371973
 20
709.3383883439
 10
563.0475258488
 20
711.9629206218
 10
563.3566206025
 20
714.3171365532
 10
563.6844244525
 20
716.3759245374
 10
564.0274408294
 20
718.1173242012
 10
564.3820108972
 20
719.5227606414
 10
564.7443525805
 20
720.5772425577
 10
565.110600907
 20
721.2695221591
  0
LWPOLYLINE
  5
1E3
330
1F
100
AcDbEntity
  8
0
  6
Continuous
 62
     7
370
    25
100
AcDbPolyline
 90
       14
 70
   128
 43
0.0
 10
806.342399614
 20
688.5950234357
 10
806.3047114634
 20
692.128377067
 10
806.2546019098
 20
695.5916410749
 10
806.1925922038
 20
698.9487898184
 10
806.1193273842
 20
702.1649014913
 10
806.0355695679
 20
705.2065213861
 10
805.9421900223
 20
708.0420098976
 10
805.8401601021
 20
710.6418716448
 10
805.7305411453
 20
712.979062289
 10
805.6144734325
 20
715.0292698541
 10
805.4931643258
 20
716.7711676262
 10
805.3678757096
 20
718.186635998
 10
805.2399108637
 20
719.2609509532
 10
805.110600907
 20
719.9829372293
  0
SPLINE
  5
1E4
330
1F
100
AcDbEntity
  8
0
  6
Continuous
 62
     7
370
    25
100
AcDbSpline
210
0.0
220
0.0
230
1.0
 70
     8
 71
     3
 72
    15
 73
    11
 74
     0
 42
0.000000001
 43
0.00000001
 40
0.0
 40
0.0
 40
0.0
 40
0.0
 40
0.0974172184372842
 40
0.1948587519063376
 40
0.3287194809848201
 40
0.4625976531018556
 40
0.5964569700920169
 40
0.7309642175962874
 40
0.8654899600960867
 40
1.0
 40
1.0
 40
1.0
 40
1.0
 10
554.1710612341074
 20
682.1780894156711
 30
0.0
 10
554.2699484516962
 20
672.2689309854775
 30
0.0
 10
554.4677475688129
 20
652.4481408302669
 30
0.0
 10
554.7144333972191
 20
618.9630377581274
 30
0.0
 10
554.900565004722
 20
581.7281206344823
 30
0.0
 10
554.9873568155355
 20
540.750572863577
 30
0.0
 10
554.962986987461
 20
499.7003499125894
 30
0.0
 10
554.8217878827883
 20
458.6021190349068
 30
0.0
 10
554.5703816419802
 20
417.4704948180371
 30
0.0
 10
554.3041628573387
 20
390.1003090365929
 30
0.0
 10
554.1710612341074
 20
376.4160148927193
 30
0.0
  0
LWPOLYLINE
  5
1E5
330
1F
100
AcDbEntity
  8
0
  6
Continuous
 62
     7
370
    25
100
AcDbPolyline
 90
       14
 70
   128
 43
0.0
 10
554.1710612341
 20
376.4160148927
 10
550.6432892865
 20
376.5041113471
 10
547.1896685077
 20
376.6212702823
 10
543.8461362106
 20
376.7662725784
 10
540.6474841612
 20
376.9376093864
 10
537.6269965462
 20
377.1334978281
 10
534.8161036284
 20
377.351899549
 10
532.2440546926
 20
377.5905419281
 10
529.9376136868
 20
377.8469417263
 10
527.9207807248
 20
378.1184309264
 10
526.2145423486
 20
378.4021844955
 10
524.8366531485
 20
378.6952497816
 10
523.8014510146
 20
378.9945772375
 10
523.1197079411
 20
379.2970521542
  0
LWPOLYLINE
  5
1E6
330
1F
100
AcDbEntity
  8
0
  6
Continuous
 62
     7
370
    25
100
AcDbPolyline
 90
       14
 70
   128
 43
0.0
 10
554.1710612341
 20
682.1780894157
 10
550.6432892865
 20
682.0899929613
 10
547.1896685077
 20
681.9728340261
 10
543.8461362106
 20
681.82783173
 10
540.6474841612
 20
681.656494922
 10
537.6269965462
 20
681.4606064803
 10
534.8161036284
 20
681.2422047594
 10
532.2440546926
 20
681.0035623803
 10
529.9376136868
 20
680.7471625821
 10
527.9207807248
 20
680.475673382
 10
526.2145423486
 20
680.1919198128
 10
524.8366531485
 20
679.8988545268
 10
523.8014510146
 20
679.5995270708
 10
523.1197079411
 20
679.2970521542
  0
LWPOLYLINE
  5
1E7
330
1F
100
AcDbEntity
  8
0
  6
Continuous
 62
     7
370
    25
100
AcDbPolyline
 90
       14
 70
   128
 43
0.0
 10
561.6512246455
 20
368.9498122411
 10
561.7523026586
 20
365.3698468185
 10
561.8892024681
 20
361.8603189572
 10
562.0604638114
 20
358.4586635672
 10
562.2642599035
 20
355.2011649202
 10
562.4984169226
 20
352.1225696184
 10
562.7604371973
 20
349.2557159645
 10
563.0475258488
 20
346.6311836865
 10
563.3566206025
 20
344.2769677552
 10
563.6844244525
 20
342.218179771
 10
564.0274408294
 20
340.4767801072
 10
564.3820108972
 20
339.071343667
 10
564.7443525805
 20
338.0168617507
 10
565.110600907
 20
337.3245821492
  0
SPLINE
  5
1E8
330
1F
100
AcDbEntity
  8
0
  6
Continuous
 62
     7
370
    25
100
AcDbSpline
210
0.0
220
0.0
230
1.0
 70
     8
 71
     3
 72
    13
 73
     9
 74
     0
 42
0.000000001
 43
0.00000001
 40
0.0
 40
0.0
 40
0.0
 40
0.0
 40
0.1504173208967846
 40
0.3008888751362512
 40
0.4754528444341224
 40
0.650015194138476
 40
0.8250072811368334
 40
1.0
 40
1.0
 40
1.0
 40
1.0
 10
561.651224645468
 20
368.9498122411491
 30
0.0
 10
573.8805741248874
 20
369.0995761674361
 30
0.0
 10
598.3436824063834
 20
369.3991580177699
 30
0.0
 10
637.0797492427647
 20
369.7466709409019
 30
0.0
 10
677.8336565336729
 20
369.9955838795803
 30
0.0
 10
720.6299554168834
 20
370.1197828087577
 30
0.0
 10
763.4797146659056
 20
370.1365351252467
 30
0.0
 10
792.0548207681061
 20
370.044899012025
 30
0.0
 10
806.342399614046
 20
369.9990808726939
 30
0.0
  0
LWPOLYLINE
  5
1E9
330
1F
100
AcDbEntity
  8
0
  6
Continuous
 62
     7
370
    25
100
AcDbPolyline
 90
       14
 70
   128
 43
0.0
 10
805.110600907
 20
338.6111670791
 10
805.2399108637
 20
339.3331533552
 10
805.3678757096
 20
340.4074683104
 10
805.4931643258
 20
341.8229366822
 10
805.6144734325
 20
343.5648344543
 10
805.7305411453
 20
345.6150420194
 10
805.8401601021
 20
347.9522326636
 10
805.9421900223
 20
350.5520944108
 10
806.0355695679
 20
353.3875829223
 10
806.1193273842
 20
356.4292028171
 10
806.1925922038
 20
359.64531449
 10
806.2546019098
 20
363.0024632335
 10
806.3047114634
 20
366.4657272414
 10
806.342399614
 20
369.9990808727
  0
SPLINE
  5
1EA
330
1F
100
AcDbEntity
  8
0
  6
Continuous
 62
     7
370
    25
100
AcDbSpline
210
0.0
220
0.0
230
1.0
 70
     8
 71
     3
 72
    12
 73
     8
 74
     0
 42
0.000000001
 43
0.00000001
 40
0.0
 40
0.0
 40
0.0
 40
0.0
 40
0.1587461308200716
 40
0.3679239806406023
 40
0.5779016979231397
 40
0.7890640455991971
 40
0.9999999999999999
 40
0.9999999999999999
 40
0.9999999999999999
 40
0.9999999999999999
 10
554.1710612341074
 20
376.4160148927193
 30
0.0
 10
554.2107470055336
 20
375.7947510378716
 30
0.0
 10
554.3027262362871
 20
374.3548553420026
 30
0.0
 10
555.2553922543568
 20
372.2355237273509
 30
0.0
 10
556.9455403779997
 20
370.397423361224
 30
0.0
 10
559.1700070072325
 20
369.1604916114052
 30
0.0
 10
560.8244478869566
 20
369.0200135826764
 30
0.0
 10
561.651224645468
 20
368.9498122411491
 30
0.0
  0
SPLINE
  5
1EB
330
1F
100
AcDbEntity
  8
0
  6
Continuous
 62
     7
370
    25
100
AcDbSpline
210
0.0
220
0.0
230
1.0
 70
     8
 71
     3
 72
    12
 73
     8
 74
     0
 42
0.000000001
 43
0.00000001
 40
0.0
 40
0.0
 40
0.0
 40
0.0
 40
0.1608732025308441
 40
0.3700371694335021
 40
0.5794635894917213
 40
0.789817260310067
 40
1.0
 40
1.0
 40
1.0
 40
1.0
 10
561.6512246454678
 20
689.6442920672412
 30
0.0
 10
561.0224475872196
 20
689.6050338892818
 30
0.0
 10
559.5761477735863
 20
689.5147330509776
 30
0.0
 10
557.4542760679025
 20
688.5582906373319
 30
0.0
 10
555.6213417353492
 20
686.8714162412865
 30
0.0
 10
554.3863437732294
 20
684.6535232386304
 30
0.0
 10
554.2428026325823
 20
683.0030104009736
 30
0.0
 10
554.1710612341074
 20
682.1780894156711
 30
0.0
  0
LWPOLYLINE
  5
1EC
330
1F
100
AcDbEntity
  8
0
  6
Continuous
 62
     7
370
    25
100
AcDbPolyline
 90
       14
 70
   128
 43
0.0
 10
844.553712901
 20
550.135796458
 10
843.7743566028
 20
550.195542102
 10
842.6267732753
 20
550.2546360647
 10
841.1234802904
 20
550.3124337734
 10
839.2808749559
 20
550.3683047942
 10
837.1190556609
 20
550.4216397087
 10
834.6616026503
 20
550.4718567613
 10
831.9353208212
 20
550.518408205
 10
828.9699473461
 20
550.5607862754
 10
825.7978273119
 20
550.59852873
 10
822.4535609126
 20
550.6312238892
 10
818.9736260448
 20
550.6585151277
 10
815.3959804217
 20
550.6801047637
 10
811.7596475455
 20
550.6957573063
  0
SPLINE
  5
1ED
330
1F
100
AcDbEntity
  8
0
  6
Continuous
 62
     7
370
    25
100
AcDbSpline
210
0.0
220
0.0
230
1.0
 70
     8
 71
     3
 72
    11
 73
     7
 74
     0
 42
0.000000001
 43
0.00000001
 40
0.0
 40
0.0
 40
0.0
 40
0.0
 40
0.24976808863353
 40
0.4996446970922941
 40
0.749787087558467
 40
1.0
 40
1.0
 40
1.0
 40
1.0
 10
811.7596475454767
 20
550.6957573062831
 30
0.0
 10
811.7577597724644
 20
561.6768094730686
 30
0.0
 10
811.7539834062361
 20
583.6436848799525
 30
0.0
 10
811.8876683155607
 20
616.5780186349785
 30
0.0
 10
812.1384340423647
 20
649.5030940225219
 30
0.0
 10
812.389777044434
 20
671.4265731968208
 30
0.0
 10
812.515466258087
 20
682.3898577731501
 30
0.0
  0
LWPOLYLINE
  5
1EE
330
1F
100
AcDbEntity
  8
0
  6
Continuous
 62
     7
370
    25
100
AcDbPolyline
 90
       14
 70
   128
 43
0.0
 10
845.7439513486
 20
679.2970521542
 10
844.9861955022
 20
679.6306845445
 10
843.8479300754
 20
679.960564611
 10
842.3419570043
 20
680.2829822317
 10
840.485213789
 20
680.5943112141
 10
838.2985829998
 20
680.891050078
 10
835.8066574132
 20
681.1698614367
 10
833.0374634202
 20
681.427609532
 10
830.0221458164
 20
681.6613955017
 10
826.7946175205
 20
681.8685899827
 10
823.3911781597
 20
682.0468626835
 10
819.850105812
 20
682.1942085921
 10
816.211226497
 20
682.3089705266
 10
812.5154662581
 20
682.3898577732
  0
LWPOLYLINE
  5
1EF
330
1F
100
AcDbEntity
  8
0
  6
Continuous
 62
     7
370
    25
100
AcDbPolyline
 90
       14
 70
   128
 43
0.0
 10
845.7439513486
 20
379.2970521542
 10
844.9861955022
 20
378.9634197639
 10
843.8479300754
 20
378.6335396974
 10
842.3419570043
 20
378.3111220767
 10
840.485213789
 20
377.9997930943
 10
838.2985829998
 20
377.7030542304
 10
835.8066574132
 20
377.4242428717
 10
833.0374634202
 20
377.1664947764
 10
830.0221458164
 20
376.9327088067
 10
826.7946175205
 20
376.7255143256
 10
823.3911781597
 20
376.5472416249
 10
819.850105812
 20
376.3998957163
 10
816.211226497
 20
376.2851337818
 10
812.5154662581
 20
376.2042465352
  0
SPLINE
  5
1F0
330
1F
100
AcDbEntity
  8
0
  6
Continuous
 62
     7
370
    25
100
AcDbSpline
210
0.0
220
0.0
230
1.0
 70
     8
 71
     3
 72
    11
 73
     7
 74
     0
 42
0.000000001
 43
0.00000001
 40
0.0
 40
0.0
 40
0.0
 40
0.0
 40
0.2498070594180488
 40
0.4996818527105465
 40
0.7497915781304344
 40
1.0
 40
1.0
 40
1.0
 40
1.0
 10
812.5154662580871
 20
376.2042465352397
 30
0.0
 10
812.3899680882845
 20
387.149740712454
 30
0.0
 10
812.1389377205086
 20
409.0436968802429
 30
0.0
 10
811.8880749312017
 20
441.9493609548485
 30
0.0
 10
811.7540039134333
 20
474.9014570135794
 30
0.0
 10
811.7577660874086
 20
496.897937276587
 30
0.0
 10
811.7596475454734
 20
507.8983470020971
 30
0.0
  0
LWPOLYLINE
  5
1F1
330
1F
100
AcDbEntity
  8
0
  6
Continuous
 62
     7
370
    25
100
AcDbPolyline
 90
       14
 70
   128
 43
0.0
 10
844.553712901
 20
508.4583078503
 10
843.7743566028
 20
508.3985622064
 10
842.6267732753
 20
508.3394682437
 10
841.1234802904
 20
508.281670535
 10
839.2808749559
 20
508.2257995142
 10
837.1190556609
 20
508.1724645997
 10
834.6616026503
 20
508.1222475471
 10
831.9353208212
 20
508.0756961034
 10
828.9699473461
 20
508.0333180329
 10
825.7978273119
 20
507.9955755784
 10
822.4535609126
 20
507.9628804192
 10
818.9736260448
 20
507.9355891807
 10
815.3959804217
 20
507.9139995447
 10
811.7596475455
 20
507.8983470021
  0
SPLINE
  5
1F2
330
1F
100
AcDbEntity
  8
0
  6
Continuous
 62
     7
370
    25
100
AcDbSpline
210
0.0
220
0.0
230
1.0
 70
     8
 71
     3
 72
    12
 73
     8
 74
     0
 42
0.000000001
 43
0.00000001
 40
0.0
 40
0.0
 40
0.0
 40
0.0
 40
0.1510982574714506
 40
0.3625908980513454
 40
0.5748092513143188
 40
0.7875647343591609
 40
1.0
 40
1.0
 40
1.0
 40
1.0
 10
806.342399614046
 20
369.9990808726939
 30
0.0
 10
806.8323289896222
 20
370.0317309014144
 30
0.0
 10
808.0080138402927
 20
370.1100812638428
 30
0.0
 10
809.7575028190677
 20
370.8825857971119
 30
0.0
 10
811.2986838525932
 20
372.2860082905482
 30
0.0
 10
812.336760117855
 20
374.1360334444133
 30
0.0
 10
812.4559274602356
 20
375.5151883922534
 30
0.0
 10
812.515466258087
 20
376.2042465352396
 30
0.0
  0
SPLINE
  5
1F3
330
1F
100
AcDbEntity
  8
0
  6
Continuous
 62
     7
370
    25
100
AcDbSpline
210
0.0
220
0.0
230
1.0
 70
     8
 71
     3
 72
    12
 73
     8
 74
     0
 42
0.000000001
 43
0.00000001
 40
0.0
 40
0.0
 40
0.0
 40
0.0
 40
0.1554052485532811
 40
0.3666179083237818
 40
0.5776099685932107
 40
0.7888216133894742
 40
1.0
 40
1.0
 40
1.0
 40
1.0
 10
812.5154662580869
 20
682.3898577731501
 30
0.0
 10
812.4849133474662
 20
682.89244036452
 30
0.0
 10
812.4128357034404
 20
684.0780874396562
 30
0.0
 10
811.6369295236303
 20
685.8317538491312
 30
0.0
 10
810.2410594259755
 20
687.3648673677532
 30
0.0
 10
808.4027495057728
 20
688.4024483267816
 30
0.0
 10
807.0291468596708
 20
688.5308351023682
 30
0.0
 10
806.3423996140465
 20
688.5950234356966
 30
0.0
  0
ARC
  5
1F4
330
1F
100
AcDbEntity
  8
0
  6
Continuous
 62
     7
370
    25
100
AcDbCircle
 10
745.110600907
 20
529.2970521542
 30
0.0
 40
70.00000000000011
100
AcDbArc
 50
17.8000290607
 51
342.1999709393
  0
LINE
  5
1F5
330
1F
100
AcDbEntity
  8
0
  6
Continuous
 62
     7
370
    25
100
AcDbLine
 10
811.7596475455
 20
507.8983470021
 30
0.0
 11
811.8177932072
 21
526.3728552415
 31
0.0
  0
LINE
  5
1F6
330
1F
100
AcDbEntity
  8
0
  6
Continuous
 62
     7
370
    25
100
AcDbLine
 10
811.8177932072
 20
532.2212490669
 30
0.0
 11
811.8177932072
 21
526.3728552415
 31
0.0
  0
LINE
  5
1F7
330
1F
100
AcDbEntity
  8
0
  6
Continuous
 62
     7
370
    25
100
AcDbLine
 10
811.8177932072
 20
532.2212490669
 30
0.0
 11
811.7596475455
 21
550.6957573063
 31
0.0
  0
LINE
  5
1F8
330
1F
100
AcDbEntity
  8
0
  6
Continuous
 62
     7
370
    25
100
AcDbLine
 10
811.1989382578
 20
526.3999835566
 30
0.0
 11
811.1989382578
 21
532.1941207518
 31
0.0
  0
LINE
  5
1F9
330
1F
100
AcDbEntity
  8
0
  6
Continuous
 62
     7
370
    25
100
AcDbLine
 10
811.8177932072
 20
532.2212490669
 30
0.0
 11
811.1989382578
 21
532.1941207518
 31
0.0
  0
LINE
  5
1FA
330
1F
100
AcDbEntity
  8
0
  6
Continuous
 62
     7
370
    25
100
AcDbLine
 10
811.1989382578
 20
526.3999835566
 30
0.0
 11
811.8177932072
 21
526.3728552415
 31
0.0
  0
ARC
  5
1FB
330
1F
100
AcDbEntity
  8
0
  6
Continuous
 62
     7
370
    25
100
AcDbCircle
 10
745.110600907
 20
529.2970521542
 30
0.0
 40
66.77125453482506
100
AcDbArc
 50
2.5100283872
 51
357.4899716128
  0
ARC
  5
1FC
330
1F
100
AcDbEntity
  8
0
  6
Continuous
 62
     7
370
    25
100
AcDbCircle
 10
745.110600907
 20
529.2970521542
 30
0.0
 40
66.15180526824551
100
AcDbArc
 50
2.5100283872
 51
357.4899716128
  0
CIRCLE
  5
1FD
330
1F
100
AcDbEntity
  8
0
  6
Continuous
 62
     7
370
    25
100
AcDbCircle
 10
745.110600907
 20
529.2970521542
 30
0.0
 40
58.61177143234625
  0
CIRCLE
  5
1FE
330
1F
100
AcDbEntity
  8
0
  6
Continuous
 62
     7
370
    25
100
AcDbCircle
 10
745.110600907
 20
529.2970521542
 30
0.0
 40
57.5
  0
LINE
  5
1FF
330
1F
100
AcDbEntity
  8
0
  6
Continuous
 62
     7
370
    25
100
AcDbLine
 10
894.610600907
 20
379.2970521542
 30
0.0
 11
894.610600907
 21
679.2970521542
 31
0.0
  0
LINE
  5
200
330
1F
100
AcDbEntity
  8
0
  6
Continuous
 62
     7
370
    25
100
AcDbLine
 10
1186.110600907
 20
327.7970521542
 30
0.0
 11
946.110600907
 21
327.7970521542
 31
0.0
  0
LINE
  5
201
330
1F
100
AcDbEntity
  8
0
  6
Continuous
 62
     7
370
    25
100
AcDbLine
 10
946.110600907
 20
730.7970521542
 30
0.0
 11
1186.110600907
 21
730.7970521542
 31
0.0
  0
LINE
  5
202
330
1F
100
AcDbEntity
  8
0
  6
Continuous
 62
     7
370
    25
100
AcDbLine
 10
894.610600907
 20
679.2970521542
 30
0.0
 11
896.110600907
 21
679.2970521542
 31
0.0
  0
LINE
  5
203
330
1F
100
AcDbEntity
  8
0
  6
Continuous
 62
     7
370
    25
100
AcDbLine
 10
896.110600907
 20
679.2970521542
 30
0.0
 11
896.110600907
 21
379.2970521542
 31
0.0
  0
LINE
  5
204
330
1F
100
AcDbEntity
  8
0
  6
Continuous
 62
     7
370
    25
100
AcDbLine
 10
894.610600907
 20
379.2970521542
 30
0.0
 11
896.110600907
 21
379.2970521542
 31
0.0
  0
LINE
  5
205
330
1F
100
AcDbEntity
  8
0
  6
Continuous
 62
     7
370
    25
100
AcDbLine
 10
946.110600907
 20
730.7970521542
 30
0.0
 11
946.110600907
 21
729.2970521542
 31
0.0
  0
ARC
  5
206
330
1F
100
AcDbEntity
  8
0
  6
Continuous
 62
     7
370
    25
100
AcDbCircle
 10
946.110600907
 20
679.2970521542
 30
0.0
 40
50.0
100
AcDbArc
 50
90.0
 51
180.0
  0
ARC
  5
207
330
1F
100
AcDbEntity
  8
0
  6
Continuous
 62
     7
370
    25
100
AcDbCircle
 10
946.110600907
 20
379.2970521542
 30
0.0
 40
50.0
100
AcDbArc
 50
180.0
 51
270.0
  0
LINE
  5
208
330
1F
100
AcDbEntity
  8
0
  6
Continuous
 62
     7
370
    25
100
AcDbLine
 10
946.110600907
 20
329.2970521542
 30
0.0
 11
946.110600907
 21
327.7970521542
 31
0.0
  0
LINE
  5
209
330
1F
100
AcDbEntity
  8
0
  6
Continuous
 62
     7
370
    25
100
AcDbLine
 10
946.110600907
 20
329.2970521542
 30
0.0
 11
1186.110600907
 21
329.2970521542
 31
0.0
  0
LINE
  5
20A
330
1F
100
AcDbEntity
  8
0
  6
Continuous
 62
     7
370
    25
100
AcDbLine
 10
1186.110600907
 20
329.2970521542
 30
0.0
 11
1186.110600907
 21
327.7970521542
 31
0.0
  0
LINE
  5
20B
330
1F
100
AcDbEntity
  8
0
  6
Continuous
 62
     7
370
    25
100
AcDbLine
 10
1186.110600907
 20
730.7970521542
 30
0.0
 11
1186.110600907
 21
729.2970521542
 31
0.0
  0
LINE
  5
20C
330
1F
100
AcDbEntity
  8
0
  6
Continuous
 62
     7
370
    25
100
AcDbLine
 10
1186.110600907
 20
729.2970521542
 30
0.0
 11
946.110600907
 21
729.2970521542
 31
0.0
  0
ARC
  5
20D
330
1F
100
AcDbEntity
  8
0
  6
Continuous
 62
     7
370
    25
100
AcDbCircle
 10
1186.110600907
 20
379.2970521542
 30
0.0
 40
50.00000000000019
100
AcDbArc
 50
270.0
 51
312.7248897383
  0
ARC
  5
20E
330
1F
100
AcDbEntity
  8
0
  6
Continuous
 62
     7
370
    25
100
AcDbCircle
 10
1186.110600907
 20
379.2970521542
 30
0.0
 40
50.00000000000016
100
AcDbArc
 50
324.610686372
 51
0.0
  0
ARC
  5
20F
330
1F
100
AcDbEntity
  8
0
  6
Continuous
 62
     7
370
    25
100
AcDbCircle
 10
1186.110600907
 20
679.2970521542
 30
0.0
 40
50.0
100
AcDbArc
 50
0.0
 51
35.3893136441
  0
ARC
  5
210
330
1F
100
AcDbEntity
  8
0
  6
Continuous
 62
     7
370
    25
100
AcDbCircle
 10
1186.110600907
 20
679.2970521542
 30
0.0
 40
50.00000000000017
100
AcDbArc
 50
47.2751102442
 51
90.0
  0
LINE
  5
211
330
1F
100
AcDbEntity
  8
0
  6
Continuous
 62
     7
370
    25
100
AcDbLine
 10
1236.110600907
 20
379.2970521542
 30
0.0
 11
1236.110600907
 21
679.2970521542
 31
0.0
  0
SPLINE
  5
212
330
1F
100
AcDbEntity
  8
0
  6
Continuous
 62
     7
370
    25
100
AcDbSpline
210
0.0
220
0.0
230
1.0
 70
     8
 71
     3
 72
    17
 73
    13
 74
     0
 42
0.000000001
 43
0.00000001
 40
0.0
 40
0.0
 40
0.0
 40
0.0
 40
0.1074260594320192
 40
0.2148526997280483
 40
0.322264273722315
 40
0.429653955518876
 40
0.5370276521416718
 40
0.6443945231825016
 40
0.7517645488537396
 40
0.8591473788841273
 40
0.966550546517281
 40
1.0
 40
1.0
 40
1.0
 40
1.0
 10
896.313126542424
 20
532.3970521541952
 30
0.0
 10
896.3054169764251
 20
532.3627685732044
 30
0.0
 10
896.2899978027413
 20
532.2942012258479
 30
0.0
 10
896.2710135060465
 20
531.7596578912576
 30
0.0
 10
896.2572495976858
 20
530.9724600019043
 30
0.0
 10
896.2496911559879
 20
529.9898374778238
 30
0.0
 10
896.2486612847622
 20
528.930553539861
 30
0.0
 10
896.2542168958374
 20
527.9139706347888
 30
0.0
 10
896.2660799019978
 20
527.0467333366769
 30
0.0
 10
896.2836708557867
 20
526.45801656313
 30
0.0
 10
896.3003430009352
 20
526.1792022307679
 30
0.0
 10
896.3107467700003
 20
526.2240992483698
 30
0.0
 10
896.3132174403124
 20
526.2347613197597
 30
0.0
  0
LINE
  5
213
330
1F
100
AcDbEntity
  8
0
  6
Continuous
 62
     7
370
    25
100
AcDbLine
 10
896.1670091457
 20
541.7970521542
 30
0.0
 11
896.5496276223
 21
541.7970521542
 31
0.0
  0
SPLINE
  5
214
330
1F
100
AcDbEntity
  8
0
  6
Continuous
 62
     7
370
    25
100
AcDbSpline
210
0.0
220
0.0
230
1.0
 70
     8
 71
     3
 72
    17
 73
    13
 74
     0
 42
0.000000001
 43
0.00000001
 40
0.0
 40
0.0
 40
0.0
 40
0.0
 40
0.0740640077495207
 40
0.1814969431858104
 40
0.288911824757939
 40
0.3962740608575926
 40
0.5035723786411953
 40
0.6108274724882841
 40
0.718082801100431
 40
0.8253816495165308
 40
0.9327443748459495
 40
1.0
 40
1.0
 40
1.0
 40
1.0
 10
896.5496276223138
 20
541.7970521541952
 30
0.0
 10
896.5547809014575
 20
541.807694904176
 30
0.0
 10
896.5674092271505
 20
541.8337754073422
 30
0.0
 10
896.5867625304282
 20
542.0828463152977
 30
0.0
 10
896.6044231180097
 20
542.5409397082517
 30
0.0
 10
896.6159492005047
 20
543.1441677828966
 30
0.0
 10
896.6197804771107
 20
543.8198917751133
 30
0.0
 10
896.6154112948568
 20
544.4928155876651
 30
0.0
 10
896.6034340917953
 20
545.088114150629
 30
0.0
 10
896.5854667636887
 20
545.5347709878477
 30
0.0
 10
896.5664414749223
 20
545.7653574564524
 30
0.0
 10
896.5543028924228
 20
545.7882391072142
 30
0.0
 10
896.5496276223138
 20
545.7970521541952
 30
0.0
  0
LINE
  5
215
330
1F
100
AcDbEntity
  8
0
  6
Continuous
 62
     7
370
    25
100
AcDbLine
 10
896.5496276223
 20
545.7970521542
 30
0.0
 11
896.1670091457
 21
545.7970521542
 31
0.0
  0
SPLINE
  5
216
330
1F
100
AcDbEntity
  8
0
  6
Continuous
 62
     7
370
    25
100
AcDbSpline
210
0.0
220
0.0
230
1.0
 70
     8
 71
     3
 72
    17
 73
    13
 74
     0
 42
0.000000001
 43
0.00000001
 40
0.0
 40
0.0
 40
0.0
 40
0.0
 40
0.1073802933874055
 40
0.2147607566167821
 40
0.3221368944420741
 40
0.4295072075045161
 40
0.5368735323287525
 40
0.6442382235266144
 40
0.7516036621099039
 40
0.8589722343022373
 40
0.9663460823138678
 40
1.0
 40
1.0
 40
1.0
 40
1.0
 10
896.1670091457094
 20
545.7970521541952
 30
0.0
 10
896.1643951040791
 20
545.7749380066105
 30
0.0
 10
896.159167016684
 20
545.7307096764637
 30
0.0
 10
896.152848255496
 20
545.3859192343277
 30
0.0
 10
896.1483219130268
 20
544.8781698438116
 30
0.0
 10
896.1458623694632
 20
544.2442164813823
 30
0.0
 10
896.1455282305083
 20
543.5609912387963
 30
0.0
 10
896.1473301814731
 20
542.9042305572324
 30
0.0
 10
896.1512210999343
 20
542.3476462469417
 30
0.0
 10
896.1570364709194
 20
541.9565264711263
 30
0.0
 10
896.1627142029952
 20
541.8088977368603
 30
0.0
 10
896.1661816883264
 20
541.7993343068298
 30
0.0
 10
896.1670091457094
 20
541.7970521541952
 30
0.0
  0
LINE
  5
217
330
1F
100
AcDbEntity
  8
0
  6
Continuous
 62
     7
370
    25
100
AcDbLine
 10
896.5496276223
 20
524.7970521542
 30
0.0
 11
896.1670091457
 21
524.7970521542
 31
0.0
  0
SPLINE
  5
218
330
1F
100
AcDbEntity
  8
0
  6
Continuous
 62
     7
370
    25
100
AcDbSpline
210
0.0
220
0.0
230
1.0
 70
     8
 71
     3
 72
    17
 73
    13
 74
     0
 42
0.000000001
 43
0.00000001
 40
0.0
 40
0.0
 40
0.0
 40
0.0
 40
0.1073802933874068
 40
0.2147607566167833
 40
0.3221368944420757
 40
0.4295072075045169
 40
0.5368735323287535
 40
0.644238223526615
 40
0.7516036621099045
 40
0.8589722343022383
 40
0.9663460823138681
 40
1.0
 40
1.0
 40
1.0
 40
1.0
 10
896.1670091457094
 20
524.7970521541952
 30
0.0
 10
896.1643951040791
 20
524.7749380066106
 30
0.0
 10
896.159167016684
 20
524.7307096764637
 30
0.0
 10
896.152848255496
 20
524.3859192343277
 30
0.0
 10
896.1483219130267
 20
523.8781698438116
 30
0.0
 10
896.1458623694632
 20
523.2442164813823
 30
0.0
 10
896.1455282305083
 20
522.5609912387964
 30
0.0
 10
896.1473301814731
 20
521.9042305572325
 30
0.0
 10
896.1512210999344
 20
521.3476462469418
 30
0.0
 10
896.1570364709194
 20
520.9565264711264
 30
0.0
 10
896.1627142029951
 20
520.8088977368604
 30
0.0
 10
896.1661816883264
 20
520.7993343068298
 30
0.0
 10
896.1670091457094
 20
520.7970521541952
 30
0.0
  0
LINE
  5
219
330
1F
100
AcDbEntity
  8
0
  6
Continuous
 62
     7
370
    25
100
AcDbLine
 10
896.1670091457
 20
520.7970521542
 30
0.0
 11
896.5496276223
 21
520.7970521542
 31
0.0
  0
SPLINE
  5
21A
330
1F
100
AcDbEntity
  8
0
  6
Continuous
 62
     7
370
    25
100
AcDbSpline
210
0.0
220
0.0
230
1.0
 70
     8
 71
     3
 72
    17
 73
    13
 74
     0
 42
0.000000001
 43
0.00000001
 40
0.0
 40
0.0
 40
0.0
 40
0.0
 40
0.0740640077495206
 40
0.1814969431858105
 40
0.2889118247579393
 40
0.3962740608575931
 40
0.5035723786411959
 40
0.6108274724882844
 40
0.7180828011004315
 40
0.8253816495165316
 40
0.9327443748459505
 40
1.0
 40
1.0
 40
1.0
 40
1.0
 10
896.5496276223138
 20
520.7970521541952
 30
0.0
 10
896.5547809014575
 20
520.807694904176
 30
0.0
 10
896.5674092271505
 20
520.8337754073422
 30
0.0
 10
896.5867625304284
 20
521.0828463152977
 30
0.0
 10
896.6044231180097
 20
521.5409397082517
 30
0.0
 10
896.6159492005047
 20
522.1441677828966
 30
0.0
 10
896.6197804771107
 20
522.8198917751134
 30
0.0
 10
896.6154112948568
 20
523.4928155876652
 30
0.0
 10
896.6034340917953
 20
524.088114150629
 30
0.0
 10
896.5854667636887
 20
524.5347709878478
 30
0.0
 10
896.5664414749224
 20
524.7653574564524
 30
0.0
 10
896.5543028924228
 20
524.7882391072142
 30
0.0
 10
896.5496276223138
 20
524.7970521541952
 30
0.0
  0
LINE
  5
21B
330
1F
100
AcDbEntity
  8
0
  6
Continuous
 62
     7
370
    25
100
AcDbLine
 10
896.5496276223
 20
508.7970521542
 30
0.0
 11
896.1670091457
 21
508.7970521542
 31
0.0
  0
SPLINE
  5
21C
330
1F
100
AcDbEntity
  8
0
  6
Continuous
 62
     7
370
    25
100
AcDbSpline
210
0.0
220
0.0
230
1.0
 70
     8
 71
     3
 72
    17
 73
    13
 74
     0
 42
0.000000001
 43
0.00000001
 40
0.0
 40
0.0
 40
0.0
 40
0.0
 40
0.1073802933874058
 40
0.2147607566167824
 40
0.3221368944420749
 40
0.4295072075045164
 40
0.5368735323287533
 40
0.6442382235266144
 40
0.7516036621099039
 40
0.8589722343022376
 40
0.9663460823138679
 40
1.0
 40
1.0
 40
1.0
 40
1.0
 10
896.1670091457094
 20
508.7970521541951
 30
0.0
 10
896.1643951040791
 20
508.7749380066106
 30
0.0
 10
896.159167016684
 20
508.7307096764636
 30
0.0
 10
896.152848255496
 20
508.3859192343277
 30
0.0
 10
896.1483219130267
 20
507.8781698438116
 30
0.0
 10
896.1458623694632
 20
507.2442164813823
 30
0.0
 10
896.1455282305083
 20
506.5609912387963
 30
0.0
 10
896.1473301814731
 20
505.9042305572323
 30
0.0
 10
896.1512210999343
 20
505.3476462469417
 30
0.0
 10
896.1570364709194
 20
504.9565264711263
 30
0.0
 10
896.1627142029951
 20
504.8088977368604
 30
0.0
 10
896.1661816883264
 20
504.7993343068298
 30
0.0
 10
896.1670091457094
 20
504.7970521541951
 30
0.0
  0
LINE
  5
21D
330
1F
100
AcDbEntity
  8
0
  6
Continuous
 62
     7
370
    25
100
AcDbLine
 10
896.1670091457
 20
504.7970521542
 30
0.0
 11
896.5496276223
 21
504.7970521542
 31
0.0
  0
SPLINE
  5
21E
330
1F
100
AcDbEntity
  8
0
  6
Continuous
 62
     7
370
    25
100
AcDbSpline
210
0.0
220
0.0
230
1.0
 70
     8
 71
     3
 72
    17
 73
    13
 74
     0
 42
0.000000001
 43
0.00000001
 40
0.0
 40
0.0
 40
0.0
 40
0.0
 40
0.0740640077495204
 40
0.1814969431858102
 40
0.2889118247579407
 40
0.3962740608575929
 40
0.503572378641195
 40
0.6108274724882841
 40
0.718082801100432
 40
0.8253816495165306
 40
0.9327443748459493
 40
0.9999999999999999
 40
0.9999999999999999
 40
0.9999999999999999
 40
0.9999999999999999
 10
896.5496276223138
 20
504.7970521541951
 30
0.0
 10
896.5547809014575
 20
504.807694904176
 30
0.0
 10
896.5674092271505
 20
504.8337754073421
 30
0.0
 10
896.5867625304282
 20
505.0828463152978
 30
0.0
 10
896.6044231180097
 20
505.5409397082516
 30
0.0
 10
896.6159492005047
 20
506.1441677828966
 30
0.0
 10
896.6197804771107
 20
506.8198917751134
 30
0.0
 10
896.6154112948568
 20
507.4928155876651
 30
0.0
 10
896.6034340917954
 20
508.0881141506291
 30
0.0
 10
896.5854667636887
 20
508.5347709878477
 30
0.0
 10
896.5664414749223
 20
508.7653574564524
 30
0.0
 10
896.5543028924228
 20
508.7882391072142
 30
0.0
 10
896.5496276223138
 20
508.7970521541951
 30
0.0
  0
LINE
  5
21F
330
1F
100
AcDbEntity
  8
0
  6
Continuous
 62
     7
370
    25
100
AcDbLine
 10
896.110600907
 20
679.2970521542
 30
0.0
 11
905.4772504654
 21
679.2970521542
 31
0.0
  0
SPLINE
  5
220
330
1F
100
AcDbEntity
  8
0
  6
Continuous
 62
     7
370
    25
100
AcDbSpline
210
0.0
220
0.0
230
1.0
 70
     8
 71
     3
 72
    11
 73
     7
 74
     0
 42
0.000000001
 43
0.00000001
 40
0.0
 40
0.0
 40
0.0
 40
0.0
 40
0.2497477886999952
 40
0.4996152733637829
 40
0.7497701168085439
 40
1.0
 40
1.0
 40
1.0
 40
1.0
 10
906.6674889130928
 20
550.1357964580478
 30
0.0
 10
906.6248548066088
 20
560.9065027868951
 30
0.0
 10
906.5395661605054
 20
582.4530774925962
 30
0.0
 10
906.2681410379097
 20
614.7547754204002
 30
0.0
 10
905.9223976249303
 20
647.0464201213625
 30
0.0
 10
905.6256476858719
 20
668.5457667665058
 30
0.0
 10
905.4772504654234
 20
679.2970521541951
 30
0.0
  0
SPLINE
  5
221
330
1F
100
AcDbEntity
  8
0
  6
Continuous
 62
     7
370
    25
100
AcDbSpline
210
0.0
220
0.0
230
1.0
 70
     8
 71
     3
 72
     9
 73
     5
 74
     0
 42
0.000000001
 43
0.00000001
 40
0.0
 40
0.0
 40
0.0
 40
0.0
 40
0.4999249197055475
 40
1.0
 40
1.0
 40
1.0
 40
1.0
 10
906.6674889130928
 20
508.4583078503546
 30
0.0
 10
906.6822982912026
 20
515.4035127785313
 30
0.0
 10
906.7119214956598
 20
529.2960087402599
 30
0.0
 10
906.682301256546
 20
543.188505183636
 30
0.0
 10
906.6674889130928
 20
550.1357964580478
 30
0.0
  0
SPLINE
  5
222
330
1F
100
AcDbEntity
  8
0
  6
Continuous
 62
     7
370
    25
100
AcDbSpline
210
0.0
220
0.0
230
1.0
 70
     8
 71
     3
 72
    11
 73
     7
 74
     0
 42
0.000000001
 43
0.00000001
 40
0.0
 40
0.0
 40
0.0
 40
0.0
 40
0.2497935786588411
 40
0.4996593749926217
 40
0.7497761982192854
 40
1.0
 40
1.0
 40
1.0
 40
1.0
 10
905.4772504654234
 20
379.2970521541957
 30
0.0
 10
905.6254002470731
 20
390.0295827141795
 30
0.0
 10
905.9217426418693
 20
411.4977467097592
 30
0.0
 10
906.2674614606987
 20
443.768803880994
 30
0.0
 10
906.539291118328
 20
476.0892228103837
 30
0.0
 10
906.6247502241262
 20
497.6670749730849
 30
0.0
 10
906.6674889130928
 20
508.4583078503546
 30
0.0
  0
LINE
  5
223
330
1F
100
AcDbEntity
  8
0
  6
Continuous
 62
     7
370
    25
100
AcDbLine
 10
896.110600907
 20
379.2970521542
 30
0.0
 11
905.4772504654
 21
379.2970521542
 31
0.0
  0
LINE
  5
224
330
1F
100
AcDbEntity
  8
0
  6
Continuous
 62
     7
370
    25
100
AcDbLine
 10
896.5496276223
 20
516.7970521542
 30
0.0
 11
896.1670091457
 21
516.7970521542
 31
0.0
  0
SPLINE
  5
225
330
1F
100
AcDbEntity
  8
0
  6
Continuous
 62
     7
370
    25
100
AcDbSpline
210
0.0
220
0.0
230
1.0
 70
     8
 71
     3
 72
    17
 73
    13
 74
     0
 42
0.000000001
 43
0.00000001
 40
0.0
 40
0.0
 40
0.0
 40
0.0
 40
0.1073802933874059
 40
0.2147607566167825
 40
0.3221368944420751
 40
0.4295072075045163
 40
0.536873532328753
 40
0.6442382235266144
 40
0.7516036621099039
 40
0.8589722343022382
 40
0.966346082313868
 40
1.0
 40
1.0
 40
1.0
 40
1.0
 10
896.1670091457094
 20
516.7970521541952
 30
0.0
 10
896.1643951040791
 20
516.7749380066106
 30
0.0
 10
896.159167016684
 20
516.7307096764636
 30
0.0
 10
896.152848255496
 20
516.3859192343277
 30
0.0
 10
896.1483219130267
 20
515.8781698438116
 30
0.0
 10
896.1458623694632
 20
515.2442164813823
 30
0.0
 10
896.1455282305083
 20
514.5609912387963
 30
0.0
 10
896.1473301814731
 20
513.9042305572324
 30
0.0
 10
896.1512210999343
 20
513.3476462469417
 30
0.0
 10
896.1570364709194
 20
512.9565264711264
 30
0.0
 10
896.1627142029951
 20
512.8088977368604
 30
0.0
 10
896.1661816883264
 20
512.7993343068298
 30
0.0
 10
896.1670091457094
 20
512.7970521541952
 30
0.0
  0
LINE
  5
226
330
1F
100
AcDbEntity
  8
0
  6
Continuous
 62
     7
370
    25
100
AcDbLine
 10
896.1670091457
 20
512.7970521542
 30
0.0
 11
896.5496276223
 21
512.7970521542
 31
0.0
  0
SPLINE
  5
227
330
1F
100
AcDbEntity
  8
0
  6
Continuous
 62
     7
370
    25
100
AcDbSpline
210
0.0
220
0.0
230
1.0
 70
     8
 71
     3
 72
    17
 73
    13
 74
     0
 42
0.000000001
 43
0.00000001
 40
0.0
 40
0.0
 40
0.0
 40
0.0
 40
0.0740640077495204
 40
0.1814969431858101
 40
0.2889118247579379
 40
0.3962740608575923
 40
0.5035723786411949
 40
0.6108274724882832
 40
0.7180828011004305
 40
0.8253816495165305
 40
0.9327443748459494
 40
1.0
 40
1.0
 40
1.0
 40
1.0
 10
896.5496276223138
 20
512.7970521541952
 30
0.0
 10
896.5547809014575
 20
512.807694904176
 30
0.0
 10
896.5674092271505
 20
512.833775407342
 30
0.0
 10
896.5867625304282
 20
513.0828463152977
 30
0.0
 10
896.6044231180097
 20
513.5409397082517
 30
0.0
 10
896.6159492005046
 20
514.1441677828966
 30
0.0
 10
896.6197804771108
 20
514.8198917751134
 30
0.0
 10
896.6154112948568
 20
515.4928155876652
 30
0.0
 10
896.6034340917953
 20
516.088114150629
 30
0.0
 10
896.5854667636887
 20
516.5347709878478
 30
0.0
 10
896.5664414749224
 20
516.7653574564523
 30
0.0
 10
896.5543028924228
 20
516.7882391072142
 30
0.0
 10
896.5496276223138
 20
516.7970521541952
 30
0.0
  0
LINE
  5
228
330
1F
100
AcDbEntity
  8
0
  6
Continuous
 62
     7
370
    25
100
AcDbLine
 10
896.5496276223
 20
553.7970521542
 30
0.0
 11
896.1670091457
 21
553.7970521542
 31
0.0
  0
SPLINE
  5
229
330
1F
100
AcDbEntity
  8
0
  6
Continuous
 62
     7
370
    25
100
AcDbSpline
210
0.0
220
0.0
230
1.0
 70
     8
 71
     3
 72
    17
 73
    13
 74
     0
 42
0.000000001
 43
0.00000001
 40
0.0
 40
0.0
 40
0.0
 40
0.0
 40
0.1073802933874055
 40
0.2147607566167822
 40
0.3221368944420747
 40
0.4295072075045162
 40
0.5368735323287532
 40
0.6442382235266144
 40
0.7516036621099039
 40
0.8589722343022377
 40
0.966346082313868
 40
1.0
 40
1.0
 40
1.0
 40
1.0
 10
896.1670091457094
 20
553.7970521541952
 30
0.0
 10
896.1643951040791
 20
553.7749380066105
 30
0.0
 10
896.159167016684
 20
553.7307096764637
 30
0.0
 10
896.152848255496
 20
553.3859192343277
 30
0.0
 10
896.1483219130268
 20
552.8781698438116
 30
0.0
 10
896.1458623694632
 20
552.2442164813823
 30
0.0
 10
896.1455282305081
 20
551.5609912387963
 30
0.0
 10
896.1473301814732
 20
550.9042305572324
 30
0.0
 10
896.1512210999343
 20
550.3476462469417
 30
0.0
 10
896.1570364709194
 20
549.9565264711263
 30
0.0
 10
896.1627142029952
 20
549.8088977368603
 30
0.0
 10
896.1661816883264
 20
549.7993343068298
 30
0.0
 10
896.1670091457094
 20
549.7970521541952
 30
0.0
  0
LINE
  5
22A
330
1F
100
AcDbEntity
  8
0
  6
Continuous
 62
     7
370
    25
100
AcDbLine
 10
896.1670091457
 20
549.7970521542
 30
0.0
 11
896.5496276223
 21
549.7970521542
 31
0.0
  0
SPLINE
  5
22B
330
1F
100
AcDbEntity
  8
0
  6
Continuous
 62
     7
370
    25
100
AcDbSpline
210
0.0
220
0.0
230
1.0
 70
     8
 71
     3
 72
    17
 73
    13
 74
     0
 42
0.000000001
 43
0.00000001
 40
0.0
 40
0.0
 40
0.0
 40
0.0
 40
0.0740640077495207
 40
0.1814969431858105
 40
0.288911824757941
 40
0.3962740608575931
 40
0.5035723786411952
 40
0.6108274724882843
 40
0.7180828011004322
 40
0.8253816495165308
 40
0.9327443748459496
 40
0.9999999999999999
 40
0.9999999999999999
 40
0.9999999999999999
 40
0.9999999999999999
 10
896.5496276223138
 20
549.7970521541952
 30
0.0
 10
896.5547809014575
 20
549.807694904176
 30
0.0
 10
896.5674092271505
 20
549.8337754073422
 30
0.0
 10
896.5867625304282
 20
550.0828463152977
 30
0.0
 10
896.6044231180097
 20
550.5409397082517
 30
0.0
 10
896.6159492005047
 20
551.1441677828966
 30
0.0
 10
896.6197804771107
 20
551.8198917751133
 30
0.0
 10
896.6154112948568
 20
552.4928155876651
 30
0.0
 10
896.6034340917953
 20
553.088114150629
 30
0.0
 10
896.5854667636887
 20
553.5347709878477
 30
0.0
 10
896.5664414749224
 20
553.7653574564524
 30
0.0
 10
896.5543028924228
 20
553.7882391072142
 30
0.0
 10
896.5496276223138
 20
553.7970521541952
 30
0.0
  0
LINE
  5
22C
330
1F
100
AcDbEntity
  8
0
  6
Continuous
 62
     7
370
    25
100
AcDbLine
 10
896.5496276223
 20
537.7970521542
 30
0.0
 11
896.1670091457
 21
537.7970521542
 31
0.0
  0
SPLINE
  5
22D
330
1F
100
AcDbEntity
  8
0
  6
Continuous
 62
     7
370
    25
100
AcDbSpline
210
0.0
220
0.0
230
1.0
 70
     8
 71
     3
 72
    17
 73
    13
 74
     0
 42
0.000000001
 43
0.00000001
 40
0.0
 40
0.0
 40
0.0
 40
0.0
 40
0.1073802933874056
 40
0.2147607566167821
 40
0.3221368944420745
 40
0.4295072075045157
 40
0.5368735323287522
 40
0.6442382235266138
 40
0.7516036621099029
 40
0.8589722343022371
 40
0.9663460823138673
 40
0.9999999999999999
 40
0.9999999999999999
 40
0.9999999999999999
 40
0.9999999999999999
 10
896.1670091457094
 20
537.7970521541952
 30
0.0
 10
896.1643951040791
 20
537.7749380066105
 30
0.0
 10
896.159167016684
 20
537.7307096764637
 30
0.0
 10
896.152848255496
 20
537.3859192343276
 30
0.0
 10
896.1483219130268
 20
536.8781698438115
 30
0.0
 10
896.1458623694632
 20
536.2442164813823
 30
0.0
 10
896.1455282305083
 20
535.5609912387963
 30
0.0
 10
896.1473301814731
 20
534.9042305572324
 30
0.0
 10
896.1512210999344
 20
534.3476462469417
 30
0.0
 10
896.1570364709194
 20
533.9565264711263
 30
0.0
 10
896.1627142029952
 20
533.8088977368603
 30
0.0
 10
896.1661816883264
 20
533.7993343068298
 30
0.0
 10
896.1670091457094
 20
533.7970521541952
 30
0.0
  0
LINE
  5
22E
330
1F
100
AcDbEntity
  8
0
  6
Continuous
 62
     7
370
    25
100
AcDbLine
 10
896.1670091457
 20
533.7970521542
 30
0.0
 11
896.5496276223
 21
533.7970521542
 31
0.0
  0
SPLINE
  5
22F
330
1F
100
AcDbEntity
  8
0
  6
Continuous
 62
     7
370
    25
100
AcDbSpline
210
0.0
220
0.0
230
1.0
 70
     8
 71
     3
 72
    17
 73
    13
 74
     0
 42
0.000000001
 43
0.00000001
 40
0.0
 40
0.0
 40
0.0
 40
0.0
 40
0.0740640077495196
 40
0.1814969431858095
 40
0.2889118247579382
 40
0.3962740608575919
 40
0.5035723786411946
 40
0.6108274724882835
 40
0.7180828011004304
 40
0.8253816495165305
 40
0.9327443748459494
 40
0.9999999999999999
 40
0.9999999999999999
 40
0.9999999999999999
 40
0.9999999999999999
 10
896.5496276223138
 20
533.7970521541952
 30
0.0
 10
896.5547809014575
 20
533.807694904176
 30
0.0
 10
896.5674092271505
 20
533.8337754073422
 30
0.0
 10
896.5867625304284
 20
534.0828463152977
 30
0.0
 10
896.6044231180097
 20
534.5409397082517
 30
0.0
 10
896.6159492005047
 20
535.1441677828966
 30
0.0
 10
896.6197804771107
 20
535.8198917751133
 30
0.0
 10
896.6154112948568
 20
536.4928155876651
 30
0.0
 10
896.6034340917953
 20
537.088114150629
 30
0.0
 10
896.5854667636887
 20
537.5347709878477
 30
0.0
 10
896.5664414749224
 20
537.7653574564524
 30
0.0
 10
896.5543028924228
 20
537.7882391072142
 30
0.0
 10
896.5496276223138
 20
537.7970521541952
 30
0.0
  0
SPLINE
  5
230
330
1F
100
AcDbEntity
  8
0
  6
Continuous
 62
     7
370
    25
100
AcDbSpline
210
0.0
220
0.0
230
1.0
 70
     8
 71
     3
 72
    17
 73
    13
 74
     0
 42
0.000000001
 43
0.00000001
 40
0.0
 40
0.0
 40
0.0
 40
0.0
 40
0.1039779861448095
 40
0.2108733928885859
 40
0.3148488686723692
 40
0.4217416688463778
 40
0.5257165288746983
 40
0.6326082776735732
 40
0.7369144933992319
 40
0.844165798469861
 40
0.9214963024514673
 40
1.0
 40
1.0
 40
1.0
 40
1.0
 10
946.1106009070286
 20
338.6111670790827
 30
0.0
 10
943.8958829538761
 20
338.7142859475291
 30
0.0
 10
939.4043063578255
 20
338.9234169998447
 30
0.0
 10
932.8776438571515
 20
340.6319723625907
 30
0.0
 10
926.6576278338895
 20
343.3398551229885
 30
0.0
 10
921.0234208317918
 20
347.0263869678475
 30
0.0
 10
916.0305847442884
 20
351.6277615189536
 30
0.0
 10
911.9003458046458
 20
356.9505027097007
 30
0.0
 10
908.6706690386443
 20
362.9420120357856
 30
0.0
 10
906.698016696643
 20
368.7909362217842
 30
0.0
 10
905.6447891860167
 20
374.3080173517506
 30
0.0
 10
905.5333762952649
 20
377.625714821523
 30
0.0
 10
905.4772504654234
 20
379.2970521541957
 30
0.0
  0
LINE
  5
231
330
1F
100
AcDbEntity
  8
0
  6
Continuous
 62
     7
370
    25
100
AcDbLine
 10
946.110600907
 20
329.2970521542
 30
0.0
 11
946.110600907
 21
338.6111670791
 31
0.0
  0
LINE
  5
232
330
1F
100
AcDbEntity
  8
0
  6
Continuous
 62
     7
370
    25
100
AcDbLine
 10
946.110600907
 20
729.2970521542
 30
0.0
 11
946.110600907
 21
719.9829372293
 31
0.0
  0
SPLINE
  5
233
330
1F
100
AcDbEntity
  8
0
  6
Continuous
 62
     7
370
    25
100
AcDbSpline
210
0.0
220
0.0
230
1.0
 70
     8
 71
     3
 72
    17
 73
    13
 74
     0
 42
0.000000001
 43
0.00000001
 40
0.0
 40
0.0
 40
0.0
 40
0.0
 40
0.1051291489415884
 40
0.2132753194621076
 40
0.3182511711219438
 40
0.4262311915931481
 40
0.5307531665147874
 40
0.6382399066615553
 40
0.742341363792601
 40
0.8493710799781614
 40
0.9241556338254917
 40
1.0
 40
1.0
 40
1.0
 40
1.0
 10
905.4772504654234
 20
679.2970521541951
 30
0.0
 10
905.5798106613289
 20
681.5362747023665
 30
0.0
 10
905.7878743502871
 20
686.0789815454839
 30
0.0
 10
907.5255284900242
 20
692.6739797692618
 30
0.0
 10
910.282141369082
 20
698.9504430351582
 30
0.0
 10
914.02751090985
 20
704.6139480156097
 30
0.0
 10
918.69219228288
 20
709.6132537317026
 30
0.0
 10
924.0603297566594
 20
713.7182600437301
 30
0.0
 10
930.078731265707
 20
716.9052452494162
 30
0.0
 10
935.8815659736398
 20
718.8170639438424
 30
0.0
 10
941.2890690788387
 20
719.8206424076243
 30
0.0
 10
944.4959026278585
 20
719.9285857952347
 30
0.0
 10
946.110600907029
 20
719.9829372293074
 30
0.0
  0
SPLINE
  5
234
330
1F
100
AcDbEntity
  8
0
  6
Continuous
 62
     7
370
    25
100
AcDbSpline
210
0.0
220
0.0
230
1.0
 70
     8
 71
     3
 72
    15
 73
    11
 74
     0
 42
0.000000001
 43
0.00000001
 40
0.0
 40
0.0
 40
0.0
 40
0.0
 40
0.1246085174034711
 40
0.2492166884812783
 40
0.3739663765738591
 40
0.498715525665012
 40
0.6239452198943906
 40
0.7491745551205465
 40
0.8745870994873771
 40
1.0
 40
1.0
 40
1.0
 40
1.0
 10
1186.110600907028
 20
337.3245821492492
 30
0.0
 10
1176.177926942313
 20
337.4689545554224
 30
0.0
 10
1156.312606618858
 20
337.757698966513
 30
0.0
 10
1126.445643695683
 20
338.1147392443316
 30
0.0
 10
1096.533749170105
 20
338.4068297628521
 30
0.0
 10
1066.541312654016
 20
338.6224254558974
 30
0.0
 10
1036.489289204661
 20
338.755841718413
 30
0.0
 10
1006.373228136954
 20
338.8006052686478
 30
0.0
 10
976.2408683060871
 20
338.7608591719588
 30
0.0
 10
956.1540328804471
 20
338.6610644906074
 30
0.0
 10
946.1106009070286
 20
338.6111670790827
 30
0.0
  0
LINE
  5
235
330
1F
100
AcDbEntity
  8
0
  6
Continuous
 62
     7
370
    25
100
AcDbLine
 10
1186.110600907
 20
329.2970521542
 30
0.0
 11
1186.110600907
 21
337.3245821492
 31
0.0
  0
LINE
  5
236
330
1F
100
AcDbEntity
  8
0
  6
Continuous
 62
     7
370
    25
100
AcDbLine
 10
1186.110600907
 20
729.2970521542
 30
0.0
 11
1186.110600907
 21
721.2695221591
 31
0.0
  0
SPLINE
  5
237
330
1F
100
AcDbEntity
  8
0
  6
Continuous
 62
     7
370
    25
100
AcDbSpline
210
0.0
220
0.0
230
1.0
 70
     8
 71
     3
 72
    13
 73
     9
 74
     0
 42
0.000000001
 43
0.00000001
 40
0.0
 40
0.0
 40
0.0
 40
0.0
 40
0.1743462012182739
 40
0.3488154826773328
 40
0.5236513563142281
 40
0.6986036154787079
 40
0.8492714919093055
 40
1.0
 40
1.0
 40
1.0
 40
1.0
 10
946.110600907029
 20
719.9829372293074
 30
0.0
 10
960.0739227885033
 20
719.9178473715998
 30
0.0
 10
988.0104240017855
 20
719.787621705798
 30
0.0
 10
1029.973815970079
 20
719.8088411528319
 30
0.0
 10
1071.965725923254
 20
719.9907672756168
 30
0.0
 10
1112.007236456845
 20
720.3218237634637
 30
0.0
 10
1150.067713676515
 20
720.7496465872256
 30
0.0
 10
1174.094694000972
 20
721.0962070627415
 30
0.0
 10
1186.110600907029
 20
721.2695221591409
 30
0.0
  0
LINE
  5
238
330
1F
100
AcDbEntity
  8
0
  6
Continuous
 62
     7
370
    25
100
AcDbLine
 10
1236.110600907
 20
679.2970521542
 30
0.0
 11
1228.101493873
 21
679.2970521542
 31
0.0
  0
SPLINE
  5
239
330
1F
100
AcDbEntity
  8
0
  6
Continuous
 62
     7
370
    25
100
AcDbSpline
210
0.0
220
0.0
230
1.0
 70
     8
 71
     3
 72
    24
 73
    20
 74
     0
 42
0.000000001
 43
0.00000001
 40
0.0
 40
0.0
 40
0.0
 40
0.0
 40
0.0518946268876883
 40
0.1041398771938231
 40
0.1574896017183224
 40
0.2112206588496792
 40
0.2631194980889301
 40
0.3153692636680106
 40
0.3687244620459895
 40
0.4224613143642972
 40
0.4740616298590969
 40
0.5789485152373832
 40
0.6323546112939442
 40
0.6837711434108951
 40
0.7882718775240087
 40
0.8414739746827047
 40
0.8807293514160484
 40
0.95996943053232
 40
1.0
 40
1.0
 40
1.0
 40
1.0
 10
1186.110600907029
 20
721.2695221591409
 30
0.0
 10
1187.25178855394
 20
721.2455669720383
 30
0.0
 10
1189.541874224306
 20
721.1974947458247
 30
0.0
 10
1192.982995570487
 20
720.7656382009851
 30
0.0
 10
1196.417463230503
 20
720.0616129229418
 30
0.0
 10
1199.772909541287
 20
719.0673038452715
 30
0.0
 10
1203.011405842478
 20
717.8079605791665
 30
0.0
 10
1206.128505744724
 20
716.2906407583293
 30
0.0
 10
1209.143687133356
 20
714.4989773347093
 30
0.0
 10
1211.985864860327
 20
712.4675502917817
 30
0.0
 10
1215.513668859302
 20
709.4753541466004
 30
0.0
 10
1218.655960761399
 20
706.0613368726952
 30
0.0
 10
1221.334212531288
 20
702.3026661156352
 30
0.0
 10
1223.689597985016
 20
698.3440024114537
 30
0.0
 10
1225.547522912011
 20
694.1116036676985
 30
0.0
 10
1226.785418240607
 20
689.9573189674554
 30
0.0
 10
1227.594219502612
 20
686.2689065723741
 30
0.0
 10
1228.04262750534
 20
682.7994517268763
 30
0.0
 10
1228.086701429794
 20
680.1771650065169
 30
0.0
 10
1228.101493872993
 20
679.2970521541948
 30
0.0
  0
SPLINE
  5
23A
330
1F
100
AcDbEntity
  8
0
  6
Continuous
 62
     7
370
    25
100
AcDbSpline
210
0.0
220
0.0
230
1.0
 70
     8
 71
     3
 72
    17
 73
    13
 74
     0
 42
0.000000001
 43
0.00000001
 40
0.0
 40
0.0
 40
0.0
 40
0.0
 40
0.1051329046886172
 40
0.2102656750392294
 40
0.3154258025459274
 40
0.4205858692605966
 40
0.5252744326127285
 40
0.6299630356951522
 40
0.7345640287823254
 40
0.8391651423919788
 40
0.9195825452010062
 40
1.0
 40
1.0
 40
1.0
 40
1.0
 10
1228.101493872993
 20
379.2970521541951
 30
0.0
 10
1227.993520205954
 20
376.9846497745525
 30
0.0
 10
1227.777573009845
 20
372.3598479700372
 30
0.0
 10
1226.024853746447
 20
365.6046930844968
 30
0.0
 10
1223.243895847548
 20
359.2288427503712
 30
0.0
 10
1219.451564082826
 20
353.3975243138394
 30
0.0
 10
1214.747454016258
 20
348.2922200969282
 30
0.0
 10
1209.290955704039
 20
344.0200603008199
 30
0.0
 10
1203.198893661623
 20
340.7171317948289
 30
0.0
 10
1197.16021119531
 20
338.6321168514431
 30
0.0
 10
1191.414661140457
 20
337.5075233836909
 30
0.0
 10
1187.878621365847
 20
337.3855625738711
 30
0.0
 10
1186.110600907028
 20
337.3245821492492
 30
0.0
  0
LINE
  5
23B
330
1F
100
AcDbEntity
  8
0
  6
Continuous
 62
     7
370
    25
100
AcDbLine
 10
1236.110600907
 20
379.2970521542
 30
0.0
 11
1228.101493873
 21
379.2970521542
 31
0.0
  0
SPLINE
  5
23C
330
1F
100
AcDbEntity
  8
0
  6
Continuous
 62
     7
370
    25
100
AcDbSpline
210
0.0
220
0.0
230
1.0
 70
     8
 71
     3
 72
    15
 73
    11
 74
     0
 42
0.000000001
 43
0.00000001
 40
0.0
 40
0.0
 40
0.0
 40
0.0
 40
0.1338067183964184
 40
0.2676302517871854
 40
0.4014336098445921
 40
0.535940385944852
 40
0.6704685020422687
 40
0.8049770874156125
 40
0.9024749818287723
 40
1.0
 40
1.0
 40
1.0
 40
1.0
 10
1228.101493872993
 20
679.2970521541948
 30
0.0
 10
1227.944499452213
 20
665.943379703526
 30
0.0
 10
1227.630490881744
 20
639.2343566956665
 30
0.0
 10
1227.313918365816
 20
599.0892771015529
 30
0.0
 10
1227.126237820914
 20
558.8383606639595
 30
0.0
 10
1227.093660886954
 20
518.4967543050907
 30
0.0
 10
1227.209373025624
 20
478.0916759789232
 30
0.0
 10
1227.446993787278
 20
441.421314738274
 30
0.0
 10
1227.751666205185
 20
408.4880330193701
 30
0.0
 10
1227.984873838896
 20
389.0282812623931
 30
0.0
 10
1228.101493872993
 20
379.2970521541951
 30
0.0
  0
SPLINE
  5
23D
330
1F
100
AcDbEntity
  8
0
  6
Continuous
 62
     7
370
    25
100
AcDbSpline
210
0.0
220
0.0
230
1.0
 70
     8
 71
     3
 72
    13
 73
     9
 74
     0
 42
0.000000001
 43
0.00000001
 40
0.0
 40
0.0
 40
0.0
 40
0.0
 40
0.1745577178324051
 40
0.3492260635991293
 40
0.524224248136806
 40
0.6993278354590124
 40
0.8496361829523333
 40
1.0
 40
1.0
 40
1.0
 40
1.0
 10
944.8788022000108
 20
369.9990808726938
 30
0.0
 10
959.130840150731
 20
370.0444939944169
 30
0.0
 10
987.6439484429357
 20
370.1353490189442
 30
0.0
 10
1030.467319721574
 20
370.1200635747157
 30
0.0
 10
1073.316996295353
 20
369.9966483257704
 30
0.0
 10
1114.137155123747
 20
369.7466081753399
 30
0.0
 10
1152.899489472767
 20
369.3989313076254
 30
0.0
 10
1177.344977993309
 20
369.0995370079103
 30
0.0
 10
1189.56997716859
 20
368.9498122411491
 30
0.0
  0
LWPOLYLINE
  5
23E
330
1F
100
AcDbEntity
  8
0
  6
Continuous
 62
     7
370
    25
100
AcDbPolyline
 90
       14
 70
   128
 43
0.0
 10
1189.5699771686
 20
368.9498122411
 10
1189.4688991554
 20
365.3698468185
 10
1189.3319993459
 20
361.8603189572
 10
1189.1607380026
 20
358.4586635672
 10
1188.9569419105
 20
355.2011649202
 10
1188.7227848915
 20
352.1225696184
 10
1188.4607646168
 20
349.2557159645
 10
1188.1736759653
 20
346.6311836865
 10
1187.8645812116
 20
344.2769677552
 10
1187.5367773616
 20
342.218179771
 10
1187.1937609846
 20
340.4767801072
 10
1186.8391909169
 20
339.071343667
 10
1186.4768492335
 20
338.0168617507
 10
1186.110600907
 20
337.3245821492
  0
LWPOLYLINE
  5
23F
330
1F
100
AcDbEntity
  8
0
  6
Continuous
 62
     7
370
    25
100
AcDbPolyline
 90
       14
 70
   128
 43
0.0
 10
944.8788022
 20
369.9990808727
 10
944.9164903506
 20
366.4657272414
 10
944.9665999043
 20
363.0024632335
 10
945.0286096102
 20
359.64531449
 10
945.1018744298
 20
356.4292028171
 10
945.1856322462
 20
353.3875829223
 10
945.2790117918
 20
350.5520944108
 10
945.381041712
 20
347.9522326636
 10
945.4906606688
 20
345.6150420194
 10
945.6067283816
 20
343.5648344543
 10
945.7280374882
 20
341.8229366822
 10
945.8533261045
 20
340.4074683104
 10
945.9812909503
 20
339.3331533552
 10
946.110600907
 20
338.6111670791
  0
SPLINE
  5
240
330
1F
100
AcDbEntity
  8
0
  6
Continuous
 62
     7
370
    25
100
AcDbSpline
210
0.0
220
0.0
230
1.0
 70
     8
 71
     3
 72
    15
 73
    11
 74
     0
 42
0.000000001
 43
0.00000001
 40
0.0
 40
0.0
 40
0.0
 40
0.0
 40
0.0974172184372842
 40
0.1948587519063376
 40
0.32871948098482
 40
0.4625976531018554
 40
0.5964569700920167
 40
0.7309642175962872
 40
0.8654899600960863
 40
1.0
 40
1.0
 40
1.0
 40
1.0
 10
1197.05014057995
 20
376.4160148927191
 30
0.0
 10
1196.951253362362
 20
386.3251733229129
 30
0.0
 10
1196.753454245245
 20
406.1459634781234
 30
0.0
 10
1196.506768416838
 20
439.631066550263
 30
0.0
 10
1196.320636809336
 20
476.8659836739081
 30
0.0
 10
1196.233844998522
 20
517.8435314448133
 30
0.0
 10
1196.258214826597
 20
558.8937543958009
 30
0.0
 10
1196.399413931269
 20
599.9919852734834
 30
0.0
 10
1196.650820172077
 20
641.1236094903531
 30
0.0
 10
1196.917038956719
 20
668.4937952717975
 30
0.0
 10
1197.05014057995
 20
682.178089415671
 30
0.0
  0
LWPOLYLINE
  5
241
330
1F
100
AcDbEntity
  8
0
  6
Continuous
 62
     7
370
    25
100
AcDbPolyline
 90
       14
 70
   128
 43
0.0
 10
1197.05014058
 20
682.1780894157
 10
1200.5779125276
 20
682.0899929613
 10
1204.0315333063
 20
681.9728340261
 10
1207.3750656034
 20
681.82783173
 10
1210.5737176529
 20
681.656494922
 10
1213.5942052678
 20
681.4606064803
 10
1216.4050981857
 20
681.2422047594
 10
1218.9771471215
 20
681.0035623803
 10
1221.2835881273
 20
680.7471625821
 10
1223.3004210892
 20
680.475673382
 10
1225.0066594654
 20
680.1919198128
 10
1226.3845486655
 20
679.8988545268
 10
1227.4197507994
 20
679.5995270708
 10
1228.101493873
 20
679.2970521542
  0
LWPOLYLINE
  5
242
330
1F
100
AcDbEntity
  8
0
  6
Continuous
 62
     7
370
    25
100
AcDbPolyline
 90
       14
 70
   128
 43
0.0
 10
1197.05014058
 20
376.4160148927
 10
1200.5779125276
 20
376.5041113471
 10
1204.0315333063
 20
376.6212702823
 10
1207.3750656034
 20
376.7662725784
 10
1210.5737176529
 20
376.9376093864
 10
1213.5942052678
 20
377.1334978281
 10
1216.4050981857
 20
377.351899549
 10
1218.9771471215
 20
377.5905419281
 10
1221.2835881273
 20
377.8469417263
 10
1223.3004210892
 20
378.1184309264
 10
1225.0066594654
 20
378.4021844955
 10
1226.3845486655
 20
378.6952497816
 10
1227.4197507994
 20
378.9945772375
 10
1228.101493873
 20
379.2970521542
  0
LWPOLYLINE
  5
243
330
1F
100
AcDbEntity
  8
0
  6
Continuous
 62
     7
370
    25
100
AcDbPolyline
 90
       14
 70
   128
 43
0.0
 10
1189.5699771686
 20
689.6442920672
 10
1189.4688991554
 20
693.2242574899
 10
1189.3319993459
 20
696.7337853512
 10
1189.1607380026
 20
700.1354407412
 10
1188.9569419105
 20
703.3929393882
 10
1188.7227848915
 20
706.4715346899
 10
1188.4607646168
 20
709.3383883439
 10
1188.1736759653
 20
711.9629206218
 10
1187.8645812116
 20
714.3171365532
 10
1187.5367773616
 20
716.3759245374
 10
1187.1937609846
 20
718.1173242012
 10
1186.8391909169
 20
719.5227606414
 10
1186.4768492335
 20
720.5772425577
 10
1186.110600907
 20
721.2695221591
  0
SPLINE
  5
244
330
1F
100
AcDbEntity
  8
0
  6
Continuous
 62
     7
370
    25
100
AcDbSpline
210
0.0
220
0.0
230
1.0
 70
     8
 71
     3
 72
    13
 73
     9
 74
     0
 42
0.000000001
 43
0.00000001
 40
0.0
 40
0.0
 40
0.0
 40
0.0
 40
0.150417284237569
 40
0.3008888018046019
 40
0.4754013148081873
 40
0.6500150902686919
 40
0.8249512319737837
 40
0.9999999999999999
 40
0.9999999999999999
 40
0.9999999999999999
 40
0.9999999999999999
 10
1189.56997716859
 20
689.6442920672412
 30
0.0
 10
1177.340628489628
 20
689.4945171424806
 30
0.0
 10
1152.877521809335
 20
689.1949132912341
 30
0.0
 10
1114.145631099909
 20
688.8476117906168
 30
0.0
 10
1073.391782999726
 20
688.5979161886798
 30
0.0
 10
1030.600008550338
 20
688.4742511383421
 30
0.0
 10
987.746035300525
 20
688.4585317049807
 30
0.0
 10
959.1709450868968
 20
688.5495164323941
 30
0.0
 10
944.8788022000111
 20
688.5950234356964
 30
0.0
  0
LWPOLYLINE
  5
245
330
1F
100
AcDbEntity
  8
0
  6
Continuous
 62
     7
370
    25
100
AcDbPolyline
 90
       14
 70
   128
 43
0.0
 10
946.110600907
 20
719.9829372293
 10
945.9812909503
 20
719.2609509532
 10
945.8533261045
 20
718.186635998
 10
945.7280374882
 20
716.7711676262
 10
945.6067283816
 20
715.0292698541
 10
945.4906606688
 20
712.979062289
 10
945.381041712
 20
710.6418716448
 10
945.2790117918
 20
708.0420098976
 10
945.1856322462
 20
705.2065213861
 10
945.1018744298
 20
702.1649014913
 10
945.0286096102
 20
698.9487898184
 10
944.9665999043
 20
695.5916410749
 10
944.9164903506
 20
692.128377067
 10
944.8788022
 20
688.5950234357
  0
SPLINE
  5
246
330
1F
100
AcDbEntity
  8
0
  6
Continuous
 62
     7
370
    25
100
AcDbSpline
210
0.0
220
0.0
230
1.0
 70
     8
 71
     3
 72
    12
 73
     8
 74
     0
 42
0.000000001
 43
0.00000001
 40
0.0
 40
0.0
 40
0.0
 40
0.0
 40
0.1587461308200709
 40
0.3679239806406032
 40
0.5779016979231403
 40
0.7890640455991974
 40
0.9999999999999999
 40
0.9999999999999999
 40
0.9999999999999999
 40
0.9999999999999999
 10
1197.05014057995
 20
682.178089415671
 30
0.0
 10
1197.010454808524
 20
682.7993532705186
 30
0.0
 10
1196.91847557777
 20
684.2392489663875
 30
0.0
 10
1195.9658095597
 20
686.3585805810393
 30
0.0
 10
1194.275661436058
 20
688.1966809471664
 30
0.0
 10
1192.051194806825
 20
689.4336126969852
 30
0.0
 10
1190.396753927101
 20
689.5740907257137
 30
0.0
 10
1189.56997716859
 20
689.6442920672412
 30
0.0
  0
SPLINE
  5
247
330
1F
100
AcDbEntity
  8
0
  6
Continuous
 62
     7
370
    25
100
AcDbSpline
210
0.0
220
0.0
230
1.0
 70
     8
 71
     3
 72
    12
 73
     8
 74
     0
 42
0.000000001
 43
0.00000001
 40
0.0
 40
0.0
 40
0.0
 40
0.0
 40
0.160873202530846
 40
0.3700371694335088
 40
0.5794635894917223
 40
0.7898172603100676
 40
1.0
 40
1.0
 40
1.0
 40
1.0
 10
1189.56997716859
 20
368.9498122411491
 30
0.0
 10
1190.198754226838
 20
368.9890704191085
 30
0.0
 10
1191.645054040471
 20
369.0793712574126
 30
0.0
 10
1193.766925746155
 20
370.0358136710585
 30
0.0
 10
1195.599860078708
 20
371.7226880671037
 30
0.0
 10
1196.834858040828
 20
373.9405810697599
 30
0.0
 10
1196.978399181475
 20
375.5910939074165
 30
0.0
 10
1197.05014057995
 20
376.4160148927191
 30
0.0
  0
LWPOLYLINE
  5
248
330
1F
100
AcDbEntity
  8
0
  6
Continuous
 62
     7
370
    25
100
AcDbPolyline
 90
       14
 70
   128
 43
0.0
 10
906.6674889131
 20
508.4583078504
 10
907.4468452113
 20
508.3985622064
 10
908.5944285387
 20
508.3394682437
 10
910.0977215237
 20
508.281670535
 10
911.9403268581
 20
508.2257995142
 10
914.1021461531
 20
508.1724645997
 10
916.5595991637
 20
508.1222475471
 10
919.2858809928
 20
508.0756961034
 10
922.2512544679
 20
508.033318033
 10
925.4233745022
 20
507.9955755784
 10
928.7676409015
 20
507.9628804192
 10
932.2475757692
 20
507.9355891807
 10
935.8252213923
 20
507.9139995447
 10
939.4615542686
 20
507.8983470021
  0
SPLINE
  5
249
330
1F
100
AcDbEntity
  8
0
  6
Continuous
 62
     7
370
    25
100
AcDbSpline
210
0.0
220
0.0
230
1.0
 70
     8
 71
     3
 72
    11
 73
     7
 74
     0
 42
0.000000001
 43
0.00000001
 40
0.0
 40
0.0
 40
0.0
 40
0.0
 40
0.2497680886335303
 40
0.4996446970922943
 40
0.7497870875584673
 40
1.0
 40
1.0
 40
1.0
 40
1.0
 10
939.4615542685802
 20
507.8983470021084
 30
0.0
 10
939.4634420415927
 20
496.9172948353227
 30
0.0
 10
939.4672184078215
 20
474.9504194284387
 30
0.0
 10
939.3335334984966
 20
442.0160856734122
 30
0.0
 10
939.0827677716927
 20
409.0910102858688
 30
0.0
 10
938.8314247696234
 20
387.1675311115696
 30
0.0
 10
938.7057355559704
 20
376.2042465352402
 30
0.0
  0
LWPOLYLINE
  5
24A
330
1F
100
AcDbEntity
  8
0
  6
Continuous
 62
     7
370
    25
100
AcDbPolyline
 90
       14
 70
   128
 43
0.0
 10
905.4772504654
 20
379.2970521542
 10
906.2350063119
 20
378.9634197639
 10
907.3732717387
 20
378.6335396974
 10
908.8792448098
 20
378.3111220767
 10
910.7359880251
 20
377.9997930943
 10
912.9226188143
 20
377.7030542304
 10
915.4145444008
 20
377.4242428717
 10
918.1837383939
 20
377.1664947764
 10
921.1990559977
 20
376.9327088067
 10
924.4265842935
 20
376.7255143256
 10
927.8300236543
 20
376.5472416249
 10
931.3710960021
 20
376.3998957163
 10
935.009975317
 20
376.2851337818
 10
938.705735556
 20
376.2042465352
  0
LWPOLYLINE
  5
24B
330
1F
100
AcDbEntity
  8
0
  6
Continuous
 62
     7
370
    25
100
AcDbPolyline
 90
       14
 70
   128
 43
0.0
 10
905.4772504654
 20
679.2970521542
 10
906.2350063119
 20
679.6306845445
 10
907.3732717387
 20
679.960564611
 10
908.8792448098
 20
680.2829822317
 10
910.7359880251
 20
680.5943112141
 10
912.9226188143
 20
680.891050078
 10
915.4145444008
 20
681.1698614367
 10
918.1837383939
 20
681.427609532
 10
921.1990559977
 20
681.6613955017
 10
924.4265842935
 20
681.8685899827
 10
927.8300236543
 20
682.0468626835
 10
931.3710960021
 20
682.1942085921
 10
935.009975317
 20
682.3089705266
 10
938.705735556
 20
682.3898577732
  0
SPLINE
  5
24C
330
1F
100
AcDbEntity
  8
0
  6
Continuous
 62
     7
370
    25
100
AcDbSpline
210
0.0
220
0.0
230
1.0
 70
     8
 71
     3
 72
    11
 73
     7
 74
     0
 42
0.000000001
 43
0.00000001
 40
0.0
 40
0.0
 40
0.0
 40
0.0
 40
0.2498070594180488
 40
0.4996818527105465
 40
0.7497915781304345
 40
1.0
 40
1.0
 40
1.0
 40
1.0
 10
938.7057355559703
 20
682.3898577731507
 30
0.0
 10
938.8312337257729
 20
671.4443635959361
 30
0.0
 10
939.0822640935492
 20
649.5504074281474
 30
0.0
 10
939.3331268828555
 20
616.6447433535418
 30
0.0
 10
939.4671979006241
 20
583.6926472948109
 30
0.0
 10
939.4634357266488
 20
561.6961670318034
 30
0.0
 10
939.4615542685839
 20
550.6957573062932
 30
0.0
  0
LWPOLYLINE
  5
24D
330
1F
100
AcDbEntity
  8
0
  6
Continuous
 62
     7
370
    25
100
AcDbPolyline
 90
       14
 70
   128
 43
0.0
 10
906.6674889131
 20
550.135796458
 10
907.4468452113
 20
550.195542102
 10
908.5944285387
 20
550.2546360647
 10
910.0977215237
 20
550.3124337734
 10
911.9403268581
 20
550.3683047942
 10
914.1021461531
 20
550.4216397087
 10
916.5595991637
 20
550.4718567613
 10
919.2858809928
 20
550.518408205
 10
922.2512544679
 20
550.5607862754
 10
925.4233745022
 20
550.59852873
 10
928.7676409015
 20
550.6312238892
 10
932.2475757692
 20
550.6585151277
 10
935.8252213923
 20
550.6801047637
 10
939.4615542686
 20
550.6957573063
  0
SPLINE
  5
24E
330
1F
100
AcDbEntity
  8
0
  6
Continuous
 62
     7
370
    25
100
AcDbSpline
210
0.0
220
0.0
230
1.0
 70
     8
 71
     3
 72
    12
 73
     8
 74
     0
 42
0.000000001
 43
0.00000001
 40
0.0
 40
0.0
 40
0.0
 40
0.0
 40
0.1510982574714589
 40
0.3625908980513433
 40
0.5748092513143257
 40
0.7875647343591592
 40
1.0
 40
1.0
 40
1.0
 40
1.0
 10
944.8788022000111
 20
688.5950234356964
 30
0.0
 10
944.388872824435
 20
688.5623734069759
 30
0.0
 10
943.2131879737644
 20
688.4840230445477
 30
0.0
 10
941.4636989949897
 20
687.7115185112782
 30
0.0
 10
939.9225179614642
 20
686.308096017842
 30
0.0
 10
938.8844416962023
 20
684.4580708639769
 30
0.0
 10
938.7652743538217
 20
683.0789159161369
 30
0.0
 10
938.7057355559703
 20
682.3898577731507
 30
0.0
  0
SPLINE
  5
24F
330
1F
100
AcDbEntity
  8
0
  6
Continuous
 62
     7
370
    25
100
AcDbSpline
210
0.0
220
0.0
230
1.0
 70
     8
 71
     3
 72
    12
 73
     8
 74
     0
 42
0.000000001
 43
0.00000001
 40
0.0
 40
0.0
 40
0.0
 40
0.0
 40
0.1554052485532819
 40
0.3666179083237837
 40
0.5776099685932137
 40
0.7888216133894744
 40
1.0
 40
1.0
 40
1.0
 40
1.0
 10
938.7057355559704
 20
376.2042465352402
 30
0.0
 10
938.7362884665911
 20
375.7016639438703
 30
0.0
 10
938.808366110617
 20
374.5160168687341
 30
0.0
 10
939.584272290427
 20
372.7623504592592
 30
0.0
 10
940.9801423880818
 20
371.2292369406372
 30
0.0
 10
942.8184523082845
 20
370.1916559816086
 30
0.0
 10
944.1920549543864
 20
370.0632692060221
 30
0.0
 10
944.8788022000108
 20
369.9990808726938
 30
0.0
  0
ARC
  5
250
330
1F
100
AcDbEntity
  8
0
  6
Continuous
 62
     7
370
    25
100
AcDbCircle
 10
1006.110600907
 20
529.2970521542
 30
0.0
 40
70.00000000000007
100
AcDbArc
 50
197.8000290607
 51
162.1999709393
  0
LINE
  5
251
330
1F
100
AcDbEntity
  8
0
  6
Continuous
 62
     7
370
    25
100
AcDbLine
 10
939.4615542686
 20
550.6957573063
 30
0.0
 11
939.4034086069
 21
532.2212490669
 31
0.0
  0
LINE
  5
252
330
1F
100
AcDbEntity
  8
0
  6
Continuous
 62
     7
370
    25
100
AcDbLine
 10
939.4034086069
 20
526.3728552415
 30
0.0
 11
939.4034086069
 21
532.2212490669
 31
0.0
  0
LINE
  5
253
330
1F
100
AcDbEntity
  8
0
  6
Continuous
 62
     7
370
    25
100
AcDbLine
 10
939.4034086069
 20
526.3728552415
 30
0.0
 11
939.4615542686
 21
507.8983470021
 31
0.0
  0
ARC
  5
254
330
1F
100
AcDbEntity
  8
0
  6
Continuous
 62
     7
370
    25
100
AcDbCircle
 10
1006.110600907
 20
529.2970521542
 30
0.0
 40
66.77125453482508
100
AcDbArc
 50
182.5100283872
 51
177.4899716128
  0
LINE
  5
255
330
1F
100
AcDbEntity
  8
0
  6
Continuous
 62
     7
370
    25
100
AcDbLine
 10
940.0222635563
 20
532.1941207518
 30
0.0
 11
940.0222635563
 21
526.3999835566
 31
0.0
  0
LINE
  5
256
330
1F
100
AcDbEntity
  8
0
  6
Continuous
 62
     7
370
    25
100
AcDbLine
 10
939.4034086069
 20
526.3728552415
 30
0.0
 11
940.0222635563
 21
526.3999835566
 31
0.0
  0
LINE
  5
257
330
1F
100
AcDbEntity
  8
0
  6
Continuous
 62
     7
370
    25
100
AcDbLine
 10
940.0222635563
 20
532.1941207518
 30
0.0
 11
939.4034086069
 21
532.2212490669
 31
0.0
  0
CIRCLE
  5
258
330
1F
100
AcDbEntity
  8
0
  6
Continuous
 62
     7
370
    25
100
AcDbCircle
 10
1006.110600907
 20
529.2970521542
 30
0.0
 40
58.61177143234625
  0
ARC
  5
259
330
1F
100
AcDbEntity
  8
0
  6
Continuous
 62
     7
370
    25
100
AcDbCircle
 10
1006.110600907
 20
529.2970521542
 30
0.0
 40
66.15180526824552
100
AcDbArc
 50
182.5100283872
 51
177.4899716128
  0
CIRCLE
  5
25A
330
1F
100
AcDbEntity
  8
0
  6
Continuous
 62
     7
370
    25
100
AcDbCircle
 10
1006.110600907
 20
529.2970521542
 30
0.0
 40
57.5
  0
LINE
  5
25B
330
1F
100
AcDbEntity
  8
0
  6
Continuous
 62
     7
370
    25
100
AcDbLine
 10
1539.835600907
 20
788.2970521542
 30
0.0
 11
484.835600907
 21
788.2970521542
 31
0.0
  0
LINE
  5
25C
330
1F
100
AcDbEntity
  8
0
  6
Continuous
 62
     7
370
    25
100
AcDbLine
 10
484.835600907
 20
789.2970521542
 30
0.0
 11
484.835600907
 21
788.2970521542
 31
0.0
  0
LINE
  5
25D
330
1F
100
AcDbEntity
  8
0
  6
Continuous
 62
     7
370
    25
100
AcDbLine
 10
484.835600907
 20
789.2970521542
 30
0.0
 11
1539.835600907
 21
789.2970521542
 31
0.0
  0
LINE
  5
25E
330
1F
100
AcDbEntity
  8
0
  6
Continuous
 62
     7
370
    25
100
AcDbLine
 10
1539.835600907
 20
788.2970521542
 30
0.0
 11
1539.835600907
 21
789.2970521542
 31
0.0
  0
LINE
  5
25F
330
1F
100
AcDbEntity
  8
0
  6
Continuous
 62
     7
370
    25
100
AcDbLine
 10
513.395600907
 20
288.2720580655
 30
0.0
 11
1511.275600907
 21
288.2720580655
 31
0.0
  0
LINE
  5
260
330
1F
100
AcDbEntity
  8
0
  6
Continuous
 62
     7
370
    25
100
AcDbLine
 10
1511.275600907
 20
288.2720580655
 30
0.0
 11
1511.275600907
 21
287.3953157719
 31
0.0
  0
LINE
  5
261
330
1F
100
AcDbEntity
  8
0
  6
Continuous
 62
     7
370
    25
100
AcDbLine
 10
1511.275600907
 20
287.3953157719
 30
0.0
 11
513.395600907
 21
287.3953157719
 31
0.0
  0
LINE
  5
262
330
1F
100
AcDbEntity
  8
0
  6
Continuous
 62
     7
370
    25
100
AcDbLine
 10
513.395600907
 20
288.2720580655
 30
0.0
 11
513.395600907
 21
287.3953157719
 31
0.0
  0
LINE
  5
263
330
1F
100
AcDbEntity
  8
0
  6
Continuous
 62
     7
370
    25
100
AcDbLine
 10
492.9338645248
 20
307.8570521542
 30
0.0
 11
492.9338645248
 21
750.7370521542
 31
0.0
  0
LINE
  5
264
330
1F
100
AcDbEntity
  8
0
  6
Continuous
 62
     7
370
    25
100
AcDbLine
 10
492.9338645248
 20
750.7370521542
 30
0.0
 11
493.8106068184
 21
750.7370521542
 31
0.0
  0
LINE
  5
265
330
1F
100
AcDbEntity
  8
0
  6
Continuous
 62
     7
370
    25
100
AcDbLine
 10
493.8106068184
 20
750.7370521542
 30
0.0
 11
493.8106068184
 21
307.8570521542
 31
0.0
  0
LINE
  5
266
330
1F
100
AcDbEntity
  8
0
  6
Continuous
 62
     7
370
    25
100
AcDbLine
 10
492.9338645248
 20
307.8570521542
 30
0.0
 11
493.8106068184
 21
307.8570521542
 31
0.0
  0
ARC
  5
267
330
1F
100
AcDbEntity
  8
0
  6
Continuous
 62
     7
370
    25
100
AcDbCircle
 10
1511.275600907
 20
307.8570521542
 30
0.0
 40
19.58499408867306
100
AcDbArc
 50
270.0
 51
0.0
  0
LINE
  5
268
330
1F
100
AcDbEntity
  8
0
  6
Continuous
 62
     7
370
    25
100
AcDbLine
 10
1530.8605949957
 20
307.8570521542
 30
0.0
 11
1531.7373372893
 21
307.8570521542
 31
0.0
  0
ARC
  5
269
330
1F
100
AcDbEntity
  8
0
  6
Continuous
 62
     7
370
    25
100
AcDbCircle
 10
1511.275600907
 20
307.8570521542
 30
0.0
 40
20.46173638225127
100
AcDbArc
 50
270.0
 51
0.0
  0
ARC
  5
26A
330
1F
100
AcDbEntity
  8
0
  6
Continuous
 62
     7
370
    25
100
AcDbCircle
 10
513.395600907
 20
750.7370521542
 30
0.0
 40
20.46173638225116
100
AcDbArc
 50
90.0
 51
180.0
  0
LINE
  5
26B
330
1F
100
AcDbEntity
  8
0
  6
Continuous
 62
     7
370
    25
100
AcDbLine
 10
513.395600907
 20
771.1987885364
 30
0.0
 11
513.395600907
 21
770.3220462429
 31
0.0
  0
ARC
  5
26C
330
1F
100
AcDbEntity
  8
0
  6
Continuous
 62
     7
370
    25
100
AcDbCircle
 10
513.395600907
 20
750.7370521542
 30
0.0
 40
19.584994088673
100
AcDbArc
 50
90.0
 51
180.0
  0
LINE
  5
26D
330
1F
100
AcDbEntity
  8
0
  6
Continuous
 62
     7
370
    25
100
AcDbLine
 10
1530.8605949957
 20
307.8570521542
 30
0.0
 11
1530.8605949957
 21
750.7370521542
 31
0.0
  0
LINE
  5
26E
330
1F
100
AcDbEntity
  8
0
  6
Continuous
 62
     7
370
    25
100
AcDbLine
 10
1530.8605949957
 20
750.7370521542
 30
0.0
 11
1531.7373372893
 21
750.7370521542
 31
0.0
  0
LINE
  5
26F
330
1F
100
AcDbEntity
  8
0
  6
Continuous
 62
     7
370
    25
100
AcDbLine
 10
1531.7373372893
 20
750.7370521542
 30
0.0
 11
1531.7373372893
 21
307.8570521542
 31
0.0
  0
LINE
  5
270
330
1F
100
AcDbEntity
  8
0
  6
Continuous
 62
     7
370
    25
100
AcDbLine
 10
513.395600907
 20
771.1987885364
 30
0.0
 11
1511.275600907
 21
771.1987885364
 31
0.0
  0
LINE
  5
271
330
1F
100
AcDbEntity
  8
0
  6
Continuous
 62
     7
370
    25
100
AcDbLine
 10
1511.275600907
 20
771.1987885364
 30
0.0
 11
1511.275600907
 21
770.3220462429
 31
0.0
  0
LINE
  5
272
330
1F
100
AcDbEntity
  8
0
  6
Continuous
 62
     7
370
    25
100
AcDbLine
 10
1511.275600907
 20
770.3220462429
 30
0.0
 11
513.395600907
 21
770.3220462429
 31
0.0
  0
ARC
  5
273
330
1F
100
AcDbEntity
  8
0
  6
Continuous
 62
     7
370
    25
100
AcDbCircle
 10
1511.275600907
 20
750.7370521542
 30
0.0
 40
19.58499408867294
100
AcDbArc
 50
0.0
 51
90.0
  0
ARC
  5
274
330
1F
100
AcDbEntity
  8
0
  6
Continuous
 62
     7
370
    25
100
AcDbCircle
 10
1511.275600907
 20
750.7370521542
 30
0.0
 40
20.46173638225127
100
AcDbArc
 50
0.0
 51
90.0
  0
ARC
  5
275
330
1F
100
AcDbEntity
  8
0
  6
Continuous
 62
     7
370
    25
100
AcDbCircle
 10
513.395600907
 20
307.8570521542
 30
0.0
 40
19.584994088673
100
AcDbArc
 50
180.0
 51
270.0
  0
ARC
  5
276
330
1F
100
AcDbEntity
  8
0
  6
Continuous
 62
     7
370
    25
100
AcDbCircle
 10
513.395600907
 20
307.8570521542
 30
0.0
 40
20.46173638225116
100
AcDbArc
 50
180.0
 51
270.0
  0
LINE
  5
277
330
1F
100
AcDbEntity
  8
0
  6
Continuous
 62
     7
370
    25
100
AcDbLine
 10
484.835600907
 20
270.2970521542
 30
0.0
 11
1539.835600907
 21
270.2970521542
 31
0.0
  0
LINE
  5
278
330
1F
100
AcDbEntity
  8
0
  6
Continuous
 62
     7
370
    25
100
AcDbLine
 10
1539.835600907
 20
270.2970521542
 30
0.0
 11
1539.835600907
 21
269.2970521542
 31
0.0
  0
LINE
  5
279
330
1F
100
AcDbEntity
  8
0
  6
Continuous
 62
     7
370
    25
100
AcDbLine
 10
1539.835600907
 20
269.2970521542
 30
0.0
 11
484.835600907
 21
269.2970521542
 31
0.0
  0
LINE
  5
27A
330
1F
100
AcDbEntity
  8
0
  6
Continuous
 62
     7
370
    25
100
AcDbLine
 10
484.835600907
 20
269.2970521542
 30
0.0
 11
484.835600907
 21
270.2970521542
 31
0.0
  0
ARC
  5
27B
330
1F
100
AcDbEntity
  8
0
  6
Continuous
 62
     7
370
    25
100
AcDbCircle
 10
1539.835600907
 20
279.2970521542
 30
0.0
 40
9.00000000000017
100
AcDbArc
 50
270.0
 51
0.0
  0
LINE
  5
27C
330
1F
100
AcDbEntity
  8
0
  6
Continuous
 62
     7
370
    25
100
AcDbLine
 10
1548.835600907
 20
279.2970521542
 30
0.0
 11
1549.835600907
 21
279.2970521542
 31
0.0
  0
ARC
  5
27D
330
1F
100
AcDbEntity
  8
0
  6
Continuous
 62
     7
370
    25
100
AcDbCircle
 10
1539.835600907
 20
279.2970521542
 30
0.0
 40
10.00000000000006
100
AcDbArc
 50
270.0
 51
0.0
  0
ARC
  5
27E
330
1F
100
AcDbEntity
  8
0
  6
Continuous
 62
     7
370
    25
100
AcDbCircle
 10
484.835600907
 20
279.2970521542
 30
0.0
 40
10.00000000000006
100
AcDbArc
 50
180.0
 51
270.0
  0
LINE
  5
27F
330
1F
100
AcDbEntity
  8
0
  6
Continuous
 62
     7
370
    25
100
AcDbLine
 10
474.835600907
 20
279.2970521542
 30
0.0
 11
475.835600907
 21
279.2970521542
 31
0.0
  0
ARC
  5
280
330
1F
100
AcDbEntity
  8
0
  6
Continuous
 62
     7
370
    25
100
AcDbCircle
 10
484.835600907
 20
279.2970521542
 30
0.0
 40
9.00000000000017
100
AcDbArc
 50
180.0
 51
270.0
  0
LINE
  5
281
330
1F
100
AcDbEntity
  8
0
  6
Continuous
 62
     7
370
    25
100
AcDbLine
 10
1548.835600907
 20
279.2970521542
 30
0.0
 11
1548.835600907
 21
779.2970521542
 31
0.0
  0
LINE
  5
282
330
1F
100
AcDbEntity
  8
0
  6
Continuous
 62
     7
370
    25
100
AcDbLine
 10
1548.835600907
 20
779.2970521542
 30
0.0
 11
1549.835600907
 21
779.2970521542
 31
0.0
  0
LINE
  5
283
330
1F
100
AcDbEntity
  8
0
  6
Continuous
 62
     7
370
    25
100
AcDbLine
 10
1549.835600907
 20
779.2970521542
 30
0.0
 11
1549.835600907
 21
279.2970521542
 31
0.0
  0
LINE
  5
284
330
1F
100
AcDbEntity
  8
0
  6
Continuous
 62
     7
370
    25
100
AcDbLine
 10
474.835600907
 20
279.2970521542
 30
0.0
 11
474.835600907
 21
779.2970521542
 31
0.0
  0
LINE
  5
285
330
1F
100
AcDbEntity
  8
0
  6
Continuous
 62
     7
370
    25
100
AcDbLine
 10
474.835600907
 20
779.2970521542
 30
0.0
 11
475.835600907
 21
779.2970521542
 31
0.0
  0
LINE
  5
286
330
1F
100
AcDbEntity
  8
0
  6
Continuous
 62
     7
370
    25
100
AcDbLine
 10
475.835600907
 20
779.2970521542
 30
0.0
 11
475.835600907
 21
279.2970521542
 31
0.0
  0
ARC
  5
287
330
1F
100
AcDbEntity
  8
0
  6
Continuous
 62
     7
370
    25
100
AcDbCircle
 10
1539.835600907
 20
779.2970521542
 30
0.0
 40
9.000000000000114
100
AcDbArc
 50
0.0
 51
90.0
  0
ARC
  5
288
330
1F
100
AcDbEntity
  8
0
  6
Continuous
 62
     7
370
    25
100
AcDbCircle
 10
1539.835600907
 20
779.2970521542
 30
0.0
 40
10.0
100
AcDbArc
 50
0.0
 51
90.0
  0
ARC
  5
289
330
1F
100
AcDbEntity
  8
0
  6
Continuous
 62
     7
370
    25
100
AcDbCircle
 10
484.835600907
 20
779.2970521542
 30
0.0
 40
9.000000000000114
100
AcDbArc
 50
90.0
 51
180.0
  0
ARC
  5
28A
330
1F
100
AcDbEntity
  8
0
  6
Continuous
 62
     7
370
    25
100
AcDbCircle
 10
484.835600907
 20
779.2970521542
 30
0.0
 40
10.0
100
AcDbArc
 50
90.0
 51
180.0
  0
ARC
  5
28B
330
1F
100
AcDbEntity
  8
0
  6
Continuous
 62
     7
370
    25
100
AcDbCircle
 10
1511.275600907
 20
750.7370521542
 30
0.0
 40
16.51695604082079
100
AcDbArc
 50
0.0
 51
90.0
  0
LINE
  5
28C
330
1F
100
AcDbEntity
  8
0
  6
Continuous
 62
     7
370
    25
100
AcDbLine
 10
1511.275600907
 20
767.254008195
 30
0.0
 11
1511.275600907
 21
770.3220462429
 31
0.0
  0
LINE
  5
28D
330
1F
100
AcDbEntity
  8
0
  6
Continuous
 62
     7
370
    25
100
AcDbLine
 10
1527.7925569478
 20
750.7370521542
 30
0.0
 11
1530.8605949957
 21
750.7370521542
 31
0.0
  0
ARC
  5
28E
330
1F
100
AcDbEntity
  8
0
  6
Continuous
 62
     7
370
    25
100
AcDbCircle
 10
1511.275600907
 20
307.8570521542
 30
0.0
 40
16.51695604082079
100
AcDbArc
 50
270.0
 51
0.0
  0
LINE
  5
28F
330
1F
100
AcDbEntity
  8
0
  6
Continuous
 62
     7
370
    25
100
AcDbLine
 10
1527.7925569478
 20
307.8570521542
 30
0.0
 11
1530.8605949957
 21
307.8570521542
 31
0.0
  0
LINE
  5
290
330
1F
100
AcDbEntity
  8
0
  6
Continuous
 62
     7
370
    25
100
AcDbLine
 10
1511.275600907
 20
291.3400961134
 30
0.0
 11
1511.275600907
 21
288.2720580655
 31
0.0
  0
LINE
  5
291
330
1F
100
AcDbEntity
  8
0
  6
Continuous
 62
     7
370
    25
100
AcDbLine
 10
1527.7925569478
 20
750.7370521542
 30
0.0
 11
1527.7925569478
 21
307.8570521542
 31
0.0
  0
ARC
  5
292
330
1F
100
AcDbEntity
  8
0
  6
Continuous
 62
     7
370
    25
100
AcDbCircle
 10
513.395600907
 20
307.8570521542
 30
0.0
 40
16.51695604082073
100
AcDbArc
 50
180.0
 51
270.0
  0
LINE
  5
293
330
1F
100
AcDbEntity
  8
0
  6
Continuous
 62
     7
370
    25
100
AcDbLine
 10
513.395600907
 20
291.3400961134
 30
0.0
 11
513.395600907
 21
288.2720580655
 31
0.0
  0
LINE
  5
294
330
1F
100
AcDbEntity
  8
0
  6
Continuous
 62
     7
370
    25
100
AcDbLine
 10
496.8786448662
 20
307.8570521542
 30
0.0
 11
493.8106068184
 21
307.8570521542
 31
0.0
  0
LINE
  5
295
330
1F
100
AcDbEntity
  8
0
  6
Continuous
 62
     7
370
    25
100
AcDbLine
 10
496.8786448662
 20
307.8570521542
 30
0.0
 11
496.8786448662
 21
750.7370521542
 31
0.0
  0
LINE
  5
296
330
1F
100
AcDbEntity
  8
0
  6
Continuous
 62
     7
370
    25
100
AcDbLine
 10
496.8786448662
 20
750.7370521542
 30
0.0
 11
493.8106068184
 21
750.7370521542
 31
0.0
  0
ARC
  5
297
330
1F
100
AcDbEntity
  8
0
  6
Continuous
 62
     7
370
    25
100
AcDbCircle
 10
513.395600907
 20
750.7370521542
 30
0.0
 40
16.51695604082079
100
AcDbArc
 50
90.0
 51
180.0
  0
LINE
  5
298
330
1F
100
AcDbEntity
  8
0
  6
Continuous
 62
     7
370
    25
100
AcDbLine
 10
513.395600907
 20
767.254008195
 30
0.0
 11
513.395600907
 21
770.3220462429
 31
0.0
  0
LINE
  5
299
330
1F
100
AcDbEntity
  8
0
  6
Continuous
 62
     7
370
    25
100
AcDbLine
 10
1511.275600907
 20
291.3400961134
 30
0.0
 11
513.395600907
 21
291.3400961134
 31
0.0
  0
LINE
  5
29A
330
1F
100
AcDbEntity
  8
0
  6
Continuous
 62
     7
370
    25
100
AcDbLine
 10
513.395600907
 20
767.254008195
 30
0.0
 11
1511.275600907
 21
767.254008195
 31
0.0
  0
LINE
  5
29B
330
1F
100
AcDbEntity
  8
0
  6
Continuous
 62
     7
370
    25
100
AcDbLine
 10
1490.7925569478
 20
340.7970521542
 30
0.0
 11
1517.7925569478
 21
339.3067125835
 31
0.0
  0
LINE
  5
29C
330
1F
100
AcDbEntity
  8
0
  6
Continuous
 62
     7
370
    25
100
AcDbLine
 10
1517.7925569478
 20
339.3067125835
 30
0.0
 11
1517.7925569478
 21
339.2970521542
 31
0.0
  0
LINE
  5
29D
330
1F
100
AcDbEntity
  8
0
  6
Continuous
 62
     7
370
    25
100
AcDbLine
 10
1493.7324888335
 20
339.2970521542
 30
0.0
 11
1517.7925569478
 21
339.2970521542
 31
0.0
  0
ELLIPSE
  5
29E
330
1F
100
AcDbEntity
  8
0
  6
Continuous
 62
     7
370
    25
100
AcDbEllipse
 10
1548.0825185786
 20
339.2970521542
 30
0.0
 11
57.28996139129662
 21
-0.3163144990816704
 31
0.0
210
0.0
220
0.0
230
1.0
 40
0.0165588239
 41
3.141684079661664
 42
3.463434634058236
  0
LINE
  5
29F
330
1F
100
AcDbEntity
  8
0
  6
Continuous
 62
     7
370
    25
100
AcDbLine
 10
1490.7925569478
 20
339.6132799202
 30
0.0
 11
1490.7925569478
 21
340.7970521542
 31
0.0
  0
LINE
  5
2A0
330
1F
100
AcDbEntity
  8
0
  6
Continuous
 62
     7
370
    25
100
AcDbLine
 10
1517.7925569478
 20
339.2970521542
 30
0.0
 11
1517.7925569478
 21
339.2873917249
 31
0.0
  0
LINE
  5
2A1
330
1F
100
AcDbEntity
  8
0
  6
Continuous
 62
     7
370
    25
100
AcDbLine
 10
1517.7925569478
 20
339.2873917249
 30
0.0
 11
1490.7925569478
 21
337.7970521542
 31
0.0
  0
LINE
  5
2A2
330
1F
100
AcDbEntity
  8
0
  6
Continuous
 62
     7
370
    25
100
AcDbLine
 10
1490.7925569478
 20
337.7970521542
 30
0.0
 11
1490.7925569478
 21
338.9808243882
 31
0.0
  0
ELLIPSE
  5
2A3
330
1F
100
AcDbEntity
  8
0
  6
Continuous
 62
     7
370
    25
100
AcDbEllipse
 10
1548.0825185786
 20
339.2970521542
 30
0.0
 11
57.28996139129639
 21
0.3163144990816135
 31
0.0
210
0.0
220
0.0
230
1.0
 40
0.0165588239
 41
2.819750673122183
 42
3.14150122751882
  0
LINE
  5
2A4
330
1F
100
AcDbEntity
  8
0
  6
Continuous
 62
     7
370
    25
100
AcDbLine
 10
1274.460600907
 20
337.7970521542
 30
0.0
 11
1247.460600907
 21
339.2873917249
 31
0.0
  0
LINE
  5
2A5
330
1F
100
AcDbEntity
  8
0
  6
Continuous
 62
     7
370
    25
100
AcDbLine
 10
1247.460600907
 20
339.2873917249
 30
0.0
 11
1247.460600907
 21
339.2970521542
 31
0.0
  0
LINE
  5
2A6
330
1F
100
AcDbEntity
  8
0
  6
Continuous
 62
     7
370
    25
100
AcDbLine
 10
1271.5206690213
 20
339.2970521542
 30
0.0
 11
1247.460600907
 21
339.2970521542
 31
0.0
  0
ELLIPSE
  5
2A7
330
1F
100
AcDbEntity
  8
0
  6
Continuous
 62
     7
370
    25
100
AcDbEllipse
 10
1217.1706392763
 20
339.2970521542
 30
0.0
 11
57.28996139129639
 21
-0.3163144990816704
 31
0.0
210
0.0
220
0.0
230
1.0
 40
0.0165588239
 41
0.0000914260709786
 42
0.321841980467675
  0
LINE
  5
2A8
330
1F
100
AcDbEntity
  8
0
  6
Continuous
 62
     7
370
    25
100
AcDbLine
 10
1274.460600907
 20
338.9808243882
 30
0.0
 11
1274.460600907
 21
337.7970521542
 31
0.0
  0
LINE
  5
2A9
330
1F
100
AcDbEntity
  8
0
  6
Continuous
 62
     7
370
    25
100
AcDbLine
 10
1247.460600907
 20
339.2970521542
 30
0.0
 11
1247.460600907
 21
339.3067125835
 31
0.0
  0
LINE
  5
2AA
330
1F
100
AcDbEntity
  8
0
  6
Continuous
 62
     7
370
    25
100
AcDbLine
 10
1247.460600907
 20
339.3067125835
 30
0.0
 11
1274.460600907
 21
340.7970521542
 31
0.0
  0
LINE
  5
2AB
330
1F
100
AcDbEntity
  8
0
  6
Continuous
 62
     7
370
    25
100
AcDbLine
 10
1274.460600907
 20
340.7970521542
 30
0.0
 11
1274.460600907
 21
339.6132799202
 31
0.0
  0
ELLIPSE
  5
2AC
330
1F
100
AcDbEntity
  8
0
  6
Continuous
 62
     7
370
    25
100
AcDbEllipse
 10
1217.1706392763
 20
339.2970521542
 30
0.0
 11
57.28996139129639
 21
0.3163144990815567
 31
0.0
210
0.0
220
0.0
230
1.0
 40
0.0165588239
 41
5.961343326712766
 42
6.28309388110949
  0
LINE
  5
2AD
330
1F
100
AcDbEntity
  8
0
  6
Continuous
 62
     7
370
    25
100
AcDbLine
 10
1274.460600907
 20
339.6132799202
 30
0.0
 11
1490.7925569478
 21
339.6132799202
 31
0.0
  0
LINE
  5
2AE
330
1F
100
AcDbEntity
  8
0
  6
Continuous
 62
     7
370
    25
100
AcDbLine
 10
1490.7925569478
 20
338.9808243882
 30
0.0
 11
1274.460600907
 21
338.9808243882
 31
0.0
  0
LINE
  5
2AF
330
1F
100
AcDbEntity
  8
0
  6
Continuous
 62
     7
370
    25
100
AcDbLine
 10
1517.7925569478
 20
719.2970521542
 30
0.0
 11
1517.7925569478
 21
719.2873917249
 31
0.0
  0
LINE
  5
2B0
330
1F
100
AcDbEntity
  8
0
  6
Continuous
 62
     7
370
    25
100
AcDbLine
 10
1517.7925569478
 20
719.2873917249
 30
0.0
 11
1490.7925569478
 21
717.7970521542
 31
0.0
  0
LINE
  5
2B1
330
1F
100
AcDbEntity
  8
0
  6
Continuous
 62
     7
370
    25
100
AcDbLine
 10
1490.7925569478
 20
717.7970521542
 30
0.0
 11
1490.7925569478
 21
718.9808243882
 31
0.0
  0
ELLIPSE
  5
2B2
330
1F
100
AcDbEntity
  8
0
  6
Continuous
 62
     7
370
    25
100
AcDbEllipse
 10
1548.0825185786
 20
719.2970521542
 30
0.0
 11
57.28996139129639
 21
0.3163144990816135
 31
0.0
210
0.0
220
0.0
230
1.0
 40
0.0165588239
 41
2.81975067312228
 42
3.14150122751882
  0
LINE
  5
2B3
330
1F
100
AcDbEntity
  8
0
  6
Continuous
 62
     7
370
    25
100
AcDbLine
 10
1517.7925569478
 20
719.2970521542
 30
0.0
 11
1493.7324888336
 21
719.2970521542
 31
0.0
  0
LINE
  5
2B4
330
1F
100
AcDbEntity
  8
0
  6
Continuous
 62
     7
370
    25
100
AcDbLine
 10
1247.460600907
 20
719.2970521542
 30
0.0
 11
1247.460600907
 21
719.3067125835
 31
0.0
  0
LINE
  5
2B5
330
1F
100
AcDbEntity
  8
0
  6
Continuous
 62
     7
370
    25
100
AcDbLine
 10
1247.460600907
 20
719.3067125835
 30
0.0
 11
1274.460600907
 21
720.7970521542
 31
0.0
  0
LINE
  5
2B6
330
1F
100
AcDbEntity
  8
0
  6
Continuous
 62
     7
370
    25
100
AcDbLine
 10
1274.460600907
 20
720.7970521542
 30
0.0
 11
1274.460600907
 21
719.6132799202
 31
0.0
  0
ELLIPSE
  5
2B7
330
1F
100
AcDbEntity
  8
0
  6
Continuous
 62
     7
370
    25
100
AcDbEllipse
 10
1217.1706392763
 20
719.2970521542
 30
0.0
 11
57.28996139129662
 21
0.3163144990816136
 31
0.0
210
0.0
220
0.0
230
1.0
 40
0.0165588239
 41
5.961343326712752
 42
6.283093881109598
  0
LINE
  5
2B8
330
1F
100
AcDbEntity
  8
0
  6
Continuous
 62
     7
370
    25
100
AcDbLine
 10
1247.460600907
 20
719.2970521542
 30
0.0
 11
1271.5206690213
 21
719.2970521542
 31
0.0
  0
LINE
  5
2B9
330
1F
100
AcDbEntity
  8
0
  6
Continuous
 62
     7
370
    25
100
AcDbLine
 10
1490.7925569479
 20
720.7970521542
 30
0.0
 11
1517.7925569478
 21
719.3067125835
 31
0.0
  0
LINE
  5
2BA
330
1F
100
AcDbEntity
  8
0
  6
Continuous
 62
     7
370
    25
100
AcDbLine
 10
1517.7925569478
 20
719.3067125835
 30
0.0
 11
1517.7925569478
 21
719.2970521542
 31
0.0
  0
ELLIPSE
  5
2BB
330
1F
100
AcDbEntity
  8
0
  6
Continuous
 62
     7
370
    25
100
AcDbEllipse
 10
1548.0825185786
 20
719.2970521542
 30
0.0
 11
57.28996139129639
 21
-0.3163144990817272
 31
0.0
210
0.0
220
0.0
230
1.0
 40
0.0165588239
 41
3.141684079661744
 42
3.463434634058403
  0
LINE
  5
2BC
330
1F
100
AcDbEntity
  8
0
  6
Continuous
 62
     7
370
    25
100
AcDbLine
 10
1490.7925569479
 20
719.6132799202
 30
0.0
 11
1490.7925569479
 21
720.7970521542
 31
0.0
  0
LINE
  5
2BD
330
1F
100
AcDbEntity
  8
0
  6
Continuous
 62
     7
370
    25
100
AcDbLine
 10
1274.460600907
 20
717.7970521542
 30
0.0
 11
1247.460600907
 21
719.2873917249
 31
0.0
  0
LINE
  5
2BE
330
1F
100
AcDbEntity
  8
0
  6
Continuous
 62
     7
370
    25
100
AcDbLine
 10
1247.460600907
 20
719.2873917249
 30
0.0
 11
1247.460600907
 21
719.2970521542
 31
0.0
  0
ELLIPSE
  5
2BF
330
1F
100
AcDbEntity
  8
0
  6
Continuous
 62
     7
370
    25
100
AcDbEllipse
 10
1217.1706392763
 20
719.2970521542
 30
0.0
 11
57.28996139129639
 21
-0.3163144990816135
 31
0.0
210
0.0
220
0.0
230
1.0
 40
0.0165588239
 41
0.0000914260709773
 42
0.3218419804675847
  0
LINE
  5
2C0
330
1F
100
AcDbEntity
  8
0
  6
Continuous
 62
     7
370
    25
100
AcDbLine
 10
1274.460600907
 20
718.9808243882
 30
0.0
 11
1274.460600907
 21
717.7970521542
 31
0.0
  0
LINE
  5
2C1
330
1F
100
AcDbEntity
  8
0
  6
Continuous
 62
     7
370
    25
100
AcDbLine
 10
1274.460600907
 20
719.6132799202
 30
0.0
 11
1490.7925569479
 21
719.6132799202
 31
0.0
  0
LINE
  5
2C2
330
1F
100
AcDbEntity
  8
0
  6
Continuous
 62
     7
370
    25
100
AcDbLine
 10
1490.7925569478
 20
718.9808243882
 30
0.0
 11
1274.460600907
 21
718.9808243882
 31
0.0
  0
LINE
  5
2C3
330
1F
100
AcDbEntity
  8
0
  6
Continuous
 62
     7
370
    25
100
AcDbLine
 10
1274.460600907
 20
717.7970521542
 30
0.0
 11
1490.7925569478
 21
717.7970521542
 31
0.0
  0
LINE
  5
2C4
330
1F
100
AcDbEntity
  8
0
  6
Continuous
 62
     7
370
    25
100
AcDbLine
 10
1274.460600907
 20
340.7970521542
 30
0.0
 11
1490.7925569478
 21
340.7970521542
 31
0.0
  0
LINE
  5
2C5
330
1F
100
AcDbEntity
  8
0
  6
Continuous
 62
     7
370
    25
100
AcDbLine
 10
1274.460600907
 20
337.7970521542
 30
0.0
 11
1490.7925569478
 21
337.7970521542
 31
0.0
  0
LINE
  5
2C6
330
1F
100
AcDbEntity
  8
0
  6
Continuous
 62
     7
370
    25
100
AcDbLine
 10
1274.460600907
 20
720.7970521542
 30
0.0
 11
1490.7925569479
 21
720.7970521542
 31
0.0
  0
LINE
  5
2C7
330
1F
100
AcDbEntity
  8
0
  6
Continuous
 62
     7
370
    25
100
AcDbLine
 10
1494.694796887
 20
547.4072376342
 30
0.0
 11
1494.194796887
 21
547.4072376342
 31
0.0
  0
LINE
  5
2C8
330
1F
100
AcDbEntity
  8
0
  6
Continuous
 62
     7
370
    25
100
AcDbLine
 10
1494.194796887
 20
547.4072376342
 30
0.0
 11
1494.094796887
 21
547.5072376342
 31
0.0
  0
LINE
  5
2C9
330
1F
100
AcDbEntity
  8
0
  6
Continuous
 62
     7
370
    25
100
AcDbLine
 10
1494.094796887
 20
547.5072376342
 30
0.0
 11
1494.794796887
 21
547.5072376342
 31
0.0
  0
LINE
  5
2CA
330
1F
100
AcDbEntity
  8
0
  6
Continuous
 62
     7
370
    25
100
AcDbLine
 10
1494.694796887
 20
547.4072376342
 30
0.0
 11
1494.794796887
 21
547.5072376342
 31
0.0
  0
LINE
  5
2CB
330
1F
100
AcDbEntity
  8
0
  6
Continuous
 62
     7
370
    25
100
AcDbLine
 10
1494.694796887
 20
516.4796237842
 30
0.0
 11
1499.823433097
 21
516.4796237842
 31
0.0
  0
LINE
  5
2CC
330
1F
100
AcDbEntity
  8
0
  6
Continuous
 62
     7
370
    25
100
AcDbLine
 10
1499.723433097
 20
516.3796237842
 30
0.0
 11
1499.823433097
 21
516.4796237842
 31
0.0
  0
LINE
  5
2CD
330
1F
100
AcDbEntity
  8
0
  6
Continuous
 62
     7
370
    25
100
AcDbLine
 10
1499.723433097
 20
516.3796237842
 30
0.0
 11
1494.794796887
 21
516.3796237842
 31
0.0
  0
LINE
  5
2CE
330
1F
100
AcDbEntity
  8
0
  6
Continuous
 62
     7
370
    25
100
AcDbLine
 10
1494.694796887
 20
516.4796237842
 30
0.0
 11
1494.794796887
 21
516.3796237842
 31
0.0
  0
LINE
  5
2CF
330
1F
100
AcDbEntity
  8
0
  6
Continuous
 62
     7
370
    25
100
AcDbLine
 10
1494.194796887
 20
525.3570521542
 30
0.0
 11
1491.823433097
 21
525.3570521542
 31
0.0
  0
LINE
  5
2D0
330
1F
100
AcDbEntity
  8
0
  6
Continuous
 62
     7
370
    25
100
AcDbLine
 10
1491.923433097
 20
525.4570521542
 30
0.0
 11
1491.823433097
 21
525.3570521542
 31
0.0
  0
LINE
  5
2D1
330
1F
100
AcDbEntity
  8
0
  6
Continuous
 62
     7
370
    25
100
AcDbLine
 10
1491.923433097
 20
525.4570521542
 30
0.0
 11
1494.094796887
 21
525.4570521542
 31
0.0
  0
LINE
  5
2D2
330
1F
100
AcDbEntity
  8
0
  6
Continuous
 62
     7
370
    25
100
AcDbLine
 10
1494.194796887
 20
525.3570521542
 30
0.0
 11
1494.094796887
 21
525.4570521542
 31
0.0
  0
LINE
  5
2D3
330
1F
100
AcDbEntity
  8
0
  6
Continuous
 62
     7
370
    25
100
AcDbLine
 10
1497.564237117
 20
514.2277154642
 30
0.0
 11
1497.564237117
 21
508.6970521542
 31
0.0
  0
LINE
  5
2D4
330
1F
100
AcDbEntity
  8
0
  6
Continuous
 62
     7
370
    25
100
AcDbLine
 10
1497.564237117
 20
508.6970521542
 30
0.0
 11
1497.464237117
 21
508.5970521542
 31
0.0
  0
LINE
  5
2D5
330
1F
100
AcDbEntity
  8
0
  6
Continuous
 62
     7
370
    25
100
AcDbLine
 10
1497.464237117
 20
508.5970521542
 30
0.0
 11
1497.464237117
 21
514.1277154642
 31
0.0
  0
LINE
  5
2D6
330
1F
100
AcDbEntity
  8
0
  6
Continuous
 62
     7
370
    25
100
AcDbLine
 10
1497.564237117
 20
514.2277154642
 30
0.0
 11
1497.464237117
 21
514.1277154642
 31
0.0
  0
LINE
  5
2D7
330
1F
100
AcDbEntity
  8
0
  6
Continuous
 62
     7
370
    25
100
AcDbLine
 10
1496.864237117
 20
547.5072376342
 30
0.0
 11
1497.564237117
 21
547.5072376342
 31
0.0
  0
LINE
  5
2D8
330
1F
100
AcDbEntity
  8
0
  6
Continuous
 62
     7
370
    25
100
AcDbLine
 10
1497.464237117
 20
547.4072376342
 30
0.0
 11
1497.564237117
 21
547.5072376342
 31
0.0
  0
LINE
  5
2D9
330
1F
100
AcDbEntity
  8
0
  6
Continuous
 62
     7
370
    25
100
AcDbLine
 10
1497.464237117
 20
547.4072376342
 30
0.0
 11
1496.964237117
 21
547.4072376342
 31
0.0
  0
LINE
  5
2DA
330
1F
100
AcDbEntity
  8
0
  6
Continuous
 62
     7
370
    25
100
AcDbLine
 10
1496.864237117
 20
547.5072376342
 30
0.0
 11
1496.964237117
 21
547.4072376342
 31
0.0
  0
LINE
  5
2DB
330
1F
100
AcDbEntity
  8
0
  6
Continuous
 62
     7
370
    25
100
AcDbLine
 10
1491.923433097
 20
533.1370521542
 30
0.0
 11
1491.923433097
 21
525.4570521542
 31
0.0
  0
LINE
  5
2DC
330
1F
100
AcDbEntity
  8
0
  6
Continuous
 62
     7
370
    25
100
AcDbLine
 10
1491.823433097
 20
525.3570521542
 30
0.0
 11
1491.823433097
 21
533.2370521542
 31
0.0
  0
LINE
  5
2DD
330
1F
100
AcDbEntity
  8
0
  6
Continuous
 62
     7
370
    25
100
AcDbLine
 10
1491.923433097
 20
533.1370521542
 30
0.0
 11
1491.823433097
 21
533.2370521542
 31
0.0
  0
LINE
  5
2DE
330
1F
100
AcDbEntity
  8
0
  6
Continuous
 62
     7
370
    25
100
AcDbLine
 10
1494.194796887
 20
524.8570521542
 30
0.0
 11
1494.194796887
 21
523.0679668942
 31
0.0
  0
LINE
  5
2DF
330
1F
100
AcDbEntity
  8
0
  6
Continuous
 62
     7
370
    25
100
AcDbLine
 10
1494.194796887
 20
523.0679668942
 30
0.0
 11
1494.094796887
 21
522.9679668942
 31
0.0
  0
LINE
  5
2E0
330
1F
100
AcDbEntity
  8
0
  6
Continuous
 62
     7
370
    25
100
AcDbLine
 10
1494.094796887
 20
522.9679668942
 30
0.0
 11
1494.094796887
 21
524.7570521542
 31
0.0
  0
LINE
  5
2E1
330
1F
100
AcDbEntity
  8
0
  6
Continuous
 62
     7
370
    25
100
AcDbLine
 10
1494.194796887
 20
524.8570521542
 30
0.0
 11
1494.094796887
 21
524.7570521542
 31
0.0
  0
LINE
  5
2E2
330
1F
100
AcDbEntity
  8
0
  6
Continuous
 62
     7
370
    25
100
AcDbLine
 10
1494.094796887
 20
517.0770521542
 30
0.0
 11
1494.094796887
 21
519.3373913542
 31
0.0
  0
LINE
  5
2E3
330
1F
100
AcDbEntity
  8
0
  6
Continuous
 62
     7
370
    25
100
AcDbLine
 10
1494.094796887
 20
519.3373913542
 30
0.0
 11
1494.194796887
 21
519.2373913542
 31
0.0
  0
LINE
  5
2E4
330
1F
100
AcDbEntity
  8
0
  6
Continuous
 62
     7
370
    25
100
AcDbLine
 10
1494.194796887
 20
519.2373913542
 30
0.0
 11
1494.194796887
 21
516.9770521542
 31
0.0
  0
LINE
  5
2E5
330
1F
100
AcDbEntity
  8
0
  6
Continuous
 62
     7
370
    25
100
AcDbLine
 10
1494.094796887
 20
517.0770521542
 30
0.0
 11
1494.194796887
 21
516.9770521542
 31
0.0
  0
LINE
  5
2E6
330
1F
100
AcDbEntity
  8
0
  6
Continuous
 62
     7
370
    25
100
AcDbLine
 10
1499.723433097
 20
509.5970521542
 30
0.0
 11
1499.723433097
 21
516.3796237842
 31
0.0
  0
LINE
  5
2E7
330
1F
100
AcDbEntity
  8
0
  6
Continuous
 62
     7
370
    25
100
AcDbLine
 10
1499.823433097
 20
516.4796237842
 30
0.0
 11
1499.823433097
 21
509.5970521542
 31
0.0
  0
LINE
  5
2E8
330
1F
100
AcDbEntity
  8
0
  6
Continuous
 62
     7
370
    25
100
AcDbLine
 10
1499.723433097
 20
509.5970521542
 30
0.0
 11
1499.823433097
 21
509.5970521542
 31
0.0
  0
LINE
  5
2E9
330
1F
100
AcDbEntity
  8
0
  6
Continuous
 62
     7
370
    25
100
AcDbLine
 10
1494.194796887
 20
523.0679668942
 30
0.0
 11
1499.835600907
 21
523.0679668942
 31
0.0
  0
LINE
  5
2EA
330
1F
100
AcDbEntity
  8
0
  6
Continuous
 62
     7
370
    25
100
AcDbLine
 10
1499.835600907
 20
523.0679668942
 30
0.0
 11
1499.735600907
 21
522.9679668942
 31
0.0
  0
LINE
  5
2EB
330
1F
100
AcDbEntity
  8
0
  6
Continuous
 62
     7
370
    25
100
AcDbLine
 10
1499.735600907
 20
522.9679668942
 30
0.0
 11
1494.094796887
 21
522.9679668942
 31
0.0
  0
LINE
  5
2EC
330
1F
100
AcDbEntity
  8
0
  6
Continuous
 62
     7
370
    25
100
AcDbLine
 10
1494.094796887
 20
519.3373913542
 30
0.0
 11
1499.735600907
 21
519.3373913542
 31
0.0
  0
LINE
  5
2ED
330
1F
100
AcDbEntity
  8
0
  6
Continuous
 62
     7
370
    25
100
AcDbLine
 10
1499.735600907
 20
519.3373913542
 30
0.0
 11
1499.835600907
 21
519.2373913542
 31
0.0
  0
LINE
  5
2EE
330
1F
100
AcDbEntity
  8
0
  6
Continuous
 62
     7
370
    25
100
AcDbLine
 10
1499.835600907
 20
519.2373913542
 30
0.0
 11
1494.194796887
 21
519.2373913542
 31
0.0
  0
LINE
  5
2EF
330
1F
100
AcDbEntity
  8
0
  6
Continuous
 62
     7
370
    25
100
AcDbLine
 10
1499.735600907
 20
533.1370521542
 30
0.0
 11
1491.923433097
 21
533.1370521542
 31
0.0
  0
LINE
  5
2F0
330
1F
100
AcDbEntity
  8
0
  6
Continuous
 62
     7
370
    25
100
AcDbLine
 10
1491.823433097
 20
533.2370521542
 30
0.0
 11
1499.835600907
 21
533.2370521542
 31
0.0
  0
LINE
  5
2F1
330
1F
100
AcDbEntity
  8
0
  6
Continuous
 62
     7
370
    25
100
AcDbLine
 10
1499.735600907
 20
533.1370521542
 30
0.0
 11
1499.835600907
 21
533.2370521542
 31
0.0
  0
ARC
  5
2F2
330
1F
100
AcDbEntity
  8
0
  6
Continuous
 62
     7
370
    25
100
AcDbCircle
 10
1492.823433097
 20
509.5970521542
 30
0.0
 40
1.000000000000227
100
AcDbArc
 50
180.0
 51
270.0
  0
LINE
  5
2F3
330
1F
100
AcDbEntity
  8
0
  6
Continuous
 62
     7
370
    25
100
AcDbLine
 10
1491.823433097
 20
509.5970521542
 30
0.0
 11
1491.923433097
 21
509.5970521542
 31
0.0
  0
ARC
  5
2F4
330
1F
100
AcDbEntity
  8
0
  6
Continuous
 62
     7
370
    25
100
AcDbCircle
 10
1492.823433097
 20
509.5970521542
 30
0.0
 40
0.900000000000091
100
AcDbArc
 50
180.0
 51
270.0
  0
LINE
  5
2F5
330
1F
100
AcDbEntity
  8
0
  6
Continuous
 62
     7
370
    25
100
AcDbLine
 10
1492.823433097
 20
508.5970521542
 30
0.0
 11
1492.823433097
 21
508.6970521542
 31
0.0
  0
LINE
  5
2F6
330
1F
100
AcDbEntity
  8
0
  6
Continuous
 62
     7
370
    25
100
AcDbLine
 10
1496.864237117
 20
508.6970521542
 30
0.0
 11
1496.864237117
 21
514.2277154642
 31
0.0
  0
LINE
  5
2F7
330
1F
100
AcDbEntity
  8
0
  6
Continuous
 62
     7
370
    25
100
AcDbLine
 10
1496.864237117
 20
514.2277154642
 30
0.0
 11
1496.964237117
 21
514.1277154642
 31
0.0
  0
LINE
  5
2F8
330
1F
100
AcDbEntity
  8
0
  6
Continuous
 62
     7
370
    25
100
AcDbLine
 10
1496.964237117
 20
514.1277154642
 30
0.0
 11
1496.964237117
 21
508.5970521542
 31
0.0
  0
LINE
  5
2F9
330
1F
100
AcDbEntity
  8
0
  6
Continuous
 62
     7
370
    25
100
AcDbLine
 10
1496.864237117
 20
508.6970521542
 30
0.0
 11
1496.964237117
 21
508.5970521542
 31
0.0
  0
LINE
  5
2FA
330
1F
100
AcDbEntity
  8
0
  6
Continuous
 62
     7
370
    25
100
AcDbLine
 10
1496.864237117
 20
544.0732196342
 30
0.0
 11
1496.864237117
 21
547.5072376342
 31
0.0
  0
LINE
  5
2FB
330
1F
100
AcDbEntity
  8
0
  6
Continuous
 62
     7
370
    25
100
AcDbLine
 10
1496.964237117
 20
547.4072376342
 30
0.0
 11
1496.964237117
 21
544.1732196342
 31
0.0
  0
LINE
  5
2FC
330
1F
100
AcDbEntity
  8
0
  6
Continuous
 62
     7
370
    25
100
AcDbLine
 10
1496.864237117
 20
544.0732196342
 30
0.0
 11
1496.964237117
 21
544.1732196342
 31
0.0
  0
LINE
  5
2FD
330
1F
100
AcDbEntity
  8
0
  6
Continuous
 62
     7
370
    25
100
AcDbLine
 10
1497.464237117
 20
544.1732196342
 30
0.0
 11
1497.464237117
 21
547.4072376342
 31
0.0
  0
LINE
  5
2FE
330
1F
100
AcDbEntity
  8
0
  6
Continuous
 62
     7
370
    25
100
AcDbLine
 10
1497.564237117
 20
547.5072376342
 30
0.0
 11
1497.564237117
 21
544.0732196342
 31
0.0
  0
LINE
  5
2FF
330
1F
100
AcDbEntity
  8
0
  6
Continuous
 62
     7
370
    25
100
AcDbLine
 10
1497.464237117
 20
544.1732196342
 30
0.0
 11
1497.564237117
 21
544.0732196342
 31
0.0
  0
LINE
  5
300
330
1F
100
AcDbEntity
  8
0
  6
Continuous
 62
     7
370
    25
100
AcDbLine
 10
1497.564237117
 20
544.0732196342
 30
0.0
 11
1496.864237117
 21
544.0732196342
 31
0.0
  0
ARC
  5
301
330
1F
100
AcDbEntity
  8
0
  6
Continuous
 62
     7
370
    25
100
AcDbCircle
 10
1492.823433097
 20
548.9970521542
 30
0.0
 40
0.900000000000091
100
AcDbArc
 50
90.0
 51
180.0
  0
LINE
  5
302
330
1F
100
AcDbEntity
  8
0
  6
Continuous
 62
     7
370
    25
100
AcDbLine
 10
1498.835600907
 20
549.8970521542
 30
0.0
 11
1492.823433097
 21
549.8970521542
 31
0.0
  0
ARC
  5
303
330
1F
100
AcDbEntity
  8
0
  6
Continuous
 62
     7
370
    25
100
AcDbCircle
 10
1498.835600907
 20
548.9970521542
 30
0.0
 40
0.900000000000091
100
AcDbArc
 50
0.0
 51
90.0
  0
LINE
  5
304
330
1F
100
AcDbEntity
  8
0
  6
Continuous
 62
     7
370
    25
100
AcDbLine
 10
1499.735600907
 20
542.2170521542
 30
0.0
 11
1499.735600907
 21
548.9970521542
 31
0.0
  0
LINE
  5
305
330
1F
100
AcDbEntity
  8
0
  6
Continuous
 62
     7
370
    25
100
AcDbLine
 10
1494.794796887
 20
542.2170521542
 30
0.0
 11
1499.735600907
 21
542.2170521542
 31
0.0
  0
LINE
  5
306
330
1F
100
AcDbEntity
  8
0
  6
Continuous
 62
     7
370
    25
100
AcDbLine
 10
1494.794796887
 20
547.5072376342
 30
0.0
 11
1494.794796887
 21
542.2170521542
 31
0.0
  0
LINE
  5
307
330
1F
100
AcDbEntity
  8
0
  6
Continuous
 62
     7
370
    25
100
AcDbLine
 10
1494.094796887
 20
542.2170521542
 30
0.0
 11
1494.094796887
 21
547.5072376342
 31
0.0
  0
LINE
  5
308
330
1F
100
AcDbEntity
  8
0
  6
Continuous
 62
     7
370
    25
100
AcDbLine
 10
1491.923433097
 20
542.2170521542
 30
0.0
 11
1494.094796887
 21
542.2170521542
 31
0.0
  0
LINE
  5
309
330
1F
100
AcDbEntity
  8
0
  6
Continuous
 62
     7
370
    25
100
AcDbLine
 10
1491.923433097
 20
548.9970521542
 30
0.0
 11
1491.923433097
 21
542.2170521542
 31
0.0
  0
LINE
  5
30A
330
1F
100
AcDbEntity
  8
0
  6
Continuous
 62
     7
370
    25
100
AcDbLine
 10
1497.464237117
 20
537.5676276942
 30
0.0
 11
1497.464237117
 21
541.6170521542
 31
0.0
  0
LINE
  5
30B
330
1F
100
AcDbEntity
  8
0
  6
Continuous
 62
     7
370
    25
100
AcDbLine
 10
1497.464237117
 20
541.6170521542
 30
0.0
 11
1497.564237117
 21
541.5170521542
 31
0.0
  0
LINE
  5
30C
330
1F
100
AcDbEntity
  8
0
  6
Continuous
 62
     7
370
    25
100
AcDbLine
 10
1497.564237117
 20
541.5170521542
 30
0.0
 11
1497.564237117
 21
537.4676276942
 31
0.0
  0
LINE
  5
30D
330
1F
100
AcDbEntity
  8
0
  6
Continuous
 62
     7
370
    25
100
AcDbLine
 10
1497.564237117
 20
537.4676276942
 30
0.0
 11
1497.464237117
 21
537.5676276942
 31
0.0
  0
LINE
  5
30E
330
1F
100
AcDbEntity
  8
0
  6
Continuous
 62
     7
370
    25
100
AcDbLine
 10
1494.194796887
 20
516.4770521542
 30
0.0
 11
1494.194796887
 21
511.1755835742
 31
0.0
  0
LINE
  5
30F
330
1F
100
AcDbEntity
  8
0
  6
Continuous
 62
     7
370
    25
100
AcDbLine
 10
1494.194796887
 20
511.1755835742
 30
0.0
 11
1494.094796887
 21
511.0755835742
 31
0.0
  0
LINE
  5
310
330
1F
100
AcDbEntity
  8
0
  6
Continuous
 62
     7
370
    25
100
AcDbLine
 10
1494.094796887
 20
511.0755835742
 30
0.0
 11
1494.094796887
 21
516.3770521542
 31
0.0
  0
LINE
  5
311
330
1F
100
AcDbEntity
  8
0
  6
Continuous
 62
     7
370
    25
100
AcDbLine
 10
1494.194796887
 20
516.4770521542
 30
0.0
 11
1494.094796887
 21
516.3770521542
 31
0.0
  0
LINE
  5
312
330
1F
100
AcDbEntity
  8
0
  6
Continuous
 62
     7
370
    25
100
AcDbLine
 10
1496.964237117
 20
508.5970521542
 30
0.0
 11
1492.823433097
 21
508.5970521542
 31
0.0
  0
LINE
  5
313
330
1F
100
AcDbEntity
  8
0
  6
Continuous
 62
     7
370
    25
100
AcDbLine
 10
1492.823433097
 20
508.6970521542
 30
0.0
 11
1496.864237117
 21
508.6970521542
 31
0.0
  0
LINE
  5
314
330
1F
100
AcDbEntity
  8
0
  6
Continuous
 62
     7
370
    25
100
AcDbLine
 10
1494.194796887
 20
530.8301764042
 30
0.0
 11
1494.194796887
 21
525.3570521542
 31
0.0
  0
LINE
  5
315
330
1F
100
AcDbEntity
  8
0
  6
Continuous
 62
     7
370
    25
100
AcDbLine
 10
1494.094796887
 20
525.4570521542
 30
0.0
 11
1494.094796887
 21
530.9301764042
 31
0.0
  0
LINE
  5
316
330
1F
100
AcDbEntity
  8
0
  6
Continuous
 62
     7
370
    25
100
AcDbLine
 10
1494.194796887
 20
530.8301764042
 30
0.0
 11
1494.094796887
 21
530.9301764042
 31
0.0
  0
LINE
  5
317
330
1F
100
AcDbEntity
  8
0
  6
Continuous
 62
     7
370
    25
100
AcDbLine
 10
1491.923433097
 20
517.0770521542
 30
0.0
 11
1494.094796887
 21
517.0770521542
 31
0.0
  0
LINE
  5
318
330
1F
100
AcDbEntity
  8
0
  6
Continuous
 62
     7
370
    25
100
AcDbLine
 10
1494.194796887
 20
516.9770521542
 30
0.0
 11
1491.823433097
 21
516.9770521542
 31
0.0
  0
LINE
  5
319
330
1F
100
AcDbEntity
  8
0
  6
Continuous
 62
     7
370
    25
100
AcDbLine
 10
1491.923433097
 20
517.0770521542
 30
0.0
 11
1491.823433097
 21
516.9770521542
 31
0.0
  0
LINE
  5
31A
330
1F
100
AcDbEntity
  8
0
  6
Continuous
 62
     7
370
    25
100
AcDbLine
 10
1497.564237117
 20
530.9301764042
 30
0.0
 11
1497.564237117
 21
527.6065647742
 31
0.0
  0
LINE
  5
31B
330
1F
100
AcDbEntity
  8
0
  6
Continuous
 62
     7
370
    25
100
AcDbLine
 10
1496.864237117
 20
530.9301764042
 30
0.0
 11
1497.564237117
 21
530.9301764042
 31
0.0
  0
LINE
  5
31C
330
1F
100
AcDbEntity
  8
0
  6
Continuous
 62
     7
370
    25
100
AcDbLine
 10
1496.864237117
 20
527.6065647742
 30
0.0
 11
1496.864237117
 21
530.9301764042
 31
0.0
  0
LINE
  5
31D
330
1F
100
AcDbEntity
  8
0
  6
Continuous
 62
     7
370
    25
100
AcDbLine
 10
1497.564237117
 20
527.6065647742
 30
0.0
 11
1496.864237117
 21
527.6065647742
 31
0.0
  0
LINE
  5
31E
330
1F
100
AcDbEntity
  8
0
  6
Continuous
 62
     7
370
    25
100
AcDbLine
 10
1499.735600907
 20
525.4570521542
 30
0.0
 11
1499.735600907
 21
533.1370521542
 31
0.0
  0
LINE
  5
31F
330
1F
100
AcDbEntity
  8
0
  6
Continuous
 62
     7
370
    25
100
AcDbLine
 10
1494.794796887
 20
525.4570521542
 30
0.0
 11
1499.735600907
 21
525.4570521542
 31
0.0
  0
LINE
  5
320
330
1F
100
AcDbEntity
  8
0
  6
Continuous
 62
     7
370
    25
100
AcDbLine
 10
1494.794796887
 20
530.9301764042
 30
0.0
 11
1494.794796887
 21
525.4570521542
 31
0.0
  0
LINE
  5
321
330
1F
100
AcDbEntity
  8
0
  6
Continuous
 62
     7
370
    25
100
AcDbLine
 10
1494.094796887
 20
530.9301764042
 30
0.0
 11
1494.794796887
 21
530.9301764042
 31
0.0
  0
LINE
  5
322
330
1F
100
AcDbEntity
  8
0
  6
Continuous
 62
     7
370
    25
100
AcDbLine
 10
1494.694796887
 20
511.1755835742
 30
0.0
 11
1494.694796887
 21
516.4796237842
 31
0.0
  0
LINE
  5
323
330
1F
100
AcDbEntity
  8
0
  6
Continuous
 62
     7
370
    25
100
AcDbLine
 10
1494.794796887
 20
516.3796237842
 30
0.0
 11
1494.794796887
 21
511.0755835742
 31
0.0
  0
LINE
  5
324
330
1F
100
AcDbEntity
  8
0
  6
Continuous
 62
     7
370
    25
100
AcDbLine
 10
1494.694796887
 20
511.1755835742
 30
0.0
 11
1494.794796887
 21
511.0755835742
 31
0.0
  0
LINE
  5
325
330
1F
100
AcDbEntity
  8
0
  6
Continuous
 62
     7
370
    25
100
AcDbLine
 10
1499.835600907
 20
525.3570521542
 30
0.0
 11
1494.694796887
 21
525.3570521542
 31
0.0
  0
LINE
  5
326
330
1F
100
AcDbEntity
  8
0
  6
Continuous
 62
     7
370
    25
100
AcDbLine
 10
1494.694796887
 20
525.3570521542
 30
0.0
 11
1494.794796887
 21
525.4570521542
 31
0.0
  0
LINE
  5
327
330
1F
100
AcDbEntity
  8
0
  6
Continuous
 62
     7
370
    25
100
AcDbLine
 10
1499.735600907
 20
525.4570521542
 30
0.0
 11
1499.835600907
 21
525.3570521542
 31
0.0
  0
LINE
  5
328
330
1F
100
AcDbEntity
  8
0
  6
Continuous
 62
     7
370
    25
100
AcDbLine
 10
1494.694796887
 20
525.3570521542
 30
0.0
 11
1494.694796887
 21
530.8301764042
 31
0.0
  0
LINE
  5
329
330
1F
100
AcDbEntity
  8
0
  6
Continuous
 62
     7
370
    25
100
AcDbLine
 10
1494.694796887
 20
530.8301764042
 30
0.0
 11
1494.794796887
 21
530.9301764042
 31
0.0
  0
LINE
  5
32A
330
1F
100
AcDbEntity
  8
0
  6
Continuous
 62
     7
370
    25
100
AcDbLine
 10
1499.835600907
 20
533.2370521542
 30
0.0
 11
1499.835600907
 21
525.3570521542
 31
0.0
  0
LINE
  5
32B
330
1F
100
AcDbEntity
  8
0
  6
Continuous
 62
     7
370
    25
100
AcDbLine
 10
1494.694796887
 20
530.8301764042
 30
0.0
 11
1494.194796887
 21
530.8301764042
 31
0.0
  0
LINE
  5
32C
330
1F
100
AcDbEntity
  8
0
  6
Continuous
 62
     7
370
    25
100
AcDbLine
 10
1491.923433097
 20
542.2170521542
 30
0.0
 11
1491.823433097
 21
542.1170521542
 31
0.0
  0
LINE
  5
32D
330
1F
100
AcDbEntity
  8
0
  6
Continuous
 62
     7
370
    25
100
AcDbLine
 10
1491.823433097
 20
542.1170521542
 30
0.0
 11
1491.823433097
 21
548.9970521542
 31
0.0
  0
LINE
  5
32E
330
1F
100
AcDbEntity
  8
0
  6
Continuous
 62
     7
370
    25
100
AcDbLine
 10
1491.923433097
 20
548.9970521542
 30
0.0
 11
1491.823433097
 21
548.9970521542
 31
0.0
  0
LINE
  5
32F
330
1F
100
AcDbEntity
  8
0
  6
Continuous
 62
     7
370
    25
100
AcDbLine
 10
1491.923433097
 20
524.7570521542
 30
0.0
 11
1491.923433097
 21
517.0770521542
 31
0.0
  0
LINE
  5
330
330
1F
100
AcDbEntity
  8
0
  6
Continuous
 62
     7
370
    25
100
AcDbLine
 10
1494.094796887
 20
524.7570521542
 30
0.0
 11
1491.923433097
 21
524.7570521542
 31
0.0
  0
LINE
  5
331
330
1F
100
AcDbEntity
  8
0
  6
Continuous
 62
     7
370
    25
100
AcDbLine
 10
1499.735600907
 20
519.3373913542
 30
0.0
 11
1499.735600907
 21
522.9679668942
 31
0.0
  0
LINE
  5
332
330
1F
100
AcDbEntity
  8
0
  6
Continuous
 62
     7
370
    25
100
AcDbLine
 10
1491.823433097
 20
509.5970521542
 30
0.0
 11
1491.823433097
 21
516.4770521542
 31
0.0
  0
LINE
  5
333
330
1F
100
AcDbEntity
  8
0
  6
Continuous
 62
     7
370
    25
100
AcDbLine
 10
1491.823433097
 20
516.4770521542
 30
0.0
 11
1491.923433097
 21
516.3770521542
 31
0.0
  0
LINE
  5
334
330
1F
100
AcDbEntity
  8
0
  6
Continuous
 62
     7
370
    25
100
AcDbLine
 10
1491.923433097
 20
516.3770521542
 30
0.0
 11
1491.923433097
 21
509.5970521542
 31
0.0
  0
LINE
  5
335
330
1F
100
AcDbEntity
  8
0
  6
Continuous
 62
     7
370
    25
100
AcDbLine
 10
1497.564237117
 20
527.6065647742
 30
0.0
 11
1497.464237117
 21
527.7065647742
 31
0.0
  0
LINE
  5
336
330
1F
100
AcDbEntity
  8
0
  6
Continuous
 62
     7
370
    25
100
AcDbLine
 10
1497.464237117
 20
527.7065647742
 30
0.0
 11
1497.464237117
 21
530.8301764042
 31
0.0
  0
LINE
  5
337
330
1F
100
AcDbEntity
  8
0
  6
Continuous
 62
     7
370
    25
100
AcDbLine
 10
1497.464237117
 20
530.8301764042
 30
0.0
 11
1497.564237117
 21
530.9301764042
 31
0.0
  0
LINE
  5
338
330
1F
100
AcDbEntity
  8
0
  6
Continuous
 62
     7
370
    25
100
AcDbLine
 10
1496.864237117
 20
527.6065647742
 30
0.0
 11
1496.964237117
 21
527.7065647742
 31
0.0
  0
LINE
  5
339
330
1F
100
AcDbEntity
  8
0
  6
Continuous
 62
     7
370
    25
100
AcDbLine
 10
1496.964237117
 20
527.7065647742
 30
0.0
 11
1497.464237117
 21
527.7065647742
 31
0.0
  0
LINE
  5
33A
330
1F
100
AcDbEntity
  8
0
  6
Continuous
 62
     7
370
    25
100
AcDbLine
 10
1497.464237117
 20
530.8301764042
 30
0.0
 11
1496.964237117
 21
530.8301764042
 31
0.0
  0
LINE
  5
33B
330
1F
100
AcDbEntity
  8
0
  6
Continuous
 62
     7
370
    25
100
AcDbLine
 10
1496.964237117
 20
530.8301764042
 30
0.0
 11
1496.864237117
 21
530.9301764042
 31
0.0
  0
LINE
  5
33C
330
1F
100
AcDbEntity
  8
0
  6
Continuous
 62
     7
370
    25
100
AcDbLine
 10
1497.464237117
 20
541.6170521542
 30
0.0
 11
1499.835600907
 21
541.6170521542
 31
0.0
  0
LINE
  5
33D
330
1F
100
AcDbEntity
  8
0
  6
Continuous
 62
     7
370
    25
100
AcDbLine
 10
1499.835600907
 20
541.6170521542
 30
0.0
 11
1499.735600907
 21
541.5170521542
 31
0.0
  0
LINE
  5
33E
330
1F
100
AcDbEntity
  8
0
  6
Continuous
 62
     7
370
    25
100
AcDbLine
 10
1499.735600907
 20
541.5170521542
 30
0.0
 11
1497.564237117
 21
541.5170521542
 31
0.0
  0
LINE
  5
33F
330
1F
100
AcDbEntity
  8
0
  6
Continuous
 62
     7
370
    25
100
AcDbLine
 10
1497.564237117
 20
508.6970521542
 30
0.0
 11
1498.823433097
 21
508.6970521542
 31
0.0
  0
LINE
  5
340
330
1F
100
AcDbEntity
  8
0
  6
Continuous
 62
     7
370
    25
100
AcDbLine
 10
1498.823433097
 20
508.6970521542
 30
0.0
 11
1498.823433097
 21
508.5970521542
 31
0.0
  0
LINE
  5
341
330
1F
100
AcDbEntity
  8
0
  6
Continuous
 62
     7
370
    25
100
AcDbLine
 10
1498.823433097
 20
508.5970521542
 30
0.0
 11
1497.464237117
 21
508.5970521542
 31
0.0
  0
ARC
  5
342
330
1F
100
AcDbEntity
  8
0
  6
Continuous
 62
     7
370
    25
100
AcDbCircle
 10
1498.823433097
 20
509.5970521542
 30
0.0
 40
0.900000000000091
100
AcDbArc
 50
270.0
 51
0.0
  0
LINE
  5
343
330
1F
100
AcDbEntity
  8
0
  6
Continuous
 62
     7
370
    25
100
AcDbLine
 10
1496.864237117
 20
514.2277154642
 30
0.0
 11
1497.564237117
 21
514.2277154642
 31
0.0
  0
LINE
  5
344
330
1F
100
AcDbEntity
  8
0
  6
Continuous
 62
     7
370
    25
100
AcDbLine
 10
1494.094796887
 20
516.3770521542
 30
0.0
 11
1491.923433097
 21
516.3770521542
 31
0.0
  0
LINE
  5
345
330
1F
100
AcDbEntity
  8
0
  6
Continuous
 62
     7
370
    25
100
AcDbLine
 10
1494.794796887
 20
511.0755835742
 30
0.0
 11
1494.094796887
 21
511.0755835742
 31
0.0
  0
LINE
  5
346
330
1F
100
AcDbEntity
  8
0
  6
Continuous
 62
     7
370
    25
100
AcDbLine
 10
1498.835600907
 20
549.8970521542
 30
0.0
 11
1498.835600907
 21
549.9970521542
 31
0.0
  0
ARC
  5
347
330
1F
100
AcDbEntity
  8
0
  6
Continuous
 62
     7
370
    25
100
AcDbCircle
 10
1498.835600907
 20
548.9970521542
 30
0.0
 40
1.0
100
AcDbArc
 50
0.0
 51
90.0
  0
LINE
  5
348
330
1F
100
AcDbEntity
  8
0
  6
Continuous
 62
     7
370
    25
100
AcDbLine
 10
1499.735600907
 20
548.9970521542
 30
0.0
 11
1499.835600907
 21
548.9970521542
 31
0.0
  0
LINE
  5
349
330
1F
100
AcDbEntity
  8
0
  6
Continuous
 62
     7
370
    25
100
AcDbLine
 10
1494.694796887
 20
542.1170521542
 30
0.0
 11
1494.694796887
 21
547.4072376342
 31
0.0
  0
LINE
  5
34A
330
1F
100
AcDbEntity
  8
0
  6
Continuous
 62
     7
370
    25
100
AcDbLine
 10
1494.694796887
 20
542.1170521542
 30
0.0
 11
1494.794796887
 21
542.2170521542
 31
0.0
  0
LINE
  5
34B
330
1F
100
AcDbEntity
  8
0
  6
Continuous
 62
     7
370
    25
100
AcDbLine
 10
1492.823433097
 20
549.8970521542
 30
0.0
 11
1492.823433097
 21
549.9970521542
 31
0.0
  0
LINE
  5
34C
330
1F
100
AcDbEntity
  8
0
  6
Continuous
 62
     7
370
    25
100
AcDbLine
 10
1492.823433097
 20
549.9970521542
 30
0.0
 11
1498.835600907
 21
549.9970521542
 31
0.0
  0
LINE
  5
34D
330
1F
100
AcDbEntity
  8
0
  6
Continuous
 62
     7
370
    25
100
AcDbLine
 10
1491.823433097
 20
516.4770521542
 30
0.0
 11
1494.194796887
 21
516.4770521542
 31
0.0
  0
ARC
  5
34E
330
1F
100
AcDbEntity
  8
0
  6
Continuous
 62
     7
370
    25
100
AcDbCircle
 10
1492.823433097
 20
548.9970521542
 30
0.0
 40
1.000000000000227
100
AcDbArc
 50
90.0
 51
180.0
  0
LINE
  5
34F
330
1F
100
AcDbEntity
  8
0
  6
Continuous
 62
     7
370
    25
100
AcDbLine
 10
1494.194796887
 20
547.4072376342
 30
0.0
 11
1494.194796887
 21
542.1170521542
 31
0.0
  0
LINE
  5
350
330
1F
100
AcDbEntity
  8
0
  6
Continuous
 62
     7
370
    25
100
AcDbLine
 10
1494.194796887
 20
542.1170521542
 30
0.0
 11
1494.094796887
 21
542.2170521542
 31
0.0
  0
LINE
  5
351
330
1F
100
AcDbEntity
  8
0
  6
Continuous
 62
     7
370
    25
100
AcDbLine
 10
1499.835600907
 20
523.0679668942
 30
0.0
 11
1499.835600907
 21
519.2373913542
 31
0.0
  0
LINE
  5
352
330
1F
100
AcDbEntity
  8
0
  6
Continuous
 62
     7
370
    25
100
AcDbLine
 10
1499.835600907
 20
542.1170521542
 30
0.0
 11
1494.694796887
 21
542.1170521542
 31
0.0
  0
LINE
  5
353
330
1F
100
AcDbEntity
  8
0
  6
Continuous
 62
     7
370
    25
100
AcDbLine
 10
1499.835600907
 20
542.1170521542
 30
0.0
 11
1499.735600907
 21
542.2170521542
 31
0.0
  0
LINE
  5
354
330
1F
100
AcDbEntity
  8
0
  6
Continuous
 62
     7
370
    25
100
AcDbLine
 10
1494.194796887
 20
542.1170521542
 30
0.0
 11
1491.823433097
 21
542.1170521542
 31
0.0
  0
LINE
  5
355
330
1F
100
AcDbEntity
  8
0
  6
Continuous
 62
     7
370
    25
100
AcDbLine
 10
1496.964237117
 20
544.1732196342
 30
0.0
 11
1497.464237117
 21
544.1732196342
 31
0.0
  0
LINE
  5
356
330
1F
100
AcDbEntity
  8
0
  6
Continuous
 62
     7
370
    25
100
AcDbLine
 10
1497.464237117
 20
514.1277154642
 30
0.0
 11
1496.964237117
 21
514.1277154642
 31
0.0
  0
LINE
  5
357
330
1F
100
AcDbEntity
  8
0
  6
Continuous
 62
     7
370
    25
100
AcDbLine
 10
1499.835600907
 20
541.6170521542
 30
0.0
 11
1499.835600907
 21
533.7370521542
 31
0.0
  0
LINE
  5
358
330
1F
100
AcDbEntity
  8
0
  6
Continuous
 62
     7
370
    25
100
AcDbLine
 10
1499.835600907
 20
533.7370521542
 30
0.0
 11
1499.735600907
 21
533.8370521542
 31
0.0
  0
LINE
  5
359
330
1F
100
AcDbEntity
  8
0
  6
Continuous
 62
     7
370
    25
100
AcDbLine
 10
1499.735600907
 20
533.8370521542
 30
0.0
 11
1499.735600907
 21
541.5170521542
 31
0.0
  0
LINE
  5
35A
330
1F
100
AcDbEntity
  8
0
  6
Continuous
 62
     7
370
    25
100
AcDbLine
 10
1494.194796887
 20
511.1755835742
 30
0.0
 11
1494.694796887
 21
511.1755835742
 31
0.0
  0
LINE
  5
35B
330
1F
100
AcDbEntity
  8
0
  6
Continuous
 62
     7
370
    25
100
AcDbLine
 10
1497.564237117
 20
537.4676276942
 30
0.0
 11
1491.923433097
 21
537.4676276942
 31
0.0
  0
LINE
  5
35C
330
1F
100
AcDbEntity
  8
0
  6
Continuous
 62
     7
370
    25
100
AcDbLine
 10
1491.923433097
 20
533.8370521542
 30
0.0
 11
1499.735600907
 21
533.8370521542
 31
0.0
  0
LINE
  5
35D
330
1F
100
AcDbEntity
  8
0
  6
Continuous
 62
     7
370
    25
100
AcDbLine
 10
1491.923433097
 20
537.4676276942
 30
0.0
 11
1491.923433097
 21
533.8370521542
 31
0.0
  0
LINE
  5
35E
330
1F
100
AcDbEntity
  8
0
  6
Continuous
 62
     7
370
    25
100
AcDbLine
 10
1491.923433097
 20
537.4676276942
 30
0.0
 11
1491.823433097
 21
537.5676276942
 31
0.0
  0
LINE
  5
35F
330
1F
100
AcDbEntity
  8
0
  6
Continuous
 62
     7
370
    25
100
AcDbLine
 10
1491.823433097
 20
537.5676276942
 30
0.0
 11
1497.464237117
 21
537.5676276942
 31
0.0
  0
LINE
  5
360
330
1F
100
AcDbEntity
  8
0
  6
Continuous
 62
     7
370
    25
100
AcDbLine
 10
1491.823433097
 20
524.8570521542
 30
0.0
 11
1494.194796887
 21
524.8570521542
 31
0.0
  0
LINE
  5
361
330
1F
100
AcDbEntity
  8
0
  6
Continuous
 62
     7
370
    25
100
AcDbLine
 10
1491.823433097
 20
524.8570521542
 30
0.0
 11
1491.923433097
 21
524.7570521542
 31
0.0
  0
LINE
  5
362
330
1F
100
AcDbEntity
  8
0
  6
Continuous
 62
     7
370
    25
100
AcDbLine
 10
1491.923433097
 20
533.8370521542
 30
0.0
 11
1491.823433097
 21
533.7370521542
 31
0.0
  0
LINE
  5
363
330
1F
100
AcDbEntity
  8
0
  6
Continuous
 62
     7
370
    25
100
AcDbLine
 10
1491.823433097
 20
533.7370521542
 30
0.0
 11
1491.823433097
 21
537.5676276942
 31
0.0
  0
ARC
  5
364
330
1F
100
AcDbEntity
  8
0
  6
Continuous
 62
     7
370
    25
100
AcDbCircle
 10
1498.823433097
 20
509.5970521542
 30
0.0
 40
1.0
100
AcDbArc
 50
270.0
 51
0.0
  0
LINE
  5
365
330
1F
100
AcDbEntity
  8
0
  6
Continuous
 62
     7
370
    25
100
AcDbLine
 10
1499.835600907
 20
548.9970521542
 30
0.0
 11
1499.835600907
 21
542.1170521542
 31
0.0
  0
LINE
  5
366
330
1F
100
AcDbEntity
  8
0
  6
Continuous
 62
     7
370
    25
100
AcDbLine
 10
1496.964237117
 20
530.8301764042
 30
0.0
 11
1496.964237117
 21
527.7065647742
 31
0.0
  0
LINE
  5
367
330
1F
100
AcDbEntity
  8
0
  6
Continuous
 62
     7
370
    25
100
AcDbLine
 10
1491.823433097
 20
516.9770521542
 30
0.0
 11
1491.823433097
 21
524.8570521542
 31
0.0
  0
LINE
  5
368
330
1F
100
AcDbEntity
  8
0
  6
Continuous
 62
     7
370
    25
100
AcDbLine
 10
1499.835600907
 20
533.7370521542
 30
0.0
 11
1491.823433097
 21
533.7370521542
 31
0.0
  0
ARC
  5
369
330
1F
100
AcDbEntity
  8
0
  6
Continuous
 62
     7
370
    25
100
AcDbCircle
 10
1511.275600907
 20
307.8570521542
 30
0.0
 40
16.07858489403168
100
AcDbArc
 50
270.0
 51
0.0
  0
LINE
  5
36A
330
1F
100
AcDbEntity
  8
0
  6
Continuous
 62
     7
370
    25
100
AcDbLine
 10
1527.3541858011
 20
307.8570521542
 30
0.0
 11
1527.7925569478
 21
307.8570521542
 31
0.0
  0
LINE
  5
36B
330
1F
100
AcDbEntity
  8
0
  6
Continuous
 62
     7
370
    25
100
AcDbLine
 10
1511.275600907
 20
291.3400961134
 30
0.0
 11
1511.275600907
 21
291.7784672602
 31
0.0
  0
ARC
  5
36C
330
1F
100
AcDbEntity
  8
0
  6
Continuous
 62
     7
370
    25
100
AcDbCircle
 10
1511.275600907
 20
750.7370521542
 30
0.0
 40
16.07858489403168
100
AcDbArc
 50
0.0
 51
90.0
  0
LINE
  5
36D
330
1F
100
AcDbEntity
  8
0
  6
Continuous
 62
     7
370
    25
100
AcDbLine
 10
1511.275600907
 20
766.8156370482
 30
0.0
 11
1511.275600907
 21
767.254008195
 31
0.0
  0
LINE
  5
36E
330
1F
100
AcDbEntity
  8
0
  6
Continuous
 62
     7
370
    25
100
AcDbLine
 10
1527.3541858011
 20
750.7370521542
 30
0.0
 11
1527.7925569478
 21
750.7370521542
 31
0.0
  0
LINE
  5
36F
330
1F
100
AcDbEntity
  8
0
  6
Continuous
 62
     7
370
    25
100
AcDbLine
 10
1527.3541858011
 20
307.8570521542
 30
0.0
 11
1527.3541858011
 21
750.7370521542
 31
0.0
  0
ARC
  5
370
330
1F
100
AcDbEntity
  8
0
  6
Continuous
 62
     7
370
    25
100
AcDbCircle
 10
513.395600907
 20
750.7370521542
 30
0.0
 40
16.07858489403179
100
AcDbArc
 50
90.0
 51
180.0
  0
LINE
  5
371
330
1F
100
AcDbEntity
  8
0
  6
Continuous
 62
     7
370
    25
100
AcDbLine
 10
496.8786448662
 20
750.7370521542
 30
0.0
 11
497.317016013
 21
750.7370521542
 31
0.0
  0
LINE
  5
372
330
1F
100
AcDbEntity
  8
0
  6
Continuous
 62
     7
370
    25
100
AcDbLine
 10
513.395600907
 20
766.8156370482
 30
0.0
 11
513.395600907
 21
767.254008195
 31
0.0
  0
LINE
  5
373
330
1F
100
AcDbEntity
  8
0
  6
Continuous
 62
     7
370
    25
100
AcDbLine
 10
1511.275600907
 20
766.8156370482
 30
0.0
 11
513.395600907
 21
766.8156370482
 31
0.0
  0
LINE
  5
374
330
1F
100
AcDbEntity
  8
0
  6
Continuous
 62
     7
370
    25
100
AcDbLine
 10
496.8786448662
 20
307.8570521542
 30
0.0
 11
497.317016013
 21
307.8570521542
 31
0.0
  0
ARC
  5
375
330
1F
100
AcDbEntity
  8
0
  6
Continuous
 62
     7
370
    25
100
AcDbCircle
 10
513.395600907
 20
307.8570521542
 30
0.0
 40
16.07858489403174
100
AcDbArc
 50
180.0
 51
270.0
  0
LINE
  5
376
330
1F
100
AcDbEntity
  8
0
  6
Continuous
 62
     7
370
    25
100
AcDbLine
 10
513.395600907
 20
291.3400961134
 30
0.0
 11
513.395600907
 21
291.7784672602
 31
0.0
  0
LINE
  5
377
330
1F
100
AcDbEntity
  8
0
  6
Continuous
 62
     7
370
    25
100
AcDbLine
 10
513.395600907
 20
291.7784672602
 30
0.0
 11
1511.275600907
 21
291.7784672602
 31
0.0
  0
LINE
  5
378
330
1F
100
AcDbEntity
  8
0
  6
Continuous
 62
     7
370
    25
100
AcDbLine
 10
497.317016013
 20
750.7370521542
 30
0.0
 11
497.317016013
 21
307.8570521542
 31
0.0
  0
LINE
  5
379
330
1F
100
AcDbEntity
  8
0
  6
Continuous
 62
     7
370
    25
100
AcDbLine
 10
949.760600907
 20
735.1470521542
 30
0.0
 11
1181.960600907
 21
735.1470521542
 31
0.0
  0
ARC
  5
37A
330
1F
100
AcDbEntity
  8
0
  6
Continuous
 62
     7
370
    25
100
AcDbCircle
 10
949.760600907
 20
675.6470521542
 30
0.0
 40
59.50000000000023
100
AcDbArc
 50
90.0
 51
180.0
  0
LINE
  5
37B
330
1F
100
AcDbEntity
  8
0
  6
Continuous
 62
     7
370
    25
100
AcDbLine
 10
890.260600907
 20
382.9470521542
 30
0.0
 11
890.260600907
 21
675.6470521542
 31
0.0
  0
ARC
  5
37C
330
1F
100
AcDbEntity
  8
0
  6
Continuous
 62
     7
370
    25
100
AcDbCircle
 10
949.760600907
 20
382.9470521542
 30
0.0
 40
59.50000000000023
100
AcDbArc
 50
180.0
 51
270.0
  0
LINE
  5
37D
330
1F
100
AcDbEntity
  8
0
  6
Continuous
 62
     7
370
    25
100
AcDbLine
 10
1181.960600907
 20
323.4470521542
 30
0.0
 11
949.760600907
 21
323.4470521542
 31
0.0
  0
ARC
  5
37E
330
1F
100
AcDbEntity
  8
0
  6
Continuous
 62
     7
370
    25
100
AcDbCircle
 10
1181.960600907
 20
382.9470521542
 30
0.0
 40
59.50000000000023
100
AcDbArc
 50
270.0
 51
0.0
  0
LINE
  5
37F
330
1F
100
AcDbEntity
  8
0
  6
Continuous
 62
     7
370
    25
100
AcDbLine
 10
1241.460600907
 20
675.6470521542
 30
0.0
 11
1241.460600907
 21
382.9470521542
 31
0.0
  0
ARC
  5
380
330
1F
100
AcDbEntity
  8
0
  6
Continuous
 62
     7
370
    25
100
AcDbCircle
 10
1181.960600907
 20
675.6470521542
 30
0.0
 40
59.50000000000023
100
AcDbArc
 50
0.0
 51
90.0
  0
LINE
  5
381
330
1F
100
AcDbEntity
  8
0
  6
Continuous
 62
     7
370
    25
100
AcDbLine
 10
801.960600907
 20
323.4470521542
 30
0.0
 11
569.760600907
 21
323.4470521542
 31
0.0
  0
ARC
  5
382
330
1F
100
AcDbEntity
  8
0
  6
Continuous
 62
     7
370
    25
100
AcDbCircle
 10
801.960600907
 20
382.9470521542
 30
0.0
 40
59.50000000000034
100
AcDbArc
 50
270.0
 51
0.0
  0
LINE
  5
383
330
1F
100
AcDbEntity
  8
0
  6
Continuous
 62
     7
370
    25
100
AcDbLine
 10
861.460600907
 20
675.6470521542
 30
0.0
 11
861.460600907
 21
382.9470521542
 31
0.0
  0
ARC
  5
384
330
1F
100
AcDbEntity
  8
0
  6
Continuous
 62
     7
370
    25
100
AcDbCircle
 10
801.960600907
 20
675.6470521542
 30
0.0
 40
59.50000000000023
100
AcDbArc
 50
0.0
 51
90.0
  0
LINE
  5
385
330
1F
100
AcDbEntity
  8
0
  6
Continuous
 62
     7
370
    25
100
AcDbLine
 10
569.760600907
 20
735.1470521542
 30
0.0
 11
801.960600907
 21
735.1470521542
 31
0.0
  0
ARC
  5
386
330
1F
100
AcDbEntity
  8
0
  6
Continuous
 62
     7
370
    25
100
AcDbCircle
 10
569.760600907
 20
675.6470521542
 30
0.0
 40
59.50000000000028
100
AcDbArc
 50
90.0
 51
180.0
  0
LINE
  5
387
330
1F
100
AcDbEntity
  8
0
  6
Continuous
 62
     7
370
    25
100
AcDbLine
 10
510.260600907
 20
382.9470521542
 30
0.0
 11
510.260600907
 21
675.6470521542
 31
0.0
  0
ARC
  5
388
330
1F
100
AcDbEntity
  8
0
  6
Continuous
 62
     7
370
    25
100
AcDbCircle
 10
569.760600907
 20
382.9470521542
 30
0.0
 40
59.50000000000028
100
AcDbArc
 50
180.0
 51
270.0
  0
LINE
  5
389
330
1F
100
AcDbEntity
  8
0
  6
Continuous
 62
     7
370
    25
100
AcDbLine
 10
949.760600907
 20
735.1470521542
 30
0.0
 11
949.760600907
 21
731.1470521542
 31
0.0
  0
ARC
  5
38A
330
1F
100
AcDbEntity
  8
0
  6
Continuous
 62
     7
370
    25
100
AcDbCircle
 10
949.760600907
 20
675.6470521542
 30
0.0
 40
55.5
100
AcDbArc
 50
90.0
 51
180.0
  0
LINE
  5
38B
330
1F
100
AcDbEntity
  8
0
  6
Continuous
 62
     7
370
    25
100
AcDbLine
 10
890.260600907
 20
675.6470521542
 30
0.0
 11
894.260600907
 21
675.6470521542
 31
0.0
  0
LINE
  5
38C
330
1F
100
AcDbEntity
  8
0
  6
Continuous
 62
     7
370
    25
100
AcDbLine
 10
857.460600907
 20
382.9470521542
 30
0.0
 11
857.460600907
 21
675.6470521542
 31
0.0
  0
LINE
  5
38D
330
1F
100
AcDbEntity
  8
0
  6
Continuous
 62
     7
370
    25
100
AcDbLine
 10
857.460600907
 20
675.6470521542
 30
0.0
 11
861.460600907
 21
675.6470521542
 31
0.0
  0
LINE
  5
38E
330
1F
100
AcDbEntity
  8
0
  6
Continuous
 62
     7
370
    25
100
AcDbLine
 10
861.460600907
 20
382.9470521542
 30
0.0
 11
857.460600907
 21
382.9470521542
 31
0.0
  0
LINE
  5
38F
330
1F
100
AcDbEntity
  8
0
  6
Continuous
 62
     7
370
    25
100
AcDbLine
 10
801.960600907
 20
323.4470521542
 30
0.0
 11
801.960600907
 21
327.4470521542
 31
0.0
  0
ARC
  5
390
330
1F
100
AcDbEntity
  8
0
  6
Continuous
 62
     7
370
    25
100
AcDbCircle
 10
801.960600907
 20
382.9470521542
 30
0.0
 40
55.50000000000011
100
AcDbArc
 50
270.0
 51
0.0
  0
LINE
  5
391
330
1F
100
AcDbEntity
  8
0
  6
Continuous
 62
     7
370
    25
100
AcDbLine
 10
514.260600907
 20
675.6470521542
 30
0.0
 11
514.260600907
 21
382.9470521542
 31
0.0
  0
LINE
  5
392
330
1F
100
AcDbEntity
  8
0
  6
Continuous
 62
     7
370
    25
100
AcDbLine
 10
510.260600907
 20
382.9470521542
 30
0.0
 11
514.260600907
 21
382.9470521542
 31
0.0
  0
LINE
  5
393
330
1F
100
AcDbEntity
  8
0
  6
Continuous
 62
     7
370
    25
100
AcDbLine
 10
514.260600907
 20
675.6470521542
 30
0.0
 11
510.260600907
 21
675.6470521542
 31
0.0
  0
LINE
  5
394
330
1F
100
AcDbEntity
  8
0
  6
Continuous
 62
     7
370
    25
100
AcDbLine
 10
569.760600907
 20
323.4470521542
 30
0.0
 11
569.760600907
 21
327.4470521542
 31
0.0
  0
LINE
  5
395
330
1F
100
AcDbEntity
  8
0
  6
Continuous
 62
     7
370
    25
100
AcDbLine
 10
569.760600907
 20
327.4470521542
 30
0.0
 11
801.960600907
 21
327.4470521542
 31
0.0
  0
ARC
  5
396
330
1F
100
AcDbEntity
  8
0
  6
Continuous
 62
     7
370
    25
100
AcDbCircle
 10
569.760600907
 20
675.6470521542
 30
0.0
 40
55.5
100
AcDbArc
 50
90.0
 51
180.0
  0
LINE
  5
397
330
1F
100
AcDbEntity
  8
0
  6
Continuous
 62
     7
370
    25
100
AcDbLine
 10
569.760600907
 20
731.1470521542
 30
0.0
 11
569.760600907
 21
735.1470521542
 31
0.0
  0
ARC
  5
398
330
1F
100
AcDbEntity
  8
0
  6
Continuous
 62
     7
370
    25
100
AcDbCircle
 10
569.760600907
 20
382.9470521542
 30
0.0
 40
55.5
100
AcDbArc
 50
180.0
 51
270.0
  0
LINE
  5
399
330
1F
100
AcDbEntity
  8
0
  6
Continuous
 62
     7
370
    25
100
AcDbLine
 10
801.960600907
 20
731.1470521542
 30
0.0
 11
569.760600907
 21
731.1470521542
 31
0.0
  0
LINE
  5
39A
330
1F
100
AcDbEntity
  8
0
  6
Continuous
 62
     7
370
    25
100
AcDbLine
 10
801.960600907
 20
731.1470521542
 30
0.0
 11
801.960600907
 21
735.1470521542
 31
0.0
  0
LINE
  5
39B
330
1F
100
AcDbEntity
  8
0
  6
Continuous
 62
     7
370
    25
100
AcDbLine
 10
894.260600907
 20
675.6470521542
 30
0.0
 11
894.260600907
 21
382.9470521542
 31
0.0
  0
LINE
  5
39C
330
1F
100
AcDbEntity
  8
0
  6
Continuous
 62
     7
370
    25
100
AcDbLine
 10
894.260600907
 20
382.9470521542
 30
0.0
 11
890.260600907
 21
382.9470521542
 31
0.0
  0
ARC
  5
39D
330
1F
100
AcDbEntity
  8
0
  6
Continuous
 62
     7
370
    25
100
AcDbCircle
 10
949.760600907
 20
382.9470521542
 30
0.0
 40
55.50000000000011
100
AcDbArc
 50
180.0
 51
270.0
  0
LINE
  5
39E
330
1F
100
AcDbEntity
  8
0
  6
Continuous
 62
     7
370
    25
100
AcDbLine
 10
949.760600907
 20
327.4470521542
 30
0.0
 11
949.760600907
 21
323.4470521542
 31
0.0
  0
LINE
  5
39F
330
1F
100
AcDbEntity
  8
0
  6
Continuous
 62
     7
370
    25
100
AcDbLine
 10
1241.460600907
 20
675.6470521542
 30
0.0
 11
1237.460600907
 21
675.6470521542
 31
0.0
  0
ARC
  5
3A0
330
1F
100
AcDbEntity
  8
0
  6
Continuous
 62
     7
370
    25
100
AcDbCircle
 10
1181.960600907
 20
675.6470521542
 30
0.0
 40
55.5
100
AcDbArc
 50
0.0
 51
90.0
  0
LINE
  5
3A1
330
1F
100
AcDbEntity
  8
0
  6
Continuous
 62
     7
370
    25
100
AcDbLine
 10
1181.960600907
 20
735.1470521542
 30
0.0
 11
1181.960600907
 21
731.1470521542
 31
0.0
  0
LINE
  5
3A2
330
1F
100
AcDbEntity
  8
0
  6
Continuous
 62
     7
370
    25
100
AcDbLine
 10
1237.460600907
 20
382.9470521542
 30
0.0
 11
1237.460600907
 21
675.6470521542
 31
0.0
  0
LINE
  5
3A3
330
1F
100
AcDbEntity
  8
0
  6
Continuous
 62
     7
370
    25
100
AcDbLine
 10
1237.460600907
 20
382.9470521542
 30
0.0
 11
1241.460600907
 21
382.9470521542
 31
0.0
  0
ARC
  5
3A4
330
1F
100
AcDbEntity
  8
0
  6
Continuous
 62
     7
370
    25
100
AcDbCircle
 10
801.960600907
 20
675.6470521542
 30
0.0
 40
55.5
100
AcDbArc
 50
0.0
 51
90.0
  0
ARC
  5
3A5
330
1F
100
AcDbEntity
  8
0
  6
Continuous
 62
     7
370
    25
100
AcDbCircle
 10
1181.960600907
 20
382.9470521542
 30
0.0
 40
55.5
100
AcDbArc
 50
270.0
 51
0.0
  0
LINE
  5
3A6
330
1F
100
AcDbEntity
  8
0
  6
Continuous
 62
     7
370
    25
100
AcDbLine
 10
1181.960600907
 20
327.4470521542
 30
0.0
 11
1181.960600907
 21
323.4470521542
 31
0.0
  0
LINE
  5
3A7
330
1F
100
AcDbEntity
  8
0
  6
Continuous
 62
     7
370
    25
100
AcDbLine
 10
1181.960600907
 20
731.1470521542
 30
0.0
 11
949.760600907
 21
731.1470521542
 31
0.0
  0
LINE
  5
3A8
330
1F
100
AcDbEntity
  8
0
  6
Continuous
 62
     7
370
    25
100
AcDbLine
 10
949.760600907
 20
327.4470521542
 30
0.0
 11
1181.960600907
 21
327.4470521542
 31
0.0
  0
SPLINE
  5
3A9
330
1F
100
AcDbEntity
  8
0
  6
Continuous
 62
     8
370
    25
100
AcDbSpline
210
0.0
220
0.0
230
1.0
 70
     8
 71
     3
 72
    12
 73
     8
 74
     0
 42
0.000000001
 43
0.00000001
 40
0.0
 40
0.0
 40
0.0
 40
0.0
 40
0.2636005345609423
 40
0.4531130705265024
 40
0.6509913616037024
 40
0.8488696526565335
 40
1.0
 40
1.0
 40
1.0
 40
1.0
 10
999.7015134913308
 20
493.5565897051291
 30
0.0
 10
999.6782766162363
 20
493.4270086136223
 30
0.0
 10
999.6383338602739
 20
493.2042667047237
 30
0.0
 10
999.5903117904969
 20
492.9364702259992
 30
0.0
 10
999.557757014399
 20
492.7549275725119
 30
0.0
 10
999.5383638377117
 20
492.6467809579775
 30
0.0
 10
999.5373101419955
 20
492.6409049932308
 30
0.0
 10
999.5368538627459
 20
492.6383605387519
 30
0.0
  0
SPLINE
  5
3AA
330
1F
100
AcDbEntity
  8
0
  6
Continuous
 62
     8
370
    25
100
AcDbSpline
210
0.0
220
0.0
230
1.0
 70
     8
 71
     3
 72
    12
 73
     8
 74
     0
 42
0.000000001
 43
0.00000001
 40
0.0
 40
0.0
 40
0.0
 40
0.0
 40
0.1511297784501197
 40
0.3490077426240097
 40
0.5468857068222749
 40
0.736397929728461
 40
1.0
 40
1.0
 40
1.0
 40
1.0
 10
1012.684347943935
 20
565.955743728505
 30
0.0
 10
1012.683891664866
 20
565.9531992749922
 30
0.0
 10
1012.682837968305
 20
565.9473233054392
 30
0.0
 10
1012.663444798491
 20
565.839176730112
 30
0.0
 10
1012.630890024539
 20
565.6576340851353
 30
0.0
 10
1012.58286780524
 20
565.3898367865492
 30
0.0
 10
1012.542924859547
 20
565.1670937741524
 30
0.0
 10
1012.5196878014
 20
565.0375116354066
 30
0.0
  0
SPLINE
  5
3AB
330
1F
100
AcDbEntity
  8
0
  6
Continuous
 62
     8
370
    25
100
AcDbSpline
210
0.0
220
0.0
230
1.0
 70
     8
 71
     3
 72
    12
 73
     8
 74
     0
 42
0.000000001
 43
0.00000001
 40
0.0
 40
0.0
 40
0.0
 40
0.0
 40
0.2636006187124836
 40
0.4531132151778086
 40
0.6509915694254435
 40
0.8488699236487147
 40
1.0
 40
1.0
 40
1.0
 40
1.0
 10
781.4064797706084
 20
528.2644655498285
 30
0.0
 10
781.5380745874963
 20
528.2607217869486
 30
0.0
 10
781.7642779661988
 20
528.2542864893243
 30
0.0
 10
782.0362360759634
 20
528.2465495161549
 30
0.0
 10
782.2205999444176
 20
528.2413045218569
 30
0.0
 10
782.3304271461883
 20
528.2381800323062
 30
0.0
 10
782.3363944299422
 20
528.2380102681917
 30
0.0
 10
782.3389784249703
 20
528.2379367557453
 30
0.0
  0
SPLINE
  5
3AC
330
1F
100
AcDbEntity
  8
0
  6
Continuous
 62
     8
370
    25
100
AcDbSpline
210
0.0
220
0.0
230
1.0
 70
     8
 71
     3
 72
    12
 73
     8
 74
     0
 42
0.000000001
 43
0.00000001
 40
0.0
 40
0.0
 40
0.0
 40
0.0
 40
0.1511300494418602
 40
0.3490079504455526
 40
0.5468858514736384
 40
0.7363980138802956
 40
1.0
 40
1.0
 40
1.0
 40
1.0
 10
707.8822233473144
 20
530.3561675538335
 30
0.0
 10
707.8848073432798
 20
530.3560940413677
 30
0.0
 10
707.8907746220517
 20
530.3559242774115
 30
0.0
 10
708.0006018645774
 20
530.3527997865461
 30
0.0
 10
708.1849657379837
 20
530.3475547927178
 30
0.0
 10
708.4569246769834
 20
530.3398177934937
 30
0.0
 10
708.6831291757487
 20
530.3333824720314
 30
0.0
 10
708.8147250558103
 20
530.3296386835749
 30
0.0
  0
LINE
  5
3AD
330
1F
100
AcDbEntity
  8
0
  6
Continuous
 62
     8
370
    25
100
AcDbLine
 10
565.110600907
 20
327.7970521542
 30
0.0
 11
563.2448155699
 21
327.8308608722
 31
0.0
  0
LINE
  5
3AE
330
1F
100
AcDbEntity
  8
0
  6
Continuous
 62
     8
370
    25
100
AcDbLine
 10
515.110600907
 20
379.2970521542
 30
0.0
 11
514.3807534894
 21
379.2970521542
 31
0.0
  0
LWPOLYLINE
  5
3AF
330
1F
100
AcDbEntity
  8
0
  6
Continuous
 62
     8
370
    25
100
AcDbPolyline
 90
        3
 70
   128
 43
0.0
 10
805.110600907
 20
730.7970521542
 10
809.3634371989
 20
730.621153544
 10
809.94649184
 20
730.5695024456
  0
ARC
  5
3B0
330
1F
100
AcDbEntity
  8
0
  6
Continuous
 62
     8
370
    25
100
AcDbCircle
 10
805.110600907
 20
679.2970521542
 30
0.0
 40
51.5
100
AcDbArc
 50
0.0
 51
13.798771183
  0
ARC
  5
3B1
330
1F
100
AcDbEntity
  8
0
  6
Continuous
 62
     8
370
    25
100
AcDbCircle
 10
805.110600907
 20
379.2970521542
 30
0.0
 40
51.5
100
AcDbArc
 50
346.2012288204
 51
0.0
  0
LWPOLYLINE
  5
3B2
330
1F
100
AcDbEntity
  8
0
  6
Continuous
 62
     8
370
    25
100
AcDbPolyline
 90
        3
 70
   128
 43
0.0
 10
809.9464918349
 20
328.0246018623
 10
809.3634371989
 20
327.9729507644
 10
805.110600907
 20
327.7970521542
  0
LINE
  5
3B3
330
1F
100
AcDbEntity
  8
0
  6
Continuous
 62
     8
370
    25
100
AcDbLine
 10
563.2448155695
 20
730.7632434362
 30
0.0
 11
565.110600907
 21
730.7970521542
 31
0.0
  0
LINE
  5
3B4
330
1F
100
AcDbEntity
  8
0
  6
Continuous
 62
     8
370
    25
100
AcDbLine
 10
515.110600907
 20
679.2970521542
 30
0.0
 11
514.3807534894
 21
679.2970521542
 31
0.0
  0
LINE
  5
3B5
330
1F
100
AcDbEntity
  8
0
  6
Continuous
 62
     8
370
    25
100
AcDbLine
 10
894.610600907
 20
679.2970521542
 30
0.0
 11
894.7370415835
 21
682.9036298168
 31
0.0
  0
LINE
  5
3B6
330
1F
100
AcDbEntity
  8
0
  6
Continuous
 62
     8
370
    25
100
AcDbLine
 10
942.5040232443
 20
730.6706114777
 30
0.0
 11
946.110600907
 21
730.7970521542
 31
0.0
  0
LINE
  5
3B7
330
1F
100
AcDbEntity
  8
0
  6
Continuous
 62
     8
370
    25
100
AcDbLine
 10
946.110600907
 20
327.7970521542
 30
0.0
 11
942.5040232433
 21
327.9234928308
 31
0.0
  0
LINE
  5
3B8
330
1F
100
AcDbEntity
  8
0
  6
Continuous
 62
     8
370
    25
100
AcDbLine
 10
894.7370415836
 20
375.6904744909
 30
0.0
 11
894.610600907
 21
379.2970521542
 31
0.0
  0
LINE
  5
3B9
330
1F
100
AcDbEntity
  8
0
  6
Continuous
 62
     8
370
    25
100
AcDbLine
 10
1188.7616157057
 20
327.8653292535
 30
0.0
 11
1186.110600907
 21
327.7970521542
 31
0.0
  0
LINE
  5
3BA
330
1F
100
AcDbEntity
  8
0
  6
Continuous
 62
     8
370
    25
100
AcDbLine
 10
1186.110600907
 20
730.7970521542
 30
0.0
 11
1188.7616157065
 21
730.7287750549
 31
0.0
  0
LINE
  5
3BB
330
1F
100
AcDbEntity
  8
0
  6
Continuous
 62
     8
370
    25
100
AcDbLine
 10
1236.110600907
 20
379.2970521542
 30
0.0
 11
1237.3404483247
 21
379.2970521542
 31
0.0
  0
LINE
  5
3BC
330
1F
100
AcDbEntity
  8
0
  6
Continuous
 62
     8
370
    25
100
AcDbLine
 10
1236.110600907
 20
679.2970521542
 30
0.0
 11
1237.3404483247
 21
679.2970521542
 31
0.0
  0
ENDSEC
  0
SECTION
  2
OBJECTS
  0
DICTIONARY
  5
C
330
0
100
AcDbDictionary
281
     1
  3
ACAD_GROUP
350
D
  3
ACAD_LAYOUT
350
1A
  3
ACAD_MLINESTYLE
350
17
  3
ACAD_PLOTSETTINGS
350
19
  3
ACAD_PLOTSTYLENAME
350
E
  3
ACAD_SCALELIST
350
47
  0
DICTIONARY
  5
D
102
{ACAD_REACTORS
330
C
102
}
330
C
100
AcDbDictionary
281
     1
  0
DICTIONARY
  5
1A
102
{ACAD_REACTORS
330
C
102
}
330
C
100
AcDbDictionary
281
     1
  3
Layout1
350
1E
  3
Layout2
350
26
  3
Model
350
22
  0
DICTIONARY
  5
17
102
{ACAD_REACTORS
330
C
102
}
330
C
100
AcDbDictionary
281
     1
  3
Standard
350
18
  0
DICTIONARY
  5
19
102
{ACAD_REACTORS
330
C
102
}
330
C
100
AcDbDictionary
281
     1
  0
ACDBDICTIONARYWDFLT
  5
E
102
{ACAD_REACTORS
330
C
102
}
330
C
100
AcDbDictionary
281
     1
  3
Normal
350
F
100
AcDbDictionaryWithDefault
340
F
  0
DICTIONARY
  5
47
102
{ACAD_REACTORS
330
C
102
}
330
C
100
AcDbDictionary
281
     1
  3
A0
350
48
  3
A1
350
49
  3
A2
350
4A
  3
A3
350
4B
  3
A4
350
4C
  3
A5
350
4D
  3
A6
350
4E
  3
A7
350
4F
  3
A8
350
50
  3
A9
350
51
  3
B0
350
52
  3
B1
350
53
  3
B2
350
54
  3
B3
350
55
  3
B4
350
56
  3
B5
350
57
  3
B6
350
58
  3
B7
350
59
  3
B8
350
5A
  3
B9
350
5B
  3
C0
350
5C
  3
C1
350
5D
  3
C2
350
5E
  3
C3
350
5F
  3
C4
350
60
  3
C5
350
61
  3
C6
350
62
  3
C7
350
63
  3
C8
350
64
  3
C9
350
65
  3
D0
350
66
  3
D1
350
67
  3
D2
350
68
  0
LAYOUT
  5
1E
102
{ACAD_REACTORS
330
1A
102
}
330
1A
100
AcDbPlotSettings
  1

  2
none_device
  4

  6

 40
0.0
 41
0.0
 42
0.0
 43
0.0
 44
0.0
 45
0.0
 46
0.0
 47
0.0
 48
0.0
 49
0.0
140
0.0
141
0.0
142
1.0
143
1.0
 70
   688
 72
     1
 73
     0
 74
     5
  7

 75
    16
147
1.0
148
0.0
149
0.0
100
AcDbLayout
  1
Layout1
 70
     1
 71
     1
 10
0.0
 20
0.0
 11
420.0
 21
297.0
 12
0.0
 22
0.0
 32
0.0
 14
1.0000000000E+20
 24
1.0000000000E+20
 34
1.0000000000E+20
 15
-1.0000000000E+20
 25
-1.0000000000E+20
 35
-1.0000000000E+20
146
0.0
 13
0.0
 23
0.0
 33
0.0
 16
1.0
 26
0.0
 36
0.0
 17
0.0
 27
1.0
 37
0.0
 76
     0
330
1B
  0
LAYOUT
  5
26
102
{ACAD_REACTORS
330
1A
102
}
330
1A
100
AcDbPlotSettings
  1

  2
none_device
  4

  6

 40
0.0
 41
0.0
 42
0.0
 43
0.0
 44
0.0
 45
0.0
 46
0.0
 47
0.0
 48
0.0
 49
0.0
140
0.0
141
0.0
142
1.0
143
1.0
 70
   688
 72
     1
 73
     0
 74
     5
  7

 75
    16
147
1.0
148
0.0
149
0.0
100
AcDbLayout
  1
Layout2
 70
     1
 71
     2
 10
0.0
 20
0.0
 11
0.0
 21
0.0
 12
0.0
 22
0.0
 32
0.0
 14
0.0
 24
0.0
 34
0.0
 15
0.0
 25
0.0
 35
0.0
146
0.0
 13
0.0
 23
0.0
 33
0.0
 16
1.0
 26
0.0
 36
0.0
 17
0.0
 27
1.0
 37
0.0
 76
     0
330
23
  0
LAYOUT
  5
22
102
{ACAD_REACTORS
330
1A
102
}
330
1A
100
AcDbPlotSettings
  1

  2
none_device
  4
Letter_(8.50_x_11.00_Inches)
  6

 40
6.35
 41
6.35
 42
6.35000508
 43
6.35000508
 44
215.9
 45
279.4
 46
0.0
 47
0.0
 48
0.0
 49
0.0
140
0.0
141
0.0
142
1.0
143
1.0
 70
  1712
 72
     1
 73
     0
 74
     0
  7

 75
     0
147
1.0
148
0.0
149
0.0
100
AcDbLayout
  1
Model
 70
     1
 71
     0
 10
0.0
 20
0.0
 11
2000.0
 21
1000.0
 12
0.0
 22
0.0
 32
0.0
 14
0.0
 24
0.0
 34
0.0
 15
2000.0
 25
1000.0
 35
0.0
146
0.0
 13
0.0
 23
0.0
 33
0.0
 16
1.0
 26
0.0
 36
0.0
 17
0.0
 27
1.0
 37
0.0
 76
     0
330
1F
331
29
  0
MLINESTYLE
  5
18
102
{ACAD_REACTORS
330
17
102
}
330
17
100
AcDbMlineStyle
  2
Standard
 70
     0
  3

 62
   256
 51
90.0
 52
90.0
 71
     2
 49
0.5
 62
   256
  6
BYLAYER
 49
-0.5
 62
   256
  6
BYLAYER
  0
ACDBPLACEHOLDER
  5
F
102
{ACAD_REACTORS
330
E
102
}
330
E
  0
SCALE
  5
48
102
{ACAD_REACTORS
330
47
102
}
330
47
100
AcDbScale
 70
     0
300
1:1
140
1.0
141
1.0
290
     1
  0
SCALE
  5
49
102
{ACAD_REACTORS
330
47
102
}
330
47
100
AcDbScale
 70
     0
300
1:2
140
1.0
141
2.0
290
     0
  0
SCALE
  5
4A
102
{ACAD_REACTORS
330
47
102
}
330
47
100
AcDbScale
 70
     0
300
1:4
140
1.0
141
4.0
290
     0
  0
SCALE
  5
4B
102
{ACAD_REACTORS
330
47
102
}
330
47
100
AcDbScale
 70
     0
300
1:5
140
1.0
141
5.0
290
     0
  0
SCALE
  5
4C
102
{ACAD_REACTORS
330
47
102
}
330
47
100
AcDbScale
 70
     0
300
1:8
140
1.0
141
8.0
290
     0
  0
SCALE
  5
4D
102
{ACAD_REACTORS
330
47
102
}
330
47
100
AcDbScale
 70
     0
300
1:10
140
1.0
141
10.0
290
     0
  0
SCALE
  5
4E
102
{ACAD_REACTORS
330
47
102
}
330
47
100
AcDbScale
 70
     0
300
1:16
140
1.0
141
16.0
290
     0
  0
SCALE
  5
4F
102
{ACAD_REACTORS
330
47
102
}
330
47
100
AcDbScale
 70
     0
300
1:20
140
1.0
141
20.0
290
     0
  0
SCALE
  5
50
102
{ACAD_REACTORS
330
47
102
}
330
47
100
AcDbScale
 70
     0
300
1:30
140
1.0
141
30.0
290
     0
  0
SCALE
  5
51
102
{ACAD_REACTORS
330
47
102
}
330
47
100
AcDbScale
 70
     0
300
1:40
140
1.0
141
40.0
290
     0
  0
SCALE
  5
52
102
{ACAD_REACTORS
330
47
102
}
330
47
100
AcDbScale
 70
     0
300
1:50
140
1.0
141
50.0
290
     0
  0
SCALE
  5
53
102
{ACAD_REACTORS
330
47
102
}
330
47
100
AcDbScale
 70
     0
300
1:100
140
1.0
141
100.0
290
     0
  0
SCALE
  5
54
102
{ACAD_REACTORS
330
47
102
}
330
47
100
AcDbScale
 70
     0
300
2:1
140
2.0
141
1.0
290
     0
  0
SCALE
  5
55
102
{ACAD_REACTORS
330
47
102
}
330
47
100
AcDbScale
 70
     0
300
4:1
140
4.0
141
1.0
290
     0
  0
SCALE
  5
56
102
{ACAD_REACTORS
330
47
102
}
330
47
100
AcDbScale
 70
     0
300
8:1
140
8.0
141
1.0
290
     0
  0
SCALE
  5
57
102
{ACAD_REACTORS
330
47
102
}
330
47
100
AcDbScale
 70
     0
300
10:1
140
10.0
141
1.0
290
     0
  0
SCALE
  5
58
102
{ACAD_REACTORS
330
47
102
}
330
47
100
AcDbScale
 70
     0
300
100:1
140
100.0
141
1.0
290
     0
  0
SCALE
  5
59
102
{ACAD_REACTORS
330
47
102
}
330
47
100
AcDbScale
 70
     0
300
1/128" = 1'-0"
140
0.0078125
141
12.0
290
     0
  0
SCALE
  5
5A
102
{ACAD_REACTORS
330
47
102
}
330
47
100
AcDbScale
 70
     0
300
1/64" = 1'-0"
140
0.015625
141
12.0
290
     0
  0
SCALE
  5
5B
102
{ACAD_REACTORS
330
47
102
}
330
47
100
AcDbScale
 70
     0
300
1/32" = 1'-0"
140
0.03125
141
12.0
290
     0
  0
SCALE
  5
5C
102
{ACAD_REACTORS
330
47
102
}
330
47
100
AcDbScale
 70
     0
300
1/16" = 1'-0"
140
0.0625
141
12.0
290
     0
  0
SCALE
  5
5D
102
{ACAD_REACTORS
330
47
102
}
330
47
100
AcDbScale
 70
     0
300
3/32" = 1'-0"
140
0.09375
141
12.0
290
     0
  0
SCALE
  5
5E
102
{ACAD_REACTORS
330
47
102
}
330
47
100
AcDbScale
 70
     0
300
1/8" = 1'-0"
140
0.125
141
12.0
290
     0
  0
SCALE
  5
5F
102
{ACAD_REACTORS
330
47
102
}
330
47
100
AcDbScale
 70
     0
300
3/16" = 1'-0"
140
0.1875
141
12.0
290
     0
  0
SCALE
  5
60
102
{ACAD_REACTORS
330
47
102
}
330
47
100
AcDbScale
 70
     0
300
1/4" = 1'-0"
140
0.25
141
12.0
290
     0
  0
SCALE
  5
61
102
{ACAD_REACTORS
330
47
102
}
330
47
100
AcDbScale
 70
     0
300
3/8" = 1'-0"
140
0.375
141
12.0
290
     0
  0
SCALE
  5
62
102
{ACAD_REACTORS
330
47
102
}
330
47
100
AcDbScale
 70
     0
300
1/2" = 1'-0"
140
0.5
141
12.0
290
     0
  0
SCALE
  5
63
102
{ACAD_REACTORS
330
47
102
}
330
47
100
AcDbScale
 70
     0
300
3/4" = 1'-0"
140
0.75
141
12.0
290
     0
  0
SCALE
  5
64
102
{ACAD_REACTORS
330
47
102
}
330
47
100
AcDbScale
 70
     0
300
1" = 1'-0"
140
1.0
141
12.0
290
     0
  0
SCALE
  5
65
102
{ACAD_REACTORS
330
47
102
}
330
47
100
AcDbScale
 70
     0
300
1-1/2" = 1'-0"
140
1.5
141
12.0
290
     0
  0
SCALE
  5
66
102
{ACAD_REACTORS
330
47
102
}
330
47
100
AcDbScale
 70
     0
300
3" = 1'-0"
140
3.0
141
12.0
290
     0
  0
SCALE
  5
67
102
{ACAD_REACTORS
330
47
102
}
330
47
100
AcDbScale
 70
     0
300
6" = 1'-0"
140
6.0
141
12.0
290
     0
  0
SCALE
  5
68
102
{ACAD_REACTORS
330
47
102
}
330
47
100
AcDbScale
 70
     0
300
1'-0" = 1'-0"
140
12.0
141
12.0
290
     0
  0
ENDSEC
  0
EOF
