  0
SECTION
  2
HEADER
  9
$ACADVER
  1
AC1015
  9
$ACADMAINTVER
 70
     6
  9
$DWGCODEPAGE
  3
ANSI_1252
  9
$INSBASE
 10
0.0
 20
0.0
 30
0.0
  9
$EXTMIN
 10
0.0
 20
0.0
 30
0.0
  9
$EXTMAX
 10
900.0
 20
600.0
 30
0.0
  9
$LIMMIN
 10
0.0
 20
0.0
  9
$LIMMAX
 10
900.0
 20
600.0
  9
$ORTHOMODE
 70
     0
  9
$REGENMODE
 70
     1
  9
$FILLMODE
 70
     1
  9
$QTEXTMODE
 70
     0
  9
$MIRRTEXT
 70
     1
  9
$LTSCALE
 40
1.0
  9
$ATTMODE
 70
     1
  9
$TEXTSIZE
 40
2.8222222222
  9
$TRACEWID
 40
1.0
  9
$TEXTSTYLE
  7
Standard
  9
$CLAYER
  8
0
  9
$CELTYPE
  6
ByLayer
  9
$CECOLOR
 62
   256
  9
$CELTSCALE
 40
1.0
  9
$DISPSILH
 70
     0
  9
$DIMSCALE
 40
1.0
  9
$DIMASZ
 40
2.0
  9
$DIMEXO
 40
1.0
  9
$DIMDLI
 40
3.75
  9
$DIMRND
 40
0.0
  9
$DIMDLE
 40
0.0
  9
$DIMEXE
 40
1.0
  9
$DIMTP
 40
0.0
  9
$DIMTM
 40
0.0
  9
$DIMTXT
 40
8.4666666667
  9
$DIMCEN
 40
2.5
  9
$DIMTSZ
 40
0.0
  9
$DIMTOL
 70
     0
  9
$DIMLIM
 70
     0
  9
$DIMTIH
 70
     1
  9
$DIMTOH
 70
     1
  9
$DIMSE1
 70
     0
  9
$DIMSE2
 70
     0
  9
$DIMTAD
 70
     1
  9
$DIMZIN
 70
     0
  9
$DIMBLK
  1

  9
$DIMASO
 70
     1
  9
$DIMSHO
 70
     1
  9
$DIMPOST
  1

  9
$DIMAPOST
  1

  9
$DIMALT
 70
     0
  9
$DIMALTD
 70
     3
  9
$DIMALTF
 40
0.0393700787
  9
$DIMLFAC
 40
1.0
  9
$DIMTOFL
 70
     1
  9
$DIMTVP
 40
0.0
  9
$DIMTIX
 70
     0
  9
$DIMSOXD
 70
     0
  9
$DIMSAH
 70
     0
  9
$DIMBLK1
  1

  9
$DIMBLK2
  1

  9
$DIMSTYLE
  2
ISO-25
  9
$DIMCLRD
 70
     0
  9
$DIMCLRE
 70
     0
  9
$DIMCLRT
 70
     0
  9
$DIMTFAC
 40
1.0
  9
$DIMGAP
 40
1.524
  9
$DIMJUST
 70
     0
  9
$DIMSD1
 70
     0
  9
$DIMSD2
 70
     0
  9
$DIMTOLJ
 70
     0
  9
$DIMTZIN
 70
     0
  9
$DIMALTZ
 70
     0
  9
$DIMALTTZ
 70
     0
  9
$DIMUPT
 70
     0
  9
$DIMDEC
 70
     2
  9
$DIMTDEC
 70
     2
  9
$DIMALTU
 70
     2
  9
$DIMALTTD
 70
     3
  9
$DIMTXSTY
  7
Standard
  9
$DIMAUNIT
 70
     0
  9
$DIMADEC
 70
     2
  9
$DIMALTRND
 40
0.0
  9
$DIMAZIN
 70
     0
  9
$DIMDSEP
 70
    44
  9
$DIMATFIT
 70
     3
  9
$DIMFRAC
 70
     0
  9
$DIMLDRBLK
  1

  9
$DIMLUNIT
 70
     2
  9
$DIMLWD
 70
    -2
  9
$DIMLWE
 70
    -2
  9
$DIMTMOVE
 70
     0
  9
$LUNITS
 70
     2
  9
$LUPREC
 70
     2
  9
$SKETCHINC
 40
1.0
  9
$FILLETRAD
 40
10.0
  9
$AUNITS
 70
     0
  9
$AUPREC
 70
     2
  9
$MENU
  1
.
  9
$ELEVATION
 40
0.0
  9
$PELEVATION
 40
0.0
  9
$THICKNESS
 40
0.0
  9
$LIMCHECK
 70
     0
  9
$CHAMFERA
 40
0.0
  9
$CHAMFERB
 40
0.0
  9
$CHAMFERC
 40
0.0
  9
$CHAMFERD
 40
0.0
  9
$SKPOLY
 70
     0
  9
$TDCREATE
 40
2458498.394915197
  9
$TDUCREATE
 40
2458498.311581864
  9
$TDUPDATE
 40
2458498.394915741
  9
$TDUUPDATE
 40
2458498.311582407
  9
$TDINDWG
 40
0.0000000116
  9
$TDUSRTIMER
 40
0.0000000116
  9
$USRTIMER
 70
     1
  9
$ANGBASE
 50
0.0
  9
$ANGDIR
 70
     0
  9
$PDMODE
 70
     0
  9
$PDSIZE
 40
-1.0
  9
$PLINEWID
 40
0.0
  9
$SPLFRAME
 70
     0
  9
$SPLINETYPE
 70
     6
  9
$SPLINESEGS
 70
     8
  9
$HANDSEED
  5
1CC
  9
$SURFTAB1
 70
     6
  9
$SURFTAB2
 70
     6
  9
$SURFTYPE
 70
     6
  9
$SURFU
 70
     6
  9
$SURFV
 70
     6
  9
$UCSBASE
  2

  9
$UCSNAME
  2

  9
$UCSORG
 10
0.0
 20
0.0
 30
0.0
  9
$UCSXDIR
 10
1.0
 20
0.0
 30
0.0
  9
$UCSYDIR
 10
0.0
 20
1.0
 30
0.0
  9
$UCSORTHOREF
  2

  9
$UCSORTHOVIEW
 70
     0
  9
$UCSORGTOP
 10
0.0
 20
0.0
 30
0.0
  9
$UCSORGBOTTOM
 10
0.0
 20
0.0
 30
0.0
  9
$UCSORGLEFT
 10
0.0
 20
0.0
 30
0.0
  9
$UCSORGRIGHT
 10
0.0
 20
0.0
 30
0.0
  9
$UCSORGFRONT
 10
0.0
 20
0.0
 30
0.0
  9
$UCSORGBACK
 10
0.0
 20
0.0
 30
0.0
  9
$PUCSBASE
  2

  9
$PUCSNAME
  2

  9
$PUCSORG
 10
0.0
 20
0.0
 30
0.0
  9
$PUCSXDIR
 10
1.0
 20
0.0
 30
0.0
  9
$PUCSYDIR
 10
0.0
 20
1.0
 30
0.0
  9
$PUCSORTHOREF
  2

  9
$PUCSORTHOVIEW
 70
     0
  9
$PUCSORGTOP
 10
0.0
 20
0.0
 30
0.0
  9
$PUCSORGBOTTOM
 10
0.0
 20
0.0
 30
0.0
  9
$PUCSORGLEFT
 10
0.0
 20
0.0
 30
0.0
  9
$PUCSORGRIGHT
 10
0.0
 20
0.0
 30
0.0
  9
$PUCSORGFRONT
 10
0.0
 20
0.0
 30
0.0
  9
$PUCSORGBACK
 10
0.0
 20
0.0
 30
0.0
  9
$USERI1
 70
     0
  9
$USERI2
 70
     0
  9
$USERI3
 70
     0
  9
$USERI4
 70
     0
  9
$USERI5
 70
     0
  9
$USERR1
 40
0.0
  9
$USERR2
 40
0.0
  9
$USERR3
 40
0.0
  9
$USERR4
 40
0.0
  9
$USERR5
 40
0.0
  9
$WORLDVIEW
 70
     1
  9
$SHADEDGE
 70
     3
  9
$SHADEDIF
 70
    70
  9
$TILEMODE
 70
     1
  9
$MAXACTVP
 70
    64
  9
$PINSBASE
 10
0.0
 20
0.0
 30
0.0
  9
$PLIMCHECK
 70
     0
  9
$PEXTMIN
 10
1.0000000000E+20
 20
1.0000000000E+20
 30
1.0000000000E+20
  9
$PEXTMAX
 10
-1.0000000000E+20
 20
-1.0000000000E+20
 30
-1.0000000000E+20
  9
$PLIMMIN
 10
0.0
 20
0.0
  9
$PLIMMAX
 10
420.0
 20
297.0
  9
$UNITMODE
 70
     0
  9
$VISRETAIN
 70
     1
  9
$PLINEGEN
 70
     0
  9
$PSLTSCALE
 70
     1
  9
$TREEDEPTH
 70
  3020
  9
$CMLSTYLE
  2
Standard
  9
$CMLJUST
 70
     0
  9
$CMLSCALE
 40
20.0
  9
$PROXYGRAPHICS
 70
     1
  9
$MEASUREMENT
 70
     1
  9
$CELWEIGHT
370
    -1
  9
$ENDCAPS
280
     0
  9
$JOINSTYLE
280
     0
  9
$LWDISPLAY
290
     1
  9
$INSUNITS
 70
     4
  9
$HYPERLINKBASE
  1

  9
$STYLESHEET
  1

  9
$XEDIT
290
     1
  9
$CEPSNTYPE
380
     0
  9
$PSTYLEMODE
290
     1
  9
$FINGERPRINTGUID
  2
{59D158A9-6422-4306-939E-08E9C745597A}
  9
$VERSIONGUID
  2
{FAEB1C32-E019-11D5-929B-00C0DF256EC4}
  9
$EXTNAMES
290
     1
  9
$PSVPSCALE
 40
0.0
  9
$OLESTARTUP
290
     0
  0
ENDSEC
  0
SECTION
  2
CLASSES
  0
CLASS
  1
ACDBDICTIONARYWDFLT
  2
AcDbDictionaryWithDefault
  3
ObjectDBX Classes
 90
        0
280
     0
281
     0
  0
CLASS
  1
VISUALSTYLE
  2
AcDbVisualStyle
  3
ObjectDBX Classes
 90
     4095
280
     0
281
     0
  0
CLASS
  1
MATERIAL
  2
AcDbMaterial
  3
ObjectDBX Classes
 90
     1153
280
     0
281
     0
  0
CLASS
  1
SCALE
  2
AcDbScale
  3
ObjectDBX Classes
 90
     1153
280
     0
281
     0
  0
CLASS
  1
TABLESTYLE
  2
AcDbTableStyle
  3
ObjectDBX Classes
 90
     4095
280
     0
281
     0
  0
CLASS
  1
MLEADERSTYLE
  2
AcDbMLeaderStyle
  3
ACDB_MLEADERSTYLE_CLASS
 90
     4095
280
     0
281
     0
  0
CLASS
  1
SUN
  2
AcDbSun
  3
SCENEOE
 90
     1153
280
     0
281
     0
  0
CLASS
  1
ACDBPLACEHOLDER
  2
AcDbPlaceHolder
  3
ObjectDBX Classes
 90
        0
280
     0
281
     0
  0
CLASS
  1
LAYOUT
  2
AcDbLayout
  3
ObjectDBX Classes
 90
        0
280
     0
281
     0
  0
ENDSEC
  0
SECTION
  2
TABLES
  0
TABLE
  2
VPORT
  5
8
330
0
100
AcDbSymbolTable
 70
     1
  0
VPORT
  5
29
330
8
100
AcDbSymbolTableRecord
100
AcDbViewportTableRecord
  2
*Active
 70
     0
 10
0.0
 20
0.0
 11
1.0
 21
1.0
 12
450.0
 22
300.0
 13
0.0
 23
0.0
 14
10.0
 24
10.0
 15
10.0
 25
10.0
 16
0.0
 26
0.0
 36
1.0
 17
0.0
 27
0.0
 37
0.0
 40
600.0
 41
1.5
 42
50.0
 43
0.0
 44
0.0
 50
0.0
 51
0.0
 71
     0
 72
  2000
 73
     1
 74
     3
 75
     0
 76
     0
 77
     0
 78
     0
281
     0
 65
     1
110
0.0
120
0.0
130
0.0
111
1.0
121
0.0
131
0.0
112
0.0
122
1.0
132
0.0
 79
     0
146
0.0
  0
ENDTAB
  0
TABLE
  2
LTYPE
  5
5
330
0
100
AcDbSymbolTable
 70
     6
  0
LTYPE
  5
14
330
5
100
AcDbSymbolTableRecord
100
AcDbLinetypeTableRecord
  2
ByBlock
 70
     0
  3

 72
    65
 73
     0
 40
0.0
  0
LTYPE
  5
15
330
5
100
AcDbSymbolTableRecord
100
AcDbLinetypeTableRecord
  2
ByLayer
 70
     0
  3

 72
    65
 73
     0
 40
0.0
  0
LTYPE
  5
16
330
5
100
AcDbSymbolTableRecord
100
AcDbLinetypeTableRecord
  2
Continuous
 70
     0
  3
Solid line
 72
    65
 73
     0
 40
0.0
  0
LTYPE
  5
6E
330
5
100
AcDbSymbolTableRecord
100
AcDbLinetypeTableRecord
  2
HIDDEN
 70
     0
  3
Hidden __ __ __ __ __ __ __ __ __ __ __ __ __ __
 72
    65
 73
     2
 40
1.905
 49
1.27
 74
     0
 49
-0.635
 74
     0
  0
LTYPE
  5
6F
330
5
100
AcDbSymbolTableRecord
100
AcDbLinetypeTableRecord
  2
PHANTOM
 70
     0
  3
Phantom ______  __  __  ______  __  __  ______
 72
    65
 73
     6
 40
12.7
 49
6.35
 74
     0
 49
-1.27
 74
     0
 49
1.27
 74
     0
 49
-1.27
 74
     0
 49
1.27
 74
     0
 49
-1.27
 74
     0
  0
LTYPE
  5
70
330
5
100
AcDbSymbolTableRecord
100
AcDbLinetypeTableRecord
  2
CENTER
 70
     0
  3
Center ____ _ ____ _ ____ _ ____ _ ____ _ ____
 72
    65
 73
     4
 40
10.16
 49
6.35
 74
     0
 49
-1.27
 74
     0
 49
1.27
 74
     0
 49
-1.27
 74
     0
  0
LTYPE
  5
71
330
5
100
AcDbSymbolTableRecord
100
AcDbLinetypeTableRecord
  2
CENTERX2
 70
     0
  3
Center (2x) ________  __  ________  __  _____
 72
    65
 73
     4
 40
20.32
 49
12.7
 74
     0
 49
-2.54
 74
     0
 49
2.54
 74
     0
 49
-2.54
 74
     0
  0
LTYPE
  5
72
330
5
100
AcDbSymbolTableRecord
100
AcDbLinetypeTableRecord
  2
DOT2
 70
     0
  3
Dot (.5x) ........................................
 72
    65
 73
     2
 40
0.635
 49
0.0
 74
     0
 49
-0.635
 74
     0
  0
ENDTAB
  0
TABLE
  2
LAYER
  5
2
330
0
100
AcDbSymbolTable
 70
     2
  0
LAYER
  5
10
330
2
100
AcDbSymbolTableRecord
100
AcDbLayerTableRecord
  2
0
 70
     0
 62
     7
  6
Continuous
370
    -3
390
F
  0
LAYER
  5
73
330
2
100
AcDbSymbolTableRecord
100
AcDbLayerTableRecord
  2
TABLE_BL1
 70
     0
 62
   179
  6
Continuous
370
    -3
390
F
  0
ENDTAB
  0
TABLE
  2
STYLE
  5
3
330
0
100
AcDbSymbolTable
 70
     1
  0
STYLE
  5
11
330
3
100
AcDbSymbolTableRecord
100
AcDbTextStyleTableRecord
  2
Standard
 70
     0
 40
0.0
 41
1.0
 50
0.0
 71
     0
 42
2.8222222222
  3
txt
  4

  0
ENDTAB
  0
TABLE
  2
VIEW
  5
6
330
0
100
AcDbSymbolTable
 70
     0
  0
ENDTAB
  0
TABLE
  2
UCS
  5
7
330
0
100
AcDbSymbolTable
 70
     0
  0
ENDTAB
  0
TABLE
  2
APPID
  5
9
330
0
100
AcDbSymbolTable
 70
     1
  0
APPID
  5
12
330
9
100
AcDbSymbolTableRecord
100
AcDbRegAppTableRecord
  2
ACAD
 70
     0
  0
ENDTAB
  0
TABLE
  2
DIMSTYLE
  5
A
330
0
100
AcDbSymbolTable
 70
     1
100
AcDbDimStyleTable
  0
DIMSTYLE
105
27
330
A
100
AcDbSymbolTableRecord
100
AcDbDimStyleTableRecord
  2
ISO-25
 70
     0
 41
2.5
 42
0.625
 43
3.75
 44
1.25
 73
     0
 74
     0
 77
     1
 78
     8
140
2.5
141
2.5
143
0.0393700787
147
0.625
171
     3
172
     1
178
     0
271
     2
272
     2
274
     3
278
    44
283
     0
284
     8
340
11
  0
ENDTAB
  0
TABLE
  2
BLOCK_RECORD
  5
1
330
0
100
AcDbSymbolTable
 70
     1
  0
BLOCK_RECORD
  5
1F
330
1
100
AcDbSymbolTableRecord
100
AcDbBlockTableRecord
  2
*Model_Space
340
22
  0
BLOCK_RECORD
  5
1B
330
1
100
AcDbSymbolTableRecord
100
AcDbBlockTableRecord
  2
*Paper_Space
340
1E
  0
BLOCK_RECORD
  5
23
330
1
100
AcDbSymbolTableRecord
100
AcDbBlockTableRecord
  2
*Paper_Space0
340
26
  0
ENDTAB
  0
ENDSEC
  0
SECTION
  2
BLOCKS
  0
BLOCK
  5
20
330
1F
100
AcDbEntity
  8
0
100
AcDbBlockBegin
  2
*Model_Space
 70
     0
 10
0.0
 20
0.0
 30
0.0
  3
*Model_Space
  1

  0
ENDBLK
  5
21
330
1F
100
AcDbEntity
  8
0
100
AcDbBlockEnd
  0
BLOCK
  5
1C
330
1B
100
AcDbEntity
 67
     1
  8
0
100
AcDbBlockBegin
  2
*Paper_Space
 70
     0
 10
0.0
 20
0.0
 30
0.0
  3
*Paper_Space
  1

  0
ENDBLK
  5
1D
330
1B
100
AcDbEntity
 67
     1
  8
0
100
AcDbBlockEnd
  0
BLOCK
  5
24
330
23
100
AcDbEntity
  8
0
100
AcDbBlockBegin
  2
*Paper_Space0
 70
     0
 10
0.0
 20
0.0
 30
0.0
  3
*Paper_Space0
  1

  0
ENDBLK
  5
25
330
23
100
AcDbEntity
  8
0
100
AcDbBlockEnd
  0
ENDSEC
  0
SECTION
  2
ENTITIES
  0
ARC
  5
74
330
1F
100
AcDbEntity
  8
0
  6
Continuous
 62
     7
370
    25
100
AcDbCircle
 10
529.8864827655
 20
438.0138820923
 30
0.0
 40
51.50000000000006
100
AcDbArc
 50
90.0
 51
180.0
  0
LINE
  5
75
330
1F
100
AcDbEntity
  8
0
  6
Continuous
 62
     7
370
    25
100
AcDbLine
 10
529.8864827655
 20
489.5138820923
 30
0.0
 11
769.8864827655
 21
489.5138820923
 31
0.0
  0
LINE
  5
76
330
1F
100
AcDbEntity
  8
0
  6
Continuous
 62
     7
370
    25
100
AcDbLine
 10
769.8864827655
 20
489.5138820923
 30
0.0
 11
769.8864827655
 21
488.0138820923
 31
0.0
  0
LINE
  5
77
330
1F
100
AcDbEntity
  8
0
  6
Continuous
 62
     7
370
    25
100
AcDbLine
 10
769.8864827655
 20
488.0138820923
 30
0.0
 11
529.8864827655
 21
488.0138820923
 31
0.0
  0
LINE
  5
78
330
1F
100
AcDbEntity
  8
0
  6
Continuous
 62
     7
370
    25
100
AcDbLine
 10
529.8864827655
 20
489.5138820923
 30
0.0
 11
529.8864827655
 21
488.0138820923
 31
0.0
  0
ARC
  5
79
330
1F
100
AcDbEntity
  8
0
  6
Continuous
 62
     7
370
    25
100
AcDbCircle
 10
769.8864827655
 20
438.0138820923
 30
0.0
 40
50.0
100
AcDbArc
 50
0.0
 51
90.0
  0
ARC
  5
7A
330
1F
100
AcDbEntity
  8
0
  6
Continuous
 62
     7
370
    25
100
AcDbCircle
 10
529.8864827655
 20
438.0138820923
 30
0.0
 40
50.00000000000011
100
AcDbArc
 50
90.0
 51
180.0
  0
LINE
  5
7B
330
1F
100
AcDbEntity
  8
0
  6
Continuous
 62
     7
370
    25
100
AcDbLine
 10
819.8864827655
 20
138.0138820923
 30
0.0
 11
819.8864827655
 21
438.0138820923
 31
0.0
  0
LINE
  5
7C
330
1F
100
AcDbEntity
  8
0
  6
Continuous
 62
     7
370
    25
100
AcDbLine
 10
479.8864827655
 20
438.0138820923
 30
0.0
 11
479.8864827655
 21
138.0138820923
 31
0.0
  0
ARC
  5
7D
330
1F
100
AcDbEntity
  8
0
  6
Continuous
 62
     7
370
    25
100
AcDbCircle
 10
769.8864827655
 20
138.0138820923
 30
0.0
 40
50.00000000000011
100
AcDbArc
 50
270.0
 51
0.0
  0
ARC
  5
7E
330
1F
100
AcDbEntity
  8
0
  6
Continuous
 62
     7
370
    25
100
AcDbCircle
 10
529.8864827655
 20
138.0138820923
 30
0.0
 40
50.0
100
AcDbArc
 50
180.0
 51
270.0
  0
LINE
  5
7F
330
1F
100
AcDbEntity
  8
0
  6
Continuous
 62
     7
370
    25
100
AcDbLine
 10
529.8864827655
 20
88.0138820923
 30
0.0
 11
769.8864827655
 21
88.0138820923
 31
0.0
  0
LINE
  5
80
330
1F
100
AcDbEntity
  8
0
  6
Continuous
 62
     7
370
    25
100
AcDbLine
 10
819.8864827655
 20
438.0138820923
 30
0.0
 11
811.8773757315
 21
438.0138820923
 31
0.0
  0
SPLINE
  5
81
330
1F
100
AcDbEntity
  8
0
  6
Continuous
 62
     7
370
    25
100
AcDbSpline
210
0.0
220
0.0
230
1.0
 70
     8
 71
     3
 72
    17
 73
    13
 74
     0
 42
0.000000001
 43
0.00000001
 40
0.0
 40
0.0
 40
0.0
 40
0.0
 40
0.1041130503141872
 40
0.2111610559471622
 40
0.3152827637335239
 40
0.4223419657374287
 40
0.5258618210652851
 40
0.6322677449810314
 40
0.7354170340649664
 40
0.8414201480471973
 40
0.9200901248435196
 40
1.0
 40
1.0
 40
1.0
 40
1.0
 10
769.8864827655119
 20
479.9863520972096
 30
0.0
 10
772.1766756906488
 20
479.8835207772115
 30
0.0
 10
776.8216222649282
 20
479.6749593139779
 30
0.0
 10
783.5732704484934
 20
477.9158989793002
 30
0.0
 10
790.0085888630258
 20
475.1201913360095
 30
0.0
 10
795.8262900910026
 20
471.3163335784976
 30
0.0
 10
800.9719138105349
 20
466.5775927403163
 30
0.0
 10
805.2141646298463
 20
461.1206738115193
 30
0.0
 10
808.5315435992768
 20
454.995715440797
 30
0.0
 10
810.5833126315625
 20
448.9853720401912
 30
0.0
 10
811.6980001957385
 20
443.2578992142128
 30
0.0
 10
811.8172730308665
 20
439.7709756099285
 30
0.0
 10
811.8773757314764
 20
438.0138820922635
 30
0.0
  0
LINE
  5
82
330
1F
100
AcDbEntity
  8
0
  6
Continuous
 62
     7
370
    25
100
AcDbLine
 10
769.8864827655
 20
488.0138820923
 30
0.0
 11
769.8864827655
 21
479.9863520972
 31
0.0
  0
SPLINE
  5
83
330
1F
100
AcDbEntity
  8
0
  6
Continuous
 62
     7
370
    25
100
AcDbSpline
210
0.0
220
0.0
230
1.0
 70
     8
 71
     3
 72
    13
 73
     9
 74
     0
 42
0.000000001
 43
0.00000001
 40
0.0
 40
0.0
 40
0.0
 40
0.0
 40
0.174346201218274
 40
0.3488154826773333
 40
0.5236513563142287
 40
0.6986036154787086
 40
0.8492714919093058
 40
1.0
 40
1.0
 40
1.0
 40
1.0
 10
529.8864827655121
 20
478.6997671673762
 30
0.0
 10
543.8498046469864
 20
478.6346773096683
 30
0.0
 10
571.7863058602686
 20
478.5044516438662
 30
0.0
 10
613.7496978285624
 20
478.5256710909006
 30
0.0
 10
655.7416077817376
 20
478.7075972136852
 30
0.0
 10
695.7831183153282
 20
479.0386537015324
 30
0.0
 10
733.8435955349983
 20
479.4664765252942
 30
0.0
 10
757.8705758594552
 20
479.8130370008103
 30
0.0
 10
769.8864827655119
 20
479.9863520972096
 30
0.0
  0
LINE
  5
84
330
1F
100
AcDbEntity
  8
0
  6
Continuous
 62
     7
370
    25
100
AcDbLine
 10
529.8864827655
 20
488.0138820923
 30
0.0
 11
529.8864827655
 21
478.6997671674
 31
0.0
  0
SPLINE
  5
85
330
1F
100
AcDbEntity
  8
0
  6
Continuous
 62
     7
370
    25
100
AcDbSpline
210
0.0
220
0.0
230
1.0
 70
     8
 71
     3
 72
    17
 73
    13
 74
     0
 42
0.000000001
 43
0.00000001
 40
0.0
 40
0.0
 40
0.0
 40
0.0
 40
0.105129148941588
 40
0.2132753194621076
 40
0.3182511711219466
 40
0.4262311915931524
 40
0.5307531665147872
 40
0.6382399066615506
 40
0.742341363792601
 40
0.8493710799781662
 40
0.9241556338254944
 40
1.0
 40
1.0
 40
1.0
 40
1.0
 10
489.2531323239063
 20
438.0138820922636
 30
0.0
 10
489.3556925198117
 20
440.2531046404352
 30
0.0
 10
489.5637562087697
 20
444.7958114835525
 30
0.0
 10
491.301410348507
 20
451.3908097073304
 30
0.0
 10
494.0580232275651
 20
457.6672729732268
 30
0.0
 10
497.803392768333
 20
463.3307779536785
 30
0.0
 10
502.468074141363
 20
468.3300836697713
 30
0.0
 10
507.8362116151426
 20
472.4350899817982
 30
0.0
 10
513.8546131241898
 20
475.6220751874854
 30
0.0
 10
519.6574478321231
 20
477.5338938819109
 30
0.0
 10
525.0649509373219
 20
478.5374723456933
 30
0.0
 10
528.2717844863416
 20
478.6454157333033
 30
0.0
 10
529.8864827655121
 20
478.6997671673762
 30
0.0
  0
LINE
  5
86
330
1F
100
AcDbEntity
  8
0
  6
Continuous
 62
     7
370
    25
100
AcDbLine
 10
479.8864827655
 20
438.0138820923
 30
0.0
 11
489.2531323239
 21
438.0138820923
 31
0.0
  0
LINE
  5
87
330
1F
100
AcDbEntity
  8
0
  6
Continuous
 62
     7
370
    25
100
AcDbLine
 10
819.8864827655
 20
138.0138820923
 30
0.0
 11
811.8773757315
 21
138.0138820923
 31
0.0
  0
SPLINE
  5
88
330
1F
100
AcDbEntity
  8
0
  6
Continuous
 62
     7
370
    25
100
AcDbSpline
210
0.0
220
0.0
230
1.0
 70
     8
 71
     3
 72
    15
 73
    11
 74
     0
 42
0.000000001
 43
0.00000001
 40
0.0
 40
0.0
 40
0.0
 40
0.0
 40
0.1338067183964186
 40
0.2676302517871857
 40
0.4014336098445925
 40
0.5359403859448524
 40
0.670468502042269
 40
0.8049770874156128
 40
0.9024749818287724
 40
1.0
 40
1.0
 40
1.0
 40
1.0
 10
811.8773757314764
 20
438.0138820922635
 30
0.0
 10
811.7203813106956
 20
424.6602096415947
 30
0.0
 10
811.4063727402277
 20
397.9511866337353
 30
0.0
 10
811.0898002242994
 20
357.8061070396214
 30
0.0
 10
810.9021196793971
 20
317.5551906020281
 30
0.0
 10
810.8695427454376
 20
277.2135842431593
 30
0.0
 10
810.9852548841068
 20
236.8085059169918
 30
0.0
 10
811.2228756457613
 20
200.1381446763425
 30
0.0
 10
811.5275480636683
 20
167.2048629574387
 30
0.0
 10
811.7607556973794
 20
147.7451112004618
 30
0.0
 10
811.8773757314766
 20
138.0138820922638
 30
0.0
  0
SPLINE
  5
89
330
1F
100
AcDbEntity
  8
0
  6
Continuous
 62
     7
370
    25
100
AcDbSpline
210
0.0
220
0.0
230
1.0
 70
     8
 71
     3
 72
    11
 73
     7
 74
     0
 42
0.000000001
 43
0.00000001
 40
0.0
 40
0.0
 40
0.0
 40
0.0
 40
0.2497477886999952
 40
0.4996152733637829
 40
0.7497701168085441
 40
1.0
 40
1.0
 40
1.0
 40
1.0
 10
490.4433707715759
 20
308.8526263961164
 30
0.0
 10
490.4007366650922
 20
319.6233327249638
 30
0.0
 10
490.3154480189891
 20
341.1699074306649
 30
0.0
 10
490.0440228963924
 20
373.4716053584688
 30
0.0
 10
489.6982794834141
 20
405.7632500594311
 30
0.0
 10
489.401529544355
 20
427.2625967045743
 30
0.0
 10
489.2531323239063
 20
438.0138820922636
 30
0.0
  0
SPLINE
  5
8A
330
1F
100
AcDbEntity
  8
0
  6
Continuous
 62
     7
370
    25
100
AcDbSpline
210
0.0
220
0.0
230
1.0
 70
     8
 71
     3
 72
     9
 73
     5
 74
     0
 42
0.000000001
 43
0.00000001
 40
0.0
 40
0.0
 40
0.0
 40
0.0
 40
0.4999249197055475
 40
1.0
 40
1.0
 40
1.0
 40
1.0
 10
490.4433707715759
 20
267.1751377884219
 30
0.0
 10
490.4581801496856
 20
274.1203427165989
 30
0.0
 10
490.487803354143
 20
288.0128386783279
 30
0.0
 10
490.458183115029
 20
301.9053351217045
 30
0.0
 10
490.4433707715759
 20
308.8526263961164
 30
0.0
  0
SPLINE
  5
8B
330
1F
100
AcDbEntity
  8
0
  6
Continuous
 62
     7
370
    25
100
AcDbSpline
210
0.0
220
0.0
230
1.0
 70
     8
 71
     3
 72
    11
 73
     7
 74
     0
 42
0.000000001
 43
0.00000001
 40
0.0
 40
0.0
 40
0.0
 40
0.0
 40
0.2497935786588417
 40
0.4996593749926219
 40
0.7497761982192852
 40
1.0
 40
1.0
 40
1.0
 40
1.0
 10
489.2531323239064
 20
138.0138820922643
 30
0.0
 10
489.4012821055564
 20
148.746412652248
 30
0.0
 10
489.6976245003528
 20
170.2145766478273
 30
0.0
 10
490.0433433191815
 20
202.4856338190621
 30
0.0
 10
490.3151729768117
 20
234.8060527484513
 30
0.0
 10
490.4006320826094
 20
256.3839049111523
 30
0.0
 10
490.4433707715759
 20
267.1751377884219
 30
0.0
  0
LINE
  5
8C
330
1F
100
AcDbEntity
  8
0
  6
Continuous
 62
     7
370
    25
100
AcDbLine
 10
479.8864827655
 20
138.0138820923
 30
0.0
 11
489.2531323239
 21
138.0138820923
 31
0.0
  0
LINE
  5
8D
330
1F
100
AcDbEntity
  8
0
  6
Continuous
 62
     7
370
    25
100
AcDbLine
 10
769.8864827655
 20
88.0138820923
 30
0.0
 11
769.8864827655
 21
96.0414120873
 31
0.0
  0
SPLINE
  5
8E
330
1F
100
AcDbEntity
  8
0
  6
Continuous
 62
     7
370
    25
100
AcDbSpline
210
0.0
220
0.0
230
1.0
 70
     8
 71
     3
 72
    17
 73
    13
 74
     0
 42
0.000000001
 43
0.00000001
 40
0.0
 40
0.0
 40
0.0
 40
0.0
 40
0.1036840528330381
 40
0.2102667622276598
 40
0.3139762931752489
 40
0.4205880655841454
 40
0.5238453999280968
 40
0.6299661672500476
 40
0.7331400226786792
 40
0.8391691684324382
 40
0.9189379997691313
 40
1.0
 40
1.0
 40
1.0
 40
1.0
 10
811.8773757314766
 20
138.0138820922638
 30
0.0
 10
811.7744196322802
 20
135.7330664878388
 30
0.0
 10
811.5656291284555
 20
131.1076713641255
 30
0.0
 10
809.8181155177493
 20
124.3829741653256
 30
0.0
 10
807.042148878859
 20
117.9708337850759
 30
0.0
 10
803.2632445905385
 20
112.1666109782502
 30
0.0
 10
798.5523010573727
 20
107.0253765244612
 30
0.0
 10
793.1171868717917
 20
102.7743913237181
 30
0.0
 10
787.0073509052334
 20
99.44025082744479
 30
0.0
 10
780.9797766401899
 20
97.36169439553733
 30
0.0
 10
775.2052582525484
 20
96.22380907945701
 30
0.0
 10
771.6688860577159
 20
96.10253611860473
 30
0.0
 10
769.8864827655117
 20
96.04141208731798
 30
0.0
  0
SPLINE
  5
8F
330
1F
100
AcDbEntity
  8
0
  6
Continuous
 62
     7
370
    25
100
AcDbSpline
210
0.0
220
0.0
230
1.0
 70
     8
 71
     3
 72
    24
 73
    20
 74
     0
 42
0.000000001
 43
0.00000001
 40
0.0
 40
0.0
 40
0.0
 40
0.0
 40
0.0518278665084633
 40
0.1040043714442244
 40
0.1572787302286955
 40
0.2109320171877063
 40
0.2627586285651954
 40
0.3681162227139002
 40
0.4217681871815648
 40
0.4735945051933547
 40
0.578951284001906
 40
0.6326026762650241
 40
0.6845933463618412
 40
0.7369358918508303
 40
0.7903867273767125
 40
0.8442201361856905
 40
0.8828091609731444
 40
0.9606775084373881
 40
1.0
 40
1.0
 40
1.0
 40
1.0
 10
529.8864827655118
 20
97.32799701715142
 30
0.0
 10
528.7828367717351
 20
97.35305308104635
 30
0.0
 10
526.5681207200736
 20
97.40333375728902
 30
0.0
 10
523.240945439665
 20
97.82588151522184
 30
0.0
 10
519.9207664602521
 20
98.51091135718052
 30
0.0
 10
516.6770383200037
 20
99.47599300481788
 30
0.0
 10
512.4917887856838
 20
101.1073990893425
 30
0.0
 10
508.5216994255413
 20
103.2535352928468
 30
0.0
 10
504.8673587184271
 20
105.8670027044869
 30
0.0
 10
501.4420128024516
 20
108.7735031341585
 30
0.0
 10
498.3880236047834
 20
112.0959706124402
 30
0.0
 10
495.7828177611301
 20
115.7599752633444
 30
0.0
 10
494.065959992889
 20
118.6564467171727
 30
0.0
 10
492.5943604739168
 20
121.6799238171018
 30
0.0
 10
491.3652211987755
 20
124.8519568771211
 30
0.0
 10
490.4892747850174
 20
127.8355131106457
 30
0.0
 10
489.7268701782556
 20
131.3803118014389
 30
0.0
 10
489.3081130180638
 20
134.682014211169
 30
0.0
 10
489.2669457024472
 20
137.176781851993
 30
0.0
 10
489.2531323239065
 20
138.0138820922643
 30
0.0
  0
LINE
  5
90
330
1F
100
AcDbEntity
  8
0
  6
Continuous
 62
     7
370
    25
100
AcDbLine
 10
529.8864827655
 20
88.0138820923
 30
0.0
 11
529.8864827655
 21
97.3279970172
 31
0.0
  0
SPLINE
  5
91
330
1F
100
AcDbEntity
  8
0
  6
Continuous
 62
     7
370
    25
100
AcDbSpline
210
0.0
220
0.0
230
1.0
 70
     8
 71
     3
 72
    15
 73
    11
 74
     0
 42
0.000000001
 43
0.00000001
 40
0.0
 40
0.0
 40
0.0
 40
0.0
 40
0.1246085174034709
 40
0.2492166884812777
 40
0.3739663765738586
 40
0.4987155256650119
 40
0.6239452198943903
 40
0.7491745551205462
 40
0.874587099487377
 40
1.0
 40
1.0
 40
1.0
 40
1.0
 10
769.8864827655117
 20
96.04141208731798
 30
0.0
 10
759.9538088007959
 20
96.1857844934911
 30
0.0
 10
740.0884884773418
 20
96.47452890458169
 30
0.0
 10
710.2215255541671
 20
96.83156918240046
 30
0.0
 10
680.3096310285881
 20
97.12365970092054
 30
0.0
 10
650.317194512499
 20
97.33925539396584
 30
0.0
 10
620.2651710631445
 20
97.47267165648165
 30
0.0
 10
590.1491099954371
 20
97.51743520671646
 30
0.0
 10
560.0167501645703
 20
97.47768911002747
 30
0.0
 10
539.9299147389303
 20
97.37789442867609
 30
0.0
 10
529.8864827655118
 20
97.32799701715142
 30
0.0
  0
SPLINE
  5
92
330
1F
100
AcDbEntity
  8
0
  6
Continuous
 62
     7
370
    25
100
AcDbSpline
210
0.0
220
0.0
230
1.0
 70
     8
 71
     3
 72
    15
 73
    11
 74
     0
 42
0.000000001
 43
0.00000001
 40
0.0
 40
0.0
 40
0.0
 40
0.0
 40
0.087273232589297
 40
0.2618848093150838
 40
0.4367171523827814
 40
0.5242242160503324
 40
0.6117707588651334
 40
0.6993297673674101
 40
0.849637149084737
 40
1.0
 40
1.0
 40
1.0
 40
1.0
 10
528.6546840584939
 20
128.7159108107624
 30
0.0
 10
535.7792463773969
 20
128.741605841435
 30
0.0
 10
557.1582487241961
 20
128.8187101036281
 30
0.0
 10
592.8310262999403
 20
128.8553761035012
 30
0.0
 10
628.5197577585088
 20
128.8023689296331
 30
0.0
 10
657.0821044084504
 20
128.6958664659521
 30
0.0
 10
678.5099793463892
 20
128.5828433110868
 30
0.0
 10
705.0449771441785
 20
128.3991980996956
 30
0.0
 10
736.6755025733091
 20
128.115841945159
 30
0.0
 10
761.1209036045252
 20
127.8163938491088
 30
0.0
 10
773.3458590270732
 20
127.6666421792178
 30
0.0
  0
LWPOLYLINE
  5
93
330
1F
100
AcDbEntity
  8
0
  6
Continuous
 62
     7
370
    25
100
AcDbPolyline
 90
       14
 70
   128
 43
0.0
 10
773.3458590271
 20
127.6666421792
 10
773.2447810139
 20
124.0866767566
 10
773.1078812044
 20
120.5771488953
 10
772.9366198611
 20
117.1754935052
 10
772.732823769
 20
113.9179948583
 10
772.49866675
 20
110.8393995565
 10
772.2366464752
 20
107.9725459026
 10
771.9495578238
 20
105.3480136246
 10
771.64046307
 20
102.9937976933
 10
771.31265922
 20
100.935009709
 10
770.9696428431
 20
99.1936100453
 10
770.6150727754
 20
97.7881736051
 10
770.252731092
 20
96.7336916888
 10
769.8864827655
 20
96.0414120873
  0
LWPOLYLINE
  5
94
330
1F
100
AcDbEntity
  8
0
  6
Continuous
 62
     7
370
    25
100
AcDbPolyline
 90
       14
 70
   128
 43
0.0
 10
528.6546840585
 20
128.7159108108
 10
528.6923722091
 20
125.1825571795
 10
528.7424817627
 20
121.7192931716
 10
528.8044914687
 20
118.362144428
 10
528.8777562883
 20
115.1460327551
 10
528.9615141046
 20
112.1044128603
 10
529.0548936503
 20
109.2689243489
 10
529.1569235704
 20
106.6690626016
 10
529.2665425273
 20
104.3318719575
 10
529.3826102401
 20
102.2816643923
 10
529.5039193467
 20
100.5397666202
 10
529.629207963
 20
99.1242982485
 10
529.7571728088
 20
98.0499832933
 10
529.8864827655
 20
97.3279970172
  0
SPLINE
  5
95
330
1F
100
AcDbEntity
  8
0
  6
Continuous
 62
     7
370
    25
100
AcDbSpline
210
0.0
220
0.0
230
1.0
 70
     8
 71
     3
 72
    17
 73
    13
 74
     0
 42
0.000000001
 43
0.00000001
 40
0.0
 40
0.0
 40
0.0
 40
0.0
 40
0.0974164087167789
 40
0.1948571322632229
 40
0.2951960374173904
 40
0.3955347127440414
 40
0.4959955966331063
 40
0.5964564747273169
 40
0.6972837410934071
 40
0.7981112370252682
 40
0.8990554901304063
 40
1.0
 40
1.0
 40
1.0
 40
1.0
 10
780.8260224384336
 20
135.1328448307878
 30
0.0
 10
780.7271308295987
 20
145.0419892554079
 30
0.0
 10
780.5293229288939
 20
164.8627513959753
 30
0.0
 10
780.3078592962112
 20
194.9334415663488
 30
0.0
 10
780.1452463147157
 20
225.3256963887981
 30
0.0
 10
780.0478688013235
 20
256.0456551882662
 30
0.0
 10
780.0138015847426
 20
286.7878894729155
 30
0.0
 10
780.0429043598316
 20
317.5803662257537
 30
0.0
 10
780.1355704154415
 20
348.4011417291672
 30
0.0
 10
780.2957434971415
 20
379.2518633350223
 30
0.0
 10
780.5194018966138
 20
410.0904432737201
 30
0.0
 10
780.7238155045015
 20
430.6267519542952
 30
0.0
 10
780.8260224384334
 20
440.8949193537397
 30
0.0
  0
LWPOLYLINE
  5
96
330
1F
100
AcDbEntity
  8
0
  6
Continuous
 62
     7
370
    25
100
AcDbPolyline
 90
       14
 70
   128
 43
0.0
 10
780.8260224384
 20
440.8949193537
 10
784.3537943861
 20
440.8068228993
 10
787.8074151648
 20
440.6896639642
 10
791.1509474619
 20
440.5446616681
 10
794.3495995113
 20
440.3733248601
 10
797.3700871263
 20
440.1774364183
 10
800.1809800441
 20
439.9590346974
 10
802.75302898
 20
439.7203923184
 10
805.0594699858
 20
439.4639925202
 10
807.0763029477
 20
439.1925033201
 10
808.7825413239
 20
438.9087497509
 10
810.160430524
 20
438.6156844649
 10
811.1956326579
 20
438.3163570089
 10
811.8773757315
 20
438.0138820923
  0
LWPOLYLINE
  5
97
330
1F
100
AcDbEntity
  8
0
  6
Continuous
 62
     7
370
    25
100
AcDbPolyline
 90
       14
 70
   128
 43
0.0
 10
780.8260224384
 20
135.1328448308
 10
784.3537943861
 20
135.2209412852
 10
787.8074151648
 20
135.3381002203
 10
791.1509474619
 20
135.4831025165
 10
794.3495995113
 20
135.6544393244
 10
797.3700871263
 20
135.8503277662
 10
800.1809800441
 20
136.0687294871
 10
802.75302898
 20
136.3073718661
 10
805.0594699858
 20
136.5637716643
 10
807.0763029477
 20
136.8352608645
 10
808.7825413239
 20
137.1190144336
 10
810.160430524
 20
137.4120797197
 10
811.1956326579
 20
137.7114071756
 10
811.8773757315
 20
138.0138820923
  0
LWPOLYLINE
  5
98
330
1F
100
AcDbEntity
  8
0
  6
Continuous
 62
     7
370
    25
100
AcDbPolyline
 90
       14
 70
   128
 43
0.0
 10
773.3458590271
 20
448.3611220053
 10
773.2447810139
 20
451.9410874279
 10
773.1078812044
 20
455.4506152892
 10
772.9366198611
 20
458.8522706793
 10
772.732823769
 20
462.1097693263
 10
772.49866675
 20
465.188364628
 10
772.2366464752
 20
468.055218282
 10
771.9495578238
 20
470.6797505599
 10
771.64046307
 20
473.0339664912
 10
771.31265922
 20
475.0927544755
 10
770.9696428431
 20
476.8341541392
 10
770.6150727754
 20
478.2395905795
 10
770.252731092
 20
479.2940724958
 10
769.8864827655
 20
479.9863520972
  0
SPLINE
  5
99
330
1F
100
AcDbEntity
  8
0
  6
Continuous
 62
     7
370
    25
100
AcDbSpline
210
0.0
220
0.0
230
1.0
 70
     8
 71
     3
 72
    13
 73
     9
 74
     0
 42
0.000000001
 43
0.00000001
 40
0.0
 40
0.0
 40
0.0
 40
0.0
 40
0.1504172842375689
 40
0.3008888018046014
 40
0.4754013148081864
 40
0.6500150902686916
 40
0.8249512319737834
 40
1.0
 40
1.0
 40
1.0
 40
1.0
 10
773.3458590270727
 20
448.36112200531
 30
0.0
 10
761.1165103481105
 20
448.2113470805492
 30
0.0
 10
736.6534036678177
 20
447.9117432293027
 30
0.0
 10
697.9215129583928
 20
447.5644417286856
 30
0.0
 10
657.1676648582088
 20
447.3147461267477
 30
0.0
 10
614.3758904088214
 20
447.1910810764109
 30
0.0
 10
571.5219171590081
 20
447.1753616430491
 30
0.0
 10
542.9468269453798
 20
447.2663463704627
 30
0.0
 10
528.6546840584942
 20
447.3118533737651
 30
0.0
  0
LWPOLYLINE
  5
9A
330
1F
100
AcDbEntity
  8
0
  6
Continuous
 62
     7
370
    25
100
AcDbPolyline
 90
       14
 70
   128
 43
0.0
 10
529.8864827655
 20
478.6997671674
 10
529.7571728088
 20
477.9777808913
 10
529.629207963
 20
476.903465936
 10
529.5039193467
 20
475.4879975643
 10
529.3826102401
 20
473.7460997922
 10
529.2665425273
 20
471.695892227
 10
529.1569235704
 20
469.3587015829
 10
529.0548936503
 20
466.7588398356
 10
528.9615141046
 20
463.9233513242
 10
528.8777562883
 20
460.8817314294
 10
528.8044914687
 20
457.6656197565
 10
528.7424817627
 20
454.3084710129
 10
528.6923722091
 20
450.8452070051
 10
528.6546840585
 20
447.3118533738
  0
SPLINE
  5
9B
330
1F
100
AcDbEntity
  8
0
  6
Continuous
 62
     7
370
    25
100
AcDbSpline
210
0.0
220
0.0
230
1.0
 70
     8
 71
     3
 72
    12
 73
     8
 74
     0
 42
0.000000001
 43
0.00000001
 40
0.0
 40
0.0
 40
0.0
 40
0.0
 40
0.1587461308200714
 40
0.3679239806406044
 40
0.577901697923139
 40
0.7890640455991967
 40
1.0
 40
1.0
 40
1.0
 40
1.0
 10
780.8260224384334
 20
440.8949193537397
 30
0.0
 10
780.7863366670069
 20
441.5161832085874
 30
0.0
 10
780.6943574362535
 20
442.9560789044563
 30
0.0
 10
779.7416914181834
 20
445.0754105191079
 30
0.0
 10
778.0515432945411
 20
446.9135108852352
 30
0.0
 10
775.8270766653081
 20
448.1504426350538
 30
0.0
 10
774.172635785584
 20
448.2909206637825
 30
0.0
 10
773.3458590270727
 20
448.36112200531
 30
0.0
  0
SPLINE
  5
9C
330
1F
100
AcDbEntity
  8
0
  6
Continuous
 62
     7
370
    25
100
AcDbSpline
210
0.0
220
0.0
230
1.0
 70
     8
 71
     3
 72
    12
 73
     8
 74
     0
 42
0.000000001
 43
0.00000001
 40
0.0
 40
0.0
 40
0.0
 40
0.0
 40
0.1608732025308433
 40
0.3700371694335048
 40
0.5794635894917229
 40
0.7898172603100679
 40
1.0
 40
1.0
 40
1.0
 40
1.0
 10
773.3458590270732
 20
127.6666421792178
 30
0.0
 10
773.9746360853212
 20
127.7059003571772
 30
0.0
 10
775.4209358989543
 20
127.7962011954815
 30
0.0
 10
777.5428076046384
 20
128.7526436091272
 30
0.0
 10
779.3757419371917
 20
130.4395180051725
 30
0.0
 10
780.6107398993114
 20
132.6574110078286
 30
0.0
 10
780.7542810399586
 20
134.3079238454853
 30
0.0
 10
780.8260224384336
 20
135.1328448307878
 30
0.0
  0
LWPOLYLINE
  5
9D
330
1F
100
AcDbEntity
  8
0
  6
Continuous
 62
     7
370
    25
100
AcDbPolyline
 90
       14
 70
   128
 43
0.0
 10
490.4433707716
 20
267.1751377884
 10
491.2227270698
 20
267.1153921445
 10
492.3703103972
 20
267.0562981817
 10
493.8736033822
 20
266.998500473
 10
495.7162087166
 20
266.9426294523
 10
497.8780280116
 20
266.8892945378
 10
500.3354810222
 20
266.8390774851
 10
503.0617628513
 20
266.7925260415
 10
506.0271363264
 20
266.750147971
 10
509.1992563607
 20
266.7124055165
 10
512.54352276
 20
266.6797103573
 10
516.0234576277
 20
266.6524191188
 10
519.6011032508
 20
266.6308294827
 10
523.2374361271
 20
266.6151769402
  0
SPLINE
  5
9E
330
1F
100
AcDbEntity
  8
0
  6
Continuous
 62
     7
370
    25
100
AcDbSpline
210
0.0
220
0.0
230
1.0
 70
     8
 71
     3
 72
    11
 73
     7
 74
     0
 42
0.000000001
 43
0.00000001
 40
0.0
 40
0.0
 40
0.0
 40
0.0
 40
0.2497680886335302
 40
0.4996446970922945
 40
0.7497870875584671
 40
1.0
 40
1.0
 40
1.0
 40
1.0
 10
523.2374361270638
 20
266.6151769401758
 30
0.0
 10
523.2393239000761
 20
255.6341247733902
 30
0.0
 10
523.2431002663052
 20
233.6672493665064
 30
0.0
 10
523.1094153569791
 20
200.7329156114804
 30
0.0
 10
522.8586496301766
 20
167.8078402239371
 30
0.0
 10
522.6073066281067
 20
145.8843610496382
 30
0.0
 10
522.4816174144535
 20
134.9210764733089
 30
0.0
  0
LWPOLYLINE
  5
9F
330
1F
100
AcDbEntity
  8
0
  6
Continuous
 62
     7
370
    25
100
AcDbPolyline
 90
       14
 70
   128
 43
0.0
 10
489.2531323239
 20
138.0138820923
 10
490.0108881704
 20
137.6802497019
 10
491.1491535972
 20
137.3503696355
 10
492.6551266683
 20
137.0279520147
 10
494.5118698835
 20
136.7166230324
 10
496.6985006728
 20
136.4198841685
 10
499.1904262593
 20
136.1410728098
 10
501.9596202524
 20
135.8833247145
 10
504.9749378561
 20
135.6495387448
 10
508.202466152
 20
135.4423442637
 10
511.6059055128
 20
135.2640715629
 10
515.1469778606
 20
135.1167256543
 10
518.7858571755
 20
135.0019637199
 10
522.4816174145
 20
134.9210764733
  0
LWPOLYLINE
  5
A0
330
1F
100
AcDbEntity
  8
0
  6
Continuous
 62
     7
370
    25
100
AcDbPolyline
 90
       14
 70
   128
 43
0.0
 10
489.2531323239
 20
438.0138820923
 10
490.0108881704
 20
438.3475144826
 10
491.1491535972
 20
438.6773945491
 10
492.6551266683
 20
438.9998121698
 10
494.5118698835
 20
439.3111411521
 10
496.6985006728
 20
439.607880016
 10
499.1904262593
 20
439.8866913747
 10
501.9596202524
 20
440.14443947
 10
504.9749378561
 20
440.3782254397
 10
508.202466152
 20
440.5854199208
 10
511.6059055128
 20
440.7636926216
 10
515.1469778606
 20
440.9110385302
 10
518.7858571755
 20
441.0258004647
 10
522.4816174145
 20
441.1066877112
  0
SPLINE
  5
A1
330
1F
100
AcDbEntity
  8
0
  6
Continuous
 62
     7
370
    25
100
AcDbSpline
210
0.0
220
0.0
230
1.0
 70
     8
 71
     3
 72
    11
 73
     7
 74
     0
 42
0.000000001
 43
0.00000001
 40
0.0
 40
0.0
 40
0.0
 40
0.0
 40
0.2498070594180491
 40
0.4996818527105468
 40
0.7497915781304345
 40
1.0
 40
1.0
 40
1.0
 40
1.0
 10
522.4816174144531
 20
441.1066877112193
 30
0.0
 10
522.607115584256
 20
430.161193534005
 30
0.0
 10
522.8581459520324
 20
408.2672373662161
 30
0.0
 10
523.1090087413385
 20
375.3615732916104
 30
0.0
 10
523.2430797591077
 20
342.4094772328795
 30
0.0
 10
523.2393175851319
 20
320.412996969872
 30
0.0
 10
523.237436127067
 20
309.4125872443617
 30
0.0
  0
LWPOLYLINE
  5
A2
330
1F
100
AcDbEntity
  8
0
  6
Continuous
 62
     7
370
    25
100
AcDbPolyline
 90
       14
 70
   128
 43
0.0
 10
490.4433707716
 20
308.8526263961
 10
491.2227270698
 20
308.91237204
 10
492.3703103972
 20
308.9714660028
 10
493.8736033822
 20
309.0292637115
 10
495.7162087166
 20
309.0851347323
 10
497.8780280116
 20
309.1384696468
 10
500.3354810222
 20
309.1886866994
 10
503.0617628513
 20
309.2352381431
 10
506.0271363264
 20
309.2776162135
 10
509.1992563607
 20
309.315358668
 10
512.54352276
 20
309.3480538273
 10
516.0234576277
 20
309.3753450658
 10
519.6011032508
 20
309.3969347018
 10
523.2374361271
 20
309.4125872444
  0
SPLINE
  5
A3
330
1F
100
AcDbEntity
  8
0
  6
Continuous
 62
     7
370
    25
100
AcDbSpline
210
0.0
220
0.0
230
1.0
 70
     8
 71
     3
 72
    12
 73
     8
 74
     0
 42
0.000000001
 43
0.00000001
 40
0.0
 40
0.0
 40
0.0
 40
0.0
 40
0.1510982574714491
 40
0.3625908980513419
 40
0.5748092513143227
 40
0.7875647343591627
 40
1.0
 40
1.0
 40
1.0
 40
1.0
 10
528.6546840584942
 20
447.3118533737651
 30
0.0
 10
528.164754682918
 20
447.2792033450446
 30
0.0
 10
526.9890698322474
 20
447.2008529826161
 30
0.0
 10
525.2395808534727
 20
446.4283484493471
 30
0.0
 10
523.698399819947
 20
445.0249259559108
 30
0.0
 10
522.6603235546852
 20
443.1749008020456
 30
0.0
 10
522.5411562123046
 20
441.7957458542055
 30
0.0
 10
522.4816174144531
 20
441.1066877112193
 30
0.0
  0
SPLINE
  5
A4
330
1F
100
AcDbEntity
  8
0
  6
Continuous
 62
     7
370
    25
100
AcDbSpline
210
0.0
220
0.0
230
1.0
 70
     8
 71
     3
 72
    17
 73
    13
 74
     0
 42
0.000000001
 43
0.00000001
 40
0.0
 40
0.0
 40
0.0
 40
0.0
 40
0.0770048981299179
 40
0.1551914348376024
 40
0.2593283681206968
 40
0.3664571855421133
 40
0.47048658488061
 40
0.5775014893323179
 40
0.6816358585091358
 40
0.7887675490897956
 40
0.8928859218629491
 40
1.0
 40
1.0
 40
1.0
 40
1.0
 10
522.4816174144535
 20
134.9210764733089
 30
0.0
 10
522.4874388909764
 20
134.6716696585795
 30
0.0
 10
522.4991711744595
 20
134.1690288866793
 30
0.0
 10
522.6494189634426
 20
133.3398561956386
 30
0.0
 10
522.9416981573773
 20
132.4449110457862
 30
0.0
 10
523.4217705800157
 20
131.5365766991586
 30
0.0
 10
524.0518342108719
 20
130.7131324552853
 30
0.0
 10
524.8040558555037
 20
130.0123966338898
 30
0.0
 10
525.6709341028474
 20
129.4402336436178
 30
0.0
 10
526.6127642601925
 20
129.0273747959241
 30
0.0
 10
527.6196949187618
 20
128.7624572268277
 30
0.0
 10
528.3064411927211
 20
128.7315722865208
 30
0.0
 10
528.6546840584939
 20
128.7159108107624
 30
0.0
  0
ARC
  5
A5
330
1F
100
AcDbEntity
  8
0
  6
Continuous
 62
     7
370
    25
100
AcDbCircle
 10
589.8864827655
 20
288.0138820923
 30
0.0
 40
70.00000000000021
100
AcDbArc
 50
197.8000290607
 51
162.1999709393
  0
LINE
  5
A6
330
1F
100
AcDbEntity
  8
0
  6
Continuous
 62
     7
370
    25
100
AcDbLine
 10
523.2374361271
 20
309.4125872444
 30
0.0
 11
523.1792904654
 21
290.9380790049
 31
0.0
  0
LINE
  5
A7
330
1F
100
AcDbEntity
  8
0
  6
Continuous
 62
     7
370
    25
100
AcDbLine
 10
523.1792904654
 20
285.0896851796
 30
0.0
 11
523.1792904654
 21
290.9380790049
 31
0.0
  0
LINE
  5
A8
330
1F
100
AcDbEntity
  8
0
  6
Continuous
 62
     7
370
    25
100
AcDbLine
 10
523.1792904654
 20
285.0896851796
 30
0.0
 11
523.2374361271
 21
266.6151769402
 31
0.0
  0
ARC
  5
A9
330
1F
100
AcDbEntity
  8
0
  6
Continuous
 62
     7
370
    25
100
AcDbCircle
 10
589.8864827655
 20
288.0138820923
 30
0.0
 40
66.7712545348254
100
AcDbArc
 50
182.5100283872
 51
177.4899716128
  0
LINE
  5
AA
330
1F
100
AcDbEntity
  8
0
  6
Continuous
 62
     7
370
    25
100
AcDbLine
 10
523.7981454147
 20
290.9109506898
 30
0.0
 11
523.7981454147
 21
285.1168134947
 31
0.0
  0
LINE
  5
AB
330
1F
100
AcDbEntity
  8
0
  6
Continuous
 62
     7
370
    25
100
AcDbLine
 10
523.1792904654
 20
285.0896851796
 30
0.0
 11
523.7981454147
 21
285.1168134947
 31
0.0
  0
LINE
  5
AC
330
1F
100
AcDbEntity
  8
0
  6
Continuous
 62
     7
370
    25
100
AcDbLine
 10
523.7981454147
 20
290.9109506898
 30
0.0
 11
523.1792904654
 21
290.9380790049
 31
0.0
  0
CIRCLE
  5
AD
330
1F
100
AcDbEntity
  8
0
  6
Continuous
 62
     7
370
    25
100
AcDbCircle
 10
589.8864827655
 20
288.0138820923
 30
0.0
 40
58.61177143234636
  0
ARC
  5
AE
330
1F
100
AcDbEntity
  8
0
  6
Continuous
 62
     7
370
    25
100
AcDbCircle
 10
589.8864827655
 20
288.0138820923
 30
0.0
 40
66.15180526824585
100
AcDbArc
 50
182.5100283872
 51
177.4899716128
  0
CIRCLE
  5
AF
330
1F
100
AcDbEntity
  8
0
  6
Continuous
 62
     7
370
    25
100
AcDbCircle
 10
589.8864827655
 20
288.0138820923
 30
0.0
 40
57.50000000000023
  0
CIRCLE
  5
B0
330
1F
100
AcDbEntity
  8
0
  6
Continuous
 62
     7
370
    25
100
AcDbCircle
 10
589.8864827655
 20
288.0138820923
 30
0.0
 40
56.58715574274777
  0
CIRCLE
  5
B1
330
1F
100
AcDbEntity
  8
0
  6
Continuous
 62
     7
370
    25
100
AcDbCircle
 10
589.8864827655
 20
288.0138820923
 30
0.0
 40
45.0
  0
LINE
  5
B2
330
1F
100
AcDbEntity
  8
0
  6
Continuous
 62
     7
370
    25
100
AcDbLine
 10
389.9464827655
 20
488.0138820923
 30
0.0
 11
149.9464827655
 21
488.0138820923
 31
0.0
  0
LINE
  5
B3
330
1F
100
AcDbEntity
  8
0
  6
Continuous
 62
     7
370
    25
100
AcDbLine
 10
99.9464827655
 20
438.0138820923
 30
0.0
 11
99.9464827655
 21
138.0138820923
 31
0.0
  0
LINE
  5
B4
330
1F
100
AcDbEntity
  8
0
  6
Continuous
 62
     7
370
    25
100
AcDbLine
 10
439.9464827655
 20
138.0138820923
 30
0.0
 11
439.9464827655
 21
438.0138820923
 31
0.0
  0
ARC
  5
B5
330
1F
100
AcDbEntity
  8
0
  6
Continuous
 62
     7
370
    25
100
AcDbCircle
 10
389.9464827655
 20
138.0138820923
 30
0.0
 40
51.50000000000004
100
AcDbArc
 50
270.0
 51
0.0
  0
LINE
  5
B6
330
1F
100
AcDbEntity
  8
0
  6
Continuous
 62
     7
370
    25
100
AcDbLine
 10
389.9464827655
 20
86.5138820923
 30
0.0
 11
149.9464827655
 21
86.5138820923
 31
0.0
  0
LINE
  5
B7
330
1F
100
AcDbEntity
  8
0
  6
Continuous
 62
     7
370
    25
100
AcDbLine
 10
149.9464827655
 20
86.5138820923
 30
0.0
 11
149.9464827655
 21
88.0138820923
 31
0.0
  0
LINE
  5
B8
330
1F
100
AcDbEntity
  8
0
  6
Continuous
 62
     7
370
    25
100
AcDbLine
 10
149.9464827655
 20
88.0138820923
 30
0.0
 11
389.9464827655
 21
88.0138820923
 31
0.0
  0
LINE
  5
B9
330
1F
100
AcDbEntity
  8
0
  6
Continuous
 62
     7
370
    25
100
AcDbLine
 10
389.9464827655
 20
86.5138820923
 30
0.0
 11
389.9464827655
 21
88.0138820923
 31
0.0
  0
ARC
  5
BA
330
1F
100
AcDbEntity
  8
0
  6
Continuous
 62
     7
370
    25
100
AcDbCircle
 10
389.9464827655
 20
438.0138820923
 30
0.0
 40
50.00000000000006
100
AcDbArc
 50
0.0
 51
90.0
  0
ARC
  5
BB
330
1F
100
AcDbEntity
  8
0
  6
Continuous
 62
     7
370
    25
100
AcDbCircle
 10
389.9464827655
 20
138.0138820923
 30
0.0
 40
50.00000000000006
100
AcDbArc
 50
270.0
 51
0.0
  0
ARC
  5
BC
330
1F
100
AcDbEntity
  8
0
  6
Continuous
 62
     7
370
    25
100
AcDbCircle
 10
149.9464827655
 20
138.0138820923
 30
0.0
 40
49.99999999999999
100
AcDbArc
 50
180.0
 51
270.0
  0
ARC
  5
BD
330
1F
100
AcDbEntity
  8
0
  6
Continuous
 62
     7
370
    25
100
AcDbCircle
 10
149.9464827655
 20
438.0138820923
 30
0.0
 40
49.99999999999994
100
AcDbArc
 50
90.0
 51
180.0
  0
LINE
  5
BE
330
1F
100
AcDbEntity
  8
0
  6
Continuous
 62
     7
370
    25
100
AcDbLine
 10
389.9464827655
 20
88.0138820923
 30
0.0
 11
389.9464827655
 21
97.3279970172
 31
0.0
  0
SPLINE
  5
BF
330
1F
100
AcDbEntity
  8
0
  6
Continuous
 62
     7
370
    25
100
AcDbSpline
210
0.0
220
0.0
230
1.0
 70
     8
 71
     3
 72
    24
 73
    20
 74
     0
 42
0.000000001
 43
0.00000001
 40
0.0
 40
0.0
 40
0.0
 40
0.0
 40
0.0523983554833583
 40
0.1051568799949674
 40
0.1590508270545358
 40
0.2133369912738447
 40
0.2656593035168861
 40
0.3183402926828023
 40
0.372151855690659
 40
0.4263539256473523
 40
0.4784511443631866
 40
0.584377329628589
 40
0.6383296164403036
 40
0.6902182837528207
 40
0.7957062867320639
 40
0.8494271453136358
 40
0.8867487440387217
 40
0.9620158639234363
 40
1.0
 40
1.0
 40
1.0
 40
1.0
 10
430.5798332071169
 20
138.0138820922641
 30
0.0
 10
430.5556433290914
 20
136.8981387595964
 30
0.0
 10
430.5070972997903
 20
134.658982842274
 30
0.0
 10
430.0794427504899
 20
131.2945235119693
 30
0.0
 10
429.3832046588105
 20
127.9368695381075
 30
0.0
 10
428.4011904464362
 20
124.6597024592229
 30
0.0
 10
427.159149149644
 20
121.5005844268479
 30
0.0
 10
425.6646896906492
 20
118.4637069535841
 30
0.0
 10
423.9007779387426
 20
115.5280772597125
 30
0.0
 10
421.9009635985174
 20
112.7625522885434
 30
0.0
 10
418.9549620294624
 20
109.3324062151736
 30
0.0
 10
415.5941347078168
 20
106.2837353518288
 30
0.0
 10
411.8973420325628
 20
103.6958214388326
 30
0.0
 10
408.0069280261193
 20
101.4284420315342
 30
0.0
 10
403.8516653420899
 20
99.65397667141058
 30
0.0
 10
399.8247700619833
 20
98.50258552753577
 30
0.0
 10
396.3581550672524
 20
97.77819223670808
 30
0.0
 10
393.1661787791105
 20
97.3832232012157
 30
0.0
 10
390.7551385296007
 20
97.34186757259656
 30
0.0
 10
389.9464827655113
 20
97.32799701715174
 30
0.0
  0
LINE
  5
C0
330
1F
100
AcDbEntity
  8
0
  6
Continuous
 62
     7
370
    25
100
AcDbLine
 10
439.9464827655
 20
138.0138820923
 30
0.0
 11
430.5798332071
 21
138.0138820923
 31
0.0
  0
LINE
  5
C1
330
1F
100
AcDbEntity
  8
0
  6
Continuous
 62
     7
370
    25
100
AcDbLine
 10
99.9464827655
 20
438.0138820923
 30
0.0
 11
107.9555897995
 21
438.0138820923
 31
0.0
  0
SPLINE
  5
C2
330
1F
100
AcDbEntity
  8
0
  6
Continuous
 62
     7
370
    25
100
AcDbSpline
210
0.0
220
0.0
230
1.0
 70
     8
 71
     3
 72
    15
 73
    11
 74
     0
 42
0.000000001
 43
0.00000001
 40
0.0
 40
0.0
 40
0.0
 40
0.0
 40
0.1338067183964184
 40
0.2676302517871854
 40
0.4014336098445921
 40
0.535940385944852
 40
0.6704685020422687
 40
0.8049770874156125
 40
0.9024749818287723
 40
1.0
 40
1.0
 40
1.0
 40
1.0
 10
107.9555897995474
 20
138.0138820922644
 30
0.0
 10
108.112584220328
 20
151.3675545429332
 30
0.0
 10
108.4265927907963
 20
178.0765775507926
 30
0.0
 10
108.7431653067244
 20
218.2216571449064
 30
0.0
 10
108.9308458516267
 20
258.4725735824997
 30
0.0
 10
108.9634227855861
 20
298.8141799413685
 30
0.0
 10
108.8477106469173
 20
339.219258267536
 30
0.0
 10
108.6100898852624
 20
375.8896195081853
 30
0.0
 10
108.305417467356
 20
408.8229012270891
 30
0.0
 10
108.0722098336447
 20
428.2826529840661
 30
0.0
 10
107.9555897995474
 20
438.0138820922642
 30
0.0
  0
LINE
  5
C3
330
1F
100
AcDbEntity
  8
0
  6
Continuous
 62
     7
370
    25
100
AcDbLine
 10
99.9464827655
 20
138.0138820923
 30
0.0
 11
107.9555897995
 21
138.0138820923
 31
0.0
  0
LINE
  5
C4
330
1F
100
AcDbEntity
  8
0
  6
Continuous
 62
     7
370
    25
100
AcDbLine
 10
439.9464827655
 20
438.0138820923
 30
0.0
 11
430.5798332071
 21
438.0138820923
 31
0.0
  0
SPLINE
  5
C5
330
1F
100
AcDbEntity
  8
0
  6
Continuous
 62
     7
370
    25
100
AcDbSpline
210
0.0
220
0.0
230
1.0
 70
     8
 71
     3
 72
    17
 73
    13
 74
     0
 42
0.000000001
 43
0.00000001
 40
0.0
 40
0.0
 40
0.0
 40
0.0
 40
0.1039779861448104
 40
0.2108733928885864
 40
0.3148488686723703
 40
0.4217416688463786
 40
0.5257165288746994
 40
0.632608277673573
 40
0.7369144933992321
 40
0.8441657984698606
 40
0.9214963024514673
 40
1.0
 40
1.0
 40
1.0
 40
1.0
 10
389.9464827655117
 20
478.6997671673765
 30
0.0
 10
392.1612007186641
 20
478.5966482989299
 30
0.0
 10
396.6527773147148
 20
478.3875172466139
 30
0.0
 10
403.1794398153889
 20
476.6789618838687
 30
0.0
 10
409.3994558386507
 20
473.9710791234704
 30
0.0
 10
415.0336628407488
 20
470.2845472786119
 30
0.0
 10
420.0264989282513
 20
465.6831727275049
 30
0.0
 10
424.1567378678949
 20
460.3604315367588
 30
0.0
 10
427.3864146338955
 20
454.3689222106734
 30
0.0
 10
429.3590669758975
 20
448.5199980246749
 30
0.0
 10
430.4122944865235
 20
443.0029168947086
 30
0.0
 10
430.5237073772753
 20
439.6852194249361
 30
0.0
 10
430.5798332071169
 20
438.0138820922634
 30
0.0
  0
LINE
  5
C6
330
1F
100
AcDbEntity
  8
0
  6
Continuous
 62
     7
370
    25
100
AcDbLine
 10
389.9464827655
 20
488.0138820923
 30
0.0
 11
389.9464827655
 21
478.6997671674
 31
0.0
  0
LINE
  5
C7
330
1F
100
AcDbEntity
  8
0
  6
Continuous
 62
     7
370
    25
100
AcDbLine
 10
149.9464827655
 20
488.0138820923
 30
0.0
 11
149.9464827655
 21
479.9863520972
 31
0.0
  0
SPLINE
  5
C8
330
1F
100
AcDbEntity
  8
0
  6
Continuous
 62
     7
370
    25
100
AcDbSpline
210
0.0
220
0.0
230
1.0
 70
     8
 71
     3
 72
    17
 73
    13
 74
     0
 42
0.000000001
 43
0.00000001
 40
0.0
 40
0.0
 40
0.0
 40
0.0
 40
0.1036840528330376
 40
0.2102667622276601
 40
0.3139762931752494
 40
0.4205880655841453
 40
0.5238453999280962
 40
0.6299661672500465
 40
0.7331400226786792
 40
0.8391691684324375
 40
0.9189379997691305
 40
1.0
 40
1.0
 40
1.0
 40
1.0
 10
107.9555897995474
 20
438.0138820922642
 30
0.0
 10
108.0585458987436
 20
440.2946976966892
 30
0.0
 10
108.267336402568
 20
444.9200928204025
 30
0.0
 10
110.0148500132751
 20
451.6447900192022
 30
0.0
 10
112.7908166521648
 20
458.056930399452
 30
0.0
 10
116.5697209404858
 20
463.8611532062776
 30
0.0
 10
121.280664473651
 20
469.0023876600669
 30
0.0
 10
126.7157786592322
 20
473.25337286081
 30
0.0
 10
132.8256146257909
 20
476.5875133570828
 30
0.0
 10
138.8531888908341
 20
478.6660697889906
 30
0.0
 10
144.6277072784756
 20
479.8039551050709
 30
0.0
 10
148.1640794733082
 20
479.9252280659232
 30
0.0
 10
149.9464827655124
 20
479.98635209721
 30
0.0
  0
SPLINE
  5
C9
330
1F
100
AcDbEntity
  8
0
  6
Continuous
 62
     7
370
    25
100
AcDbSpline
210
0.0
220
0.0
230
1.0
 70
     8
 71
     3
 72
    15
 73
    11
 74
     0
 42
0.000000001
 43
0.00000001
 40
0.0
 40
0.0
 40
0.0
 40
0.0
 40
0.124608517403471
 40
0.2492166884812778
 40
0.3739663765738589
 40
0.498715525665012
 40
0.6239452198943903
 40
0.7491745551205462
 40
0.874587099487377
 40
1.0
 40
1.0
 40
1.0
 40
1.0
 10
149.9464827655124
 20
479.98635209721
 30
0.0
 10
159.8791567302281
 20
479.8419796910368
 30
0.0
 10
179.7444770536822
 20
479.5532352799461
 30
0.0
 10
209.6114399768569
 20
479.1961950021274
 30
0.0
 10
239.5233345024358
 20
478.9041044836072
 30
0.0
 10
269.5157710185247
 20
478.6885087905619
 30
0.0
 10
299.5677944678792
 20
478.5550925280462
 30
0.0
 10
329.6838555355864
 20
478.5103289778116
 30
0.0
 10
359.8162153664532
 20
478.5500750745004
 30
0.0
 10
379.9030507920932
 20
478.6498697558518
 30
0.0
 10
389.9464827655117
 20
478.6997671673765
 30
0.0
  0
LINE
  5
CA
330
1F
100
AcDbEntity
  8
0
  6
Continuous
 62
     7
370
    25
100
AcDbLine
 10
149.9464827655
 20
88.0138820923
 30
0.0
 11
149.9464827655
 21
96.0414120873
 31
0.0
  0
SPLINE
  5
CB
330
1F
100
AcDbEntity
  8
0
  6
Continuous
 62
     7
370
    25
100
AcDbSpline
210
0.0
220
0.0
230
1.0
 70
     8
 71
     3
 72
    15
 73
    11
 74
     0
 42
0.000000001
 43
0.00000001
 40
0.0
 40
0.0
 40
0.0
 40
0.0
 40
0.0871668700450685
 40
0.2615729476349667
 40
0.4362245538858703
 40
0.5236513435732647
 40
0.6111217165014425
 40
0.6986057463706208
 40
0.849272557569597
 40
1.0
 40
1.0
 40
1.0
 40
1.0
 10
389.9464827655112
 20
97.32799701715173
 30
0.0
 10
382.9664077189683
 20
97.36424944417577
 30
0.0
 10
362.0203899980896
 20
97.47303681018643
 30
0.0
 10
327.065499069719
 20
97.53072515877325
 30
0.0
 10
292.0932164013926
 20
97.44948241526971
 30
0.0
 10
264.1030461316745
 20
97.29928858238704
 30
0.0
 10
243.1037575344549
 20
97.1470250793996
 30
0.0
 10
217.0616111511349
 20
96.91037163633156
 30
0.0
 10
185.9892286008947
 20
96.56134269547564
 30
0.0
 10
161.9623425335378
 20
96.21474553159182
 30
0.0
 10
149.946482765512
 20
96.04141208731828
 30
0.0
  0
SPLINE
  5
CC
330
1F
100
AcDbEntity
  8
0
  6
Continuous
 62
     7
370
    25
100
AcDbSpline
210
0.0
220
0.0
230
1.0
 70
     8
 71
     3
 72
    17
 73
    13
 74
     0
 42
0.000000001
 43
0.00000001
 40
0.0
 40
0.0
 40
0.0
 40
0.0
 40
0.1074260594320193
 40
0.2148526997280484
 40
0.3222642737223152
 40
0.4296539555188763
 40
0.5370276521416723
 40
0.6443945231825019
 40
0.75176454885374
 40
0.8591473788841278
 40
0.9665505465172817
 40
1.0
 40
1.0
 40
1.0
 40
1.0
 10
439.7439571301162
 20
284.913882092264
 30
0.0
 10
439.751666696115
 20
284.9481656732548
 30
0.0
 10
439.767085869799
 20
285.0167330206113
 30
0.0
 10
439.7860701664937
 20
285.5512763552017
 30
0.0
 10
439.7998340748545
 20
286.3384742445548
 30
0.0
 10
439.8073925165525
 20
287.3210967686354
 30
0.0
 10
439.8084223877781
 20
288.3803807065982
 30
0.0
 10
439.8028667767028
 20
289.3969636116704
 30
0.0
 10
439.7910037705424
 20
290.2642009097823
 30
0.0
 10
439.7734128167536
 20
290.8529176833292
 30
0.0
 10
439.756740671605
 20
291.1317320156913
 30
0.0
 10
439.7463369025401
 20
291.0868349980893
 30
0.0
 10
439.7438662322278
 20
291.0761729266994
 30
0.0
  0
LINE
  5
CD
330
1F
100
AcDbEntity
  8
0
  6
Continuous
 62
     7
370
    25
100
AcDbLine
 10
439.8900745268
 20
275.5138820923
 30
0.0
 11
439.5074560502
 21
275.5138820923
 31
0.0
  0
SPLINE
  5
CE
330
1F
100
AcDbEntity
  8
0
  6
Continuous
 62
     7
370
    25
100
AcDbSpline
210
0.0
220
0.0
230
1.0
 70
     8
 71
     3
 72
    17
 73
    13
 74
     0
 42
0.000000001
 43
0.00000001
 40
0.0
 40
0.0
 40
0.0
 40
0.0
 40
0.0740640077495179
 40
0.1814969431858083
 40
0.2889118247579375
 40
0.3962740608575919
 40
0.5035723786411952
 40
0.6108274724882844
 40
0.718082801100432
 40
0.8253816495165326
 40
0.9327443748459522
 40
0.9999999999999999
 40
0.9999999999999999
 40
0.9999999999999999
 40
0.9999999999999999
 10
439.5074560502264
 20
275.5138820922641
 30
0.0
 10
439.5023027710827
 20
275.5032393422832
 30
0.0
 10
439.4896744453898
 20
275.4771588391171
 30
0.0
 10
439.470321142112
 20
275.2280879311615
 30
0.0
 10
439.4526605545306
 20
274.7699945382075
 30
0.0
 10
439.4411344720355
 20
274.1667664635626
 30
0.0
 10
439.4373031954296
 20
273.4910424713458
 30
0.0
 10
439.4416723776835
 20
272.8181186587941
 30
0.0
 10
439.4536495807449
 20
272.2228200958301
 30
0.0
 10
439.4716169088516
 20
271.7761632586115
 30
0.0
 10
439.4906421976179
 20
271.5455767900069
 30
0.0
 10
439.5027807801175
 20
271.522695139245
 30
0.0
 10
439.5074560502264
 20
271.5138820922641
 30
0.0
  0
LINE
  5
CF
330
1F
100
AcDbEntity
  8
0
  6
Continuous
 62
     7
370
    25
100
AcDbLine
 10
439.5074560502
 20
271.5138820923
 30
0.0
 11
439.8900745268
 21
271.5138820923
 31
0.0
  0
SPLINE
  5
D0
330
1F
100
AcDbEntity
  8
0
  6
Continuous
 62
     7
370
    25
100
AcDbSpline
210
0.0
220
0.0
230
1.0
 70
     8
 71
     3
 72
    17
 73
    13
 74
     0
 42
0.000000001
 43
0.00000001
 40
0.0
 40
0.0
 40
0.0
 40
0.0
 40
0.1073802933874054
 40
0.2147607566167828
 40
0.3221368944420741
 40
0.4295072075045165
 40
0.5368735323287529
 40
0.6442382235266143
 40
0.7516036621099041
 40
0.8589722343022376
 40
0.9663460823138679
 40
0.9999999999999999
 40
0.9999999999999999
 40
0.9999999999999999
 40
0.9999999999999999
 10
439.8900745268309
 20
271.5138820922641
 30
0.0
 10
439.8926885684612
 20
271.5359962398487
 30
0.0
 10
439.8979166558561
 20
271.5802245699956
 30
0.0
 10
439.9042354170443
 20
271.9250150121314
 30
0.0
 10
439.9087617595134
 20
272.4327644026476
 30
0.0
 10
439.911221303077
 20
273.0667177650769
 30
0.0
 10
439.911555442032
 20
273.7499430076629
 30
0.0
 10
439.9097534910671
 20
274.4067036892268
 30
0.0
 10
439.9058625726059
 20
274.9632879995174
 30
0.0
 10
439.9000472016209
 20
275.3544077753329
 30
0.0
 10
439.8943694695451
 20
275.5020365095988
 30
0.0
 10
439.8909019842138
 20
275.5115999396294
 30
0.0
 10
439.8900745268309
 20
275.5138820922641
 30
0.0
  0
LINE
  5
D1
330
1F
100
AcDbEntity
  8
0
  6
Continuous
 62
     7
370
    25
100
AcDbLine
 10
439.5074560502
 20
292.5138820923
 30
0.0
 11
439.8900745268
 21
292.5138820923
 31
0.0
  0
SPLINE
  5
D2
330
1F
100
AcDbEntity
  8
0
  6
Continuous
 62
     7
370
    25
100
AcDbSpline
210
0.0
220
0.0
230
1.0
 70
     8
 71
     3
 72
    17
 73
    13
 74
     0
 42
0.000000001
 43
0.00000001
 40
0.0
 40
0.0
 40
0.0
 40
0.0
 40
0.1073802933874066
 40
0.2147607566167836
 40
0.3221368944420759
 40
0.429507207504517
 40
0.5368735323287535
 40
0.6442382235266148
 40
0.7516036621099045
 40
0.8589722343022379
 40
0.9663460823138681
 40
1.0
 40
1.0
 40
1.0
 40
1.0
 10
439.8900745268309
 20
292.5138820922641
 30
0.0
 10
439.8926885684612
 20
292.5359962398487
 30
0.0
 10
439.8979166558561
 20
292.5802245699956
 30
0.0
 10
439.9042354170443
 20
292.9250150121314
 30
0.0
 10
439.9087617595134
 20
293.4327644026475
 30
0.0
 10
439.911221303077
 20
294.0667177650769
 30
0.0
 10
439.911555442032
 20
294.7499430076628
 30
0.0
 10
439.9097534910671
 20
295.4067036892268
 30
0.0
 10
439.9058625726059
 20
295.9632879995174
 30
0.0
 10
439.9000472016209
 20
296.3544077753328
 30
0.0
 10
439.894369469545
 20
296.5020365095988
 30
0.0
 10
439.8909019842138
 20
296.5115999396293
 30
0.0
 10
439.8900745268309
 20
296.5138820922641
 30
0.0
  0
LINE
  5
D3
330
1F
100
AcDbEntity
  8
0
  6
Continuous
 62
     7
370
    25
100
AcDbLine
 10
439.8900745268
 20
296.5138820923
 30
0.0
 11
439.5074560502
 21
296.5138820923
 31
0.0
  0
SPLINE
  5
D4
330
1F
100
AcDbEntity
  8
0
  6
Continuous
 62
     7
370
    25
100
AcDbSpline
210
0.0
220
0.0
230
1.0
 70
     8
 71
     3
 72
    17
 73
    13
 74
     0
 42
0.000000001
 43
0.00000001
 40
0.0
 40
0.0
 40
0.0
 40
0.0
 40
0.0740640077495178
 40
0.1814969431858084
 40
0.2889118247579379
 40
0.3962740608575925
 40
0.503572378641196
 40
0.6108274724882853
 40
0.7180828011004329
 40
0.8253816495165338
 40
0.9327443748459534
 40
1.0
 40
1.0
 40
1.0
 40
1.0
 10
439.5074560502264
 20
296.5138820922641
 30
0.0
 10
439.5023027710827
 20
296.5032393422832
 30
0.0
 10
439.4896744453898
 20
296.4771588391171
 30
0.0
 10
439.470321142112
 20
296.2280879311614
 30
0.0
 10
439.4526605545306
 20
295.7699945382075
 30
0.0
 10
439.4411344720355
 20
295.1667664635626
 30
0.0
 10
439.4373031954296
 20
294.4910424713458
 30
0.0
 10
439.4416723776835
 20
293.8181186587941
 30
0.0
 10
439.4536495807449
 20
293.2228200958301
 30
0.0
 10
439.4716169088516
 20
292.7761632586115
 30
0.0
 10
439.4906421976179
 20
292.5455767900069
 30
0.0
 10
439.5027807801175
 20
292.522695139245
 30
0.0
 10
439.5074560502264
 20
292.5138820922641
 30
0.0
  0
LINE
  5
D5
330
1F
100
AcDbEntity
  8
0
  6
Continuous
 62
     7
370
    25
100
AcDbLine
 10
439.5074560502
 20
308.5138820923
 30
0.0
 11
439.8900745268
 21
308.5138820923
 31
0.0
  0
SPLINE
  5
D6
330
1F
100
AcDbEntity
  8
0
  6
Continuous
 62
     7
370
    25
100
AcDbSpline
210
0.0
220
0.0
230
1.0
 70
     8
 71
     3
 72
    17
 73
    13
 74
     0
 42
0.000000001
 43
0.00000001
 40
0.0
 40
0.0
 40
0.0
 40
0.0
 40
0.1073802933874057
 40
0.2147607566167828
 40
0.3221368944420752
 40
0.4295072075045166
 40
0.5368735323287535
 40
0.6442382235266144
 40
0.751603662109904
 40
0.8589722343022377
 40
0.9663460823138679
 40
0.9999999999999999
 40
0.9999999999999999
 40
0.9999999999999999
 40
0.9999999999999999
 10
439.8900745268309
 20
308.5138820922641
 30
0.0
 10
439.8926885684612
 20
308.5359962398487
 30
0.0
 10
439.8979166558561
 20
308.5802245699956
 30
0.0
 10
439.9042354170443
 20
308.9250150121314
 30
0.0
 10
439.9087617595134
 20
309.4327644026475
 30
0.0
 10
439.911221303077
 20
310.0667177650769
 30
0.0
 10
439.911555442032
 20
310.7499430076629
 30
0.0
 10
439.9097534910671
 20
311.4067036892268
 30
0.0
 10
439.9058625726059
 20
311.9632879995174
 30
0.0
 10
439.9000472016209
 20
312.3544077753329
 30
0.0
 10
439.8943694695451
 20
312.5020365095988
 30
0.0
 10
439.8909019842138
 20
312.5115999396294
 30
0.0
 10
439.8900745268309
 20
312.5138820922641
 30
0.0
  0
LINE
  5
D7
330
1F
100
AcDbEntity
  8
0
  6
Continuous
 62
     7
370
    25
100
AcDbLine
 10
439.8900745268
 20
312.5138820923
 30
0.0
 11
439.5074560502
 21
312.5138820923
 31
0.0
  0
SPLINE
  5
D8
330
1F
100
AcDbEntity
  8
0
  6
Continuous
 62
     7
370
    25
100
AcDbSpline
210
0.0
220
0.0
230
1.0
 70
     8
 71
     3
 72
    17
 73
    13
 74
     0
 42
0.000000001
 43
0.00000001
 40
0.0
 40
0.0
 40
0.0
 40
0.0
 40
0.0740640077495176
 40
0.1814969431858081
 40
0.2889118247579393
 40
0.3962740608575923
 40
0.503572378641195
 40
0.6108274724882847
 40
0.7180828011004333
 40
0.8253816495165328
 40
0.9327443748459521
 40
1.0
 40
1.0
 40
1.0
 40
1.0
 10
439.5074560502264
 20
312.5138820922641
 30
0.0
 10
439.5023027710827
 20
312.5032393422832
 30
0.0
 10
439.4896744453898
 20
312.4771588391171
 30
0.0
 10
439.470321142112
 20
312.2280879311615
 30
0.0
 10
439.4526605545306
 20
311.7699945382075
 30
0.0
 10
439.4411344720355
 20
311.1667664635626
 30
0.0
 10
439.4373031954296
 20
310.4910424713458
 30
0.0
 10
439.4416723776835
 20
309.8181186587941
 30
0.0
 10
439.4536495807449
 20
309.2228200958301
 30
0.0
 10
439.4716169088516
 20
308.7761632586115
 30
0.0
 10
439.4906421976179
 20
308.5455767900069
 30
0.0
 10
439.5027807801175
 20
308.522695139245
 30
0.0
 10
439.5074560502264
 20
308.5138820922641
 30
0.0
  0
SPLINE
  5
D9
330
1F
100
AcDbEntity
  8
0
  6
Continuous
 62
     7
370
    25
100
AcDbSpline
210
0.0
220
0.0
230
1.0
 70
     8
 71
     3
 72
    11
 73
     7
 74
     0
 42
0.000000001
 43
0.00000001
 40
0.0
 40
0.0
 40
0.0
 40
0.0
 40
0.2497477886999952
 40
0.4996152733637829
 40
0.7497701168085441
 40
1.0
 40
1.0
 40
1.0
 40
1.0
 10
429.3895947594475
 20
267.1751377884114
 30
0.0
 10
429.4322288659314
 20
256.404431459564
 30
0.0
 10
429.5175175120351
 20
234.857856753863
 30
0.0
 10
429.7889426346306
 20
202.556158826059
 30
0.0
 10
430.1346860476099
 20
170.2645141250967
 30
0.0
 10
430.4314359866684
 20
148.7651674799534
 30
0.0
 10
430.5798332071169
 20
138.0138820922641
 30
0.0
  0
SPLINE
  5
DA
330
1F
100
AcDbEntity
  8
0
  6
Continuous
 62
     7
370
    25
100
AcDbSpline
210
0.0
220
0.0
230
1.0
 70
     8
 71
     3
 72
     9
 73
     5
 74
     0
 42
0.000000001
 43
0.00000001
 40
0.0
 40
0.0
 40
0.0
 40
0.0
 40
0.4999249197055475
 40
1.0
 40
1.0
 40
1.0
 40
1.0
 10
429.3895947594475
 20
308.8526263961045
 30
0.0
 10
429.3747853813377
 20
301.9074214679278
 30
0.0
 10
429.3451621768804
 20
288.0149255061993
 30
0.0
 10
429.3747824159943
 20
274.1224290628231
 30
0.0
 10
429.3895947594475
 20
267.1751377884114
 30
0.0
  0
SPLINE
  5
DB
330
1F
100
AcDbEntity
  8
0
  6
Continuous
 62
     7
370
    25
100
AcDbSpline
210
0.0
220
0.0
230
1.0
 70
     8
 71
     3
 72
    11
 73
     7
 74
     0
 42
0.000000001
 43
0.00000001
 40
0.0
 40
0.0
 40
0.0
 40
0.0
 40
0.2497935786588409
 40
0.4996593749926217
 40
0.7497761982192853
 40
1.0
 40
1.0
 40
1.0
 40
1.0
 10
430.5798332071169
 20
438.0138820922634
 30
0.0
 10
430.4316834254672
 20
427.2813515322798
 30
0.0
 10
430.1353410306713
 20
405.8131875367002
 30
0.0
 10
429.7896222118414
 20
373.5421303654651
 30
0.0
 10
429.5177925542126
 20
341.2217114360756
 30
0.0
 10
429.4323334484142
 20
319.6438592733743
 30
0.0
 10
429.3895947594475
 20
308.8526263961045
 30
0.0
  0
LINE
  5
DC
330
1F
100
AcDbEntity
  8
0
  6
Continuous
 62
     7
370
    25
100
AcDbLine
 10
439.5074560502
 20
300.5138820923
 30
0.0
 11
439.8900745268
 21
300.5138820923
 31
0.0
  0
SPLINE
  5
DD
330
1F
100
AcDbEntity
  8
0
  6
Continuous
 62
     7
370
    25
100
AcDbSpline
210
0.0
220
0.0
230
1.0
 70
     8
 71
     3
 72
    17
 73
    13
 74
     0
 42
0.000000001
 43
0.00000001
 40
0.0
 40
0.0
 40
0.0
 40
0.0
 40
0.1073802933874058
 40
0.2147607566167829
 40
0.3221368944420753
 40
0.4295072075045165
 40
0.5368735323287531
 40
0.6442382235266143
 40
0.751603662109904
 40
0.8589722343022377
 40
0.966346082313868
 40
1.0
 40
1.0
 40
1.0
 40
1.0
 10
439.8900745268309
 20
300.5138820922641
 30
0.0
 10
439.8926885684612
 20
300.5359962398487
 30
0.0
 10
439.8979166558561
 20
300.5802245699956
 30
0.0
 10
439.9042354170443
 20
300.9250150121314
 30
0.0
 10
439.9087617595134
 20
301.4327644026475
 30
0.0
 10
439.911221303077
 20
302.0667177650769
 30
0.0
 10
439.911555442032
 20
302.7499430076629
 30
0.0
 10
439.9097534910671
 20
303.4067036892268
 30
0.0
 10
439.9058625726059
 20
303.9632879995174
 30
0.0
 10
439.9000472016209
 20
304.3544077753329
 30
0.0
 10
439.8943694695451
 20
304.5020365095988
 30
0.0
 10
439.8909019842138
 20
304.5115999396294
 30
0.0
 10
439.8900745268309
 20
304.5138820922641
 30
0.0
  0
LINE
  5
DE
330
1F
100
AcDbEntity
  8
0
  6
Continuous
 62
     7
370
    25
100
AcDbLine
 10
439.8900745268
 20
304.5138820923
 30
0.0
 11
439.5074560502
 21
304.5138820923
 31
0.0
  0
SPLINE
  5
DF
330
1F
100
AcDbEntity
  8
0
  6
Continuous
 62
     7
370
    25
100
AcDbSpline
210
0.0
220
0.0
230
1.0
 70
     8
 71
     3
 72
    17
 73
    13
 74
     0
 42
0.000000001
 43
0.00000001
 40
0.0
 40
0.0
 40
0.0
 40
0.0
 40
0.0740640077495176
 40
0.181496943185808
 40
0.2889118247579364
 40
0.3962740608575916
 40
0.503572378641195
 40
0.610827472488284
 40
0.718082801100432
 40
0.8253816495165328
 40
0.9327443748459522
 40
1.0
 40
1.0
 40
1.0
 40
1.0
 10
439.5074560502264
 20
304.5138820922641
 30
0.0
 10
439.5023027710827
 20
304.5032393422832
 30
0.0
 10
439.4896744453898
 20
304.4771588391171
 30
0.0
 10
439.470321142112
 20
304.2280879311614
 30
0.0
 10
439.4526605545306
 20
303.7699945382075
 30
0.0
 10
439.4411344720355
 20
303.1667664635626
 30
0.0
 10
439.4373031954296
 20
302.4910424713458
 30
0.0
 10
439.4416723776835
 20
301.8181186587941
 30
0.0
 10
439.4536495807449
 20
301.2228200958301
 30
0.0
 10
439.4716169088516
 20
300.7761632586115
 30
0.0
 10
439.4906421976179
 20
300.5455767900069
 30
0.0
 10
439.5027807801175
 20
300.5226951392449
 30
0.0
 10
439.5074560502264
 20
300.5138820922641
 30
0.0
  0
LINE
  5
E0
330
1F
100
AcDbEntity
  8
0
  6
Continuous
 62
     7
370
    25
100
AcDbLine
 10
439.5074560502
 20
263.5138820923
 30
0.0
 11
439.8900745268
 21
263.5138820923
 31
0.0
  0
SPLINE
  5
E1
330
1F
100
AcDbEntity
  8
0
  6
Continuous
 62
     7
370
    25
100
AcDbSpline
210
0.0
220
0.0
230
1.0
 70
     8
 71
     3
 72
    17
 73
    13
 74
     0
 42
0.000000001
 43
0.00000001
 40
0.0
 40
0.0
 40
0.0
 40
0.0
 40
0.1073802933874054
 40
0.2147607566167828
 40
0.3221368944420752
 40
0.4295072075045167
 40
0.536873532328753
 40
0.644238223526614
 40
0.7516036621099041
 40
0.8589722343022376
 40
0.9663460823138679
 40
0.9999999999999999
 40
0.9999999999999999
 40
0.9999999999999999
 40
0.9999999999999999
 10
439.8900745268309
 20
263.5138820922641
 30
0.0
 10
439.8926885684612
 20
263.5359962398487
 30
0.0
 10
439.8979166558561
 20
263.5802245699956
 30
0.0
 10
439.9042354170443
 20
263.9250150121314
 30
0.0
 10
439.9087617595134
 20
264.4327644026476
 30
0.0
 10
439.911221303077
 20
265.0667177650769
 30
0.0
 10
439.911555442032
 20
265.7499430076629
 30
0.0
 10
439.9097534910671
 20
266.4067036892268
 30
0.0
 10
439.9058625726059
 20
266.9632879995174
 30
0.0
 10
439.9000472016209
 20
267.3544077753328
 30
0.0
 10
439.8943694695451
 20
267.5020365095988
 30
0.0
 10
439.8909019842138
 20
267.5115999396294
 30
0.0
 10
439.8900745268309
 20
267.5138820922641
 30
0.0
  0
LINE
  5
E2
330
1F
100
AcDbEntity
  8
0
  6
Continuous
 62
     7
370
    25
100
AcDbLine
 10
439.8900745268
 20
267.5138820923
 30
0.0
 11
439.5074560502
 21
267.5138820923
 31
0.0
  0
SPLINE
  5
E3
330
1F
100
AcDbEntity
  8
0
  6
Continuous
 62
     7
370
    25
100
AcDbSpline
210
0.0
220
0.0
230
1.0
 70
     8
 71
     3
 72
    17
 73
    13
 74
     0
 42
0.000000001
 43
0.00000001
 40
0.0
 40
0.0
 40
0.0
 40
0.0
 40
0.0740640077495178
 40
0.1814969431858082
 40
0.2889118247579394
 40
0.3962740608575929
 40
0.5035723786411956
 40
0.6108274724882848
 40
0.7180828011004338
 40
0.8253816495165329
 40
0.9327443748459525
 40
1.0
 40
1.0
 40
1.0
 40
1.0
 10
439.5074560502264
 20
267.5138820922641
 30
0.0
 10
439.5023027710827
 20
267.5032393422833
 30
0.0
 10
439.4896744453898
 20
267.4771588391171
 30
0.0
 10
439.470321142112
 20
267.2280879311615
 30
0.0
 10
439.4526605545306
 20
266.7699945382075
 30
0.0
 10
439.4411344720355
 20
266.1667664635626
 30
0.0
 10
439.4373031954296
 20
265.4910424713458
 30
0.0
 10
439.4416723776835
 20
264.8181186587941
 30
0.0
 10
439.4536495807449
 20
264.2228200958302
 30
0.0
 10
439.4716169088516
 20
263.7761632586115
 30
0.0
 10
439.4906421976179
 20
263.5455767900069
 30
0.0
 10
439.5027807801175
 20
263.522695139245
 30
0.0
 10
439.5074560502264
 20
263.5138820922641
 30
0.0
  0
LINE
  5
E4
330
1F
100
AcDbEntity
  8
0
  6
Continuous
 62
     7
370
    25
100
AcDbLine
 10
439.5074560502
 20
279.5138820923
 30
0.0
 11
439.8900745268
 21
279.5138820923
 31
0.0
  0
SPLINE
  5
E5
330
1F
100
AcDbEntity
  8
0
  6
Continuous
 62
     7
370
    25
100
AcDbSpline
210
0.0
220
0.0
230
1.0
 70
     8
 71
     3
 72
    17
 73
    13
 74
     0
 42
0.000000001
 43
0.00000001
 40
0.0
 40
0.0
 40
0.0
 40
0.0
 40
0.1073802933874055
 40
0.2147607566167824
 40
0.3221368944420748
 40
0.4295072075045162
 40
0.5368735323287523
 40
0.6442382235266138
 40
0.7516036621099034
 40
0.8589722343022367
 40
0.9663460823138669
 40
1.0
 40
1.0
 40
1.0
 40
1.0
 10
439.8900745268309
 20
279.5138820922641
 30
0.0
 10
439.8926885684612
 20
279.5359962398487
 30
0.0
 10
439.8979166558561
 20
279.5802245699956
 30
0.0
 10
439.9042354170443
 20
279.9250150121315
 30
0.0
 10
439.9087617595134
 20
280.4327644026476
 30
0.0
 10
439.9112213030771
 20
281.066717765077
 30
0.0
 10
439.911555442032
 20
281.7499430076629
 30
0.0
 10
439.9097534910671
 20
282.4067036892269
 30
0.0
 10
439.9058625726059
 20
282.9632879995174
 30
0.0
 10
439.9000472016209
 20
283.354407775333
 30
0.0
 10
439.8943694695451
 20
283.5020365095988
 30
0.0
 10
439.8909019842138
 20
283.5115999396294
 30
0.0
 10
439.8900745268309
 20
283.5138820922641
 30
0.0
  0
LINE
  5
E6
330
1F
100
AcDbEntity
  8
0
  6
Continuous
 62
     7
370
    25
100
AcDbLine
 10
439.8900745268
 20
283.5138820923
 30
0.0
 11
439.5074560502
 21
283.5138820923
 31
0.0
  0
SPLINE
  5
E7
330
1F
100
AcDbEntity
  8
0
  6
Continuous
 62
     7
370
    25
100
AcDbSpline
210
0.0
220
0.0
230
1.0
 70
     8
 71
     3
 72
    17
 73
    13
 74
     0
 42
0.000000001
 43
0.00000001
 40
0.0
 40
0.0
 40
0.0
 40
0.0
 40
0.0740640077495168
 40
0.1814969431858074
 40
0.2889118247579368
 40
0.3962740608575913
 40
0.5035723786411948
 40
0.6108274724882842
 40
0.7180828011004318
 40
0.8253816495165326
 40
0.9327443748459523
 40
1.0
 40
1.0
 40
1.0
 40
1.0
 10
439.5074560502264
 20
283.5138820922641
 30
0.0
 10
439.5023027710827
 20
283.5032393422833
 30
0.0
 10
439.4896744453898
 20
283.4771588391171
 30
0.0
 10
439.470321142112
 20
283.2280879311615
 30
0.0
 10
439.4526605545306
 20
282.7699945382076
 30
0.0
 10
439.4411344720355
 20
282.1667664635626
 30
0.0
 10
439.4373031954296
 20
281.4910424713458
 30
0.0
 10
439.4416723776835
 20
280.8181186587942
 30
0.0
 10
439.4536495807449
 20
280.2228200958302
 30
0.0
 10
439.4716169088516
 20
279.7761632586115
 30
0.0
 10
439.4906421976179
 20
279.5455767900069
 30
0.0
 10
439.5027807801175
 20
279.522695139245
 30
0.0
 10
439.5074560502264
 20
279.5138820922641
 30
0.0
  0
SPLINE
  5
E8
330
1F
100
AcDbEntity
  8
0
  6
Continuous
 62
     7
370
    25
100
AcDbSpline
210
0.0
220
0.0
230
1.0
 70
     8
 71
     3
 72
    17
 73
    13
 74
     0
 42
0.000000001
 43
0.00000001
 40
0.0
 40
0.0
 40
0.0
 40
0.0
 40
0.1041130503141879
 40
0.2111610559471618
 40
0.3152827637335234
 40
0.4223419657374296
 40
0.5258618210652862
 40
0.6322677449810318
 40
0.7354170340649655
 40
0.8414201480471977
 40
0.9200901248435202
 40
1.0
 40
1.0
 40
1.0
 40
1.0
 10
149.946482765512
 20
96.04141208731828
 30
0.0
 10
147.656289840375
 20
96.14424340731648
 30
0.0
 10
143.0113432660958
 20
96.3528048705502
 30
0.0
 10
136.2596950825303
 20
98.11186520522783
 30
0.0
 10
129.8243766679978
 20
100.9075728485182
 30
0.0
 10
124.0066754400211
 20
104.7114306060304
 30
0.0
 10
118.8610517204886
 20
109.4501714442115
 30
0.0
 10
114.6188009011778
 20
114.9070903730088
 30
0.0
 10
111.3014219317464
 20
121.0320487437306
 30
0.0
 10
109.2496528994614
 20
127.0423921443367
 30
0.0
 10
108.1349653352854
 20
132.7698649703152
 30
0.0
 10
108.0156925001572
 20
136.2567885745995
 30
0.0
 10
107.9555897995474
 20
138.0138820922644
 30
0.0
  0
SPLINE
  5
E9
330
1F
100
AcDbEntity
  8
0
  6
Continuous
 62
     7
370
    25
100
AcDbSpline
210
0.0
220
0.0
230
1.0
 70
     8
 71
     3
 72
    13
 73
     9
 74
     0
 42
0.000000001
 43
0.00000001
 40
0.0
 40
0.0
 40
0.0
 40
0.0
 40
0.1745577178324045
 40
0.3492260635991293
 40
0.5242242481368055
 40
0.6993278354590123
 40
0.8496361829523336
 40
1.0
 40
1.0
 40
1.0
 40
1.0
 10
391.1782814725295
 20
447.3118533737654
 30
0.0
 10
376.9262435218093
 20
447.2664402520422
 30
0.0
 10
348.4131352296047
 20
447.1755852275144
 30
0.0
 10
305.5897639509664
 20
447.1908706717438
 30
0.0
 10
262.7400873771873
 20
447.3142859206885
 30
0.0
 10
221.9199285487937
 20
447.5643260711194
 30
0.0
 10
183.1575941997732
 20
447.9120029388337
 30
0.0
 10
158.7121056792318
 20
448.2113972385489
 30
0.0
 10
146.4871065039509
 20
448.3611220053101
 30
0.0
  0
LWPOLYLINE
  5
EA
330
1F
100
AcDbEntity
  8
0
  6
Continuous
 62
     7
370
    25
100
AcDbPolyline
 90
       14
 70
   128
 43
0.0
 10
146.487106504
 20
448.3611220053
 10
146.5881845171
 20
451.9410874279
 10
146.7250843266
 20
455.4506152892
 10
146.8963456699
 20
458.8522706793
 10
147.100141762
 20
462.1097693263
 10
147.3342987811
 20
465.188364628
 10
147.5963190558
 20
468.055218282
 10
147.8834077073
 20
470.6797505599
 10
148.192502461
 20
473.0339664912
 10
148.520306311
 20
475.0927544755
 10
148.8633226879
 20
476.8341541392
 10
149.2178927557
 20
478.2395905795
 10
149.580234439
 20
479.2940724958
 10
149.9464827655
 20
479.9863520972
  0
LWPOLYLINE
  5
EB
330
1F
100
AcDbEntity
  8
0
  6
Continuous
 62
     7
370
    25
100
AcDbPolyline
 90
       14
 70
   128
 43
0.0
 10
391.1782814725
 20
447.3118533738
 10
391.1405933219
 20
450.8452070051
 10
391.0904837683
 20
454.3084710129
 10
391.0284740623
 20
457.6656197565
 10
390.9552092427
 20
460.8817314294
 10
390.8714514264
 20
463.9233513242
 10
390.7780718808
 20
466.7588398356
 10
390.6760419606
 20
469.3587015829
 10
390.5664230037
 20
471.695892227
 10
390.4503552909
 20
473.7460997922
 10
390.3290461843
 20
475.4879975643
 10
390.2037575681
 20
476.903465936
 10
390.0757927222
 20
477.9777808913
 10
389.9464827655
 20
478.6997671674
  0
SPLINE
  5
EC
330
1F
100
AcDbEntity
  8
0
  6
Continuous
 62
     7
370
    25
100
AcDbSpline
210
0.0
220
0.0
230
1.0
 70
     8
 71
     3
 72
    17
 73
    13
 74
     0
 42
0.000000001
 43
0.00000001
 40
0.0
 40
0.0
 40
0.0
 40
0.0
 40
0.0974164087167789
 40
0.1948571322632234
 40
0.2951960374173909
 40
0.3955347127440418
 40
0.4959955966331068
 40
0.5964564747273173
 40
0.6972837410934073
 40
0.7981112370252684
 40
0.8990554901304062
 40
1.0
 40
1.0
 40
1.0
 40
1.0
 10
139.0069430925904
 20
440.8949193537401
 30
0.0
 10
139.1058347014253
 20
430.9857749291201
 30
0.0
 10
139.3036426021302
 20
411.1650127885525
 30
0.0
 10
139.5251062348125
 20
381.094322618179
 30
0.0
 10
139.6877192163081
 20
350.7020677957296
 30
0.0
 10
139.7850967297001
 20
319.9821089962616
 30
0.0
 10
139.819163946281
 20
289.2398747116122
 30
0.0
 10
139.7900611711922
 20
258.4473979587742
 30
0.0
 10
139.6973951155823
 20
227.6266224553607
 30
0.0
 10
139.537222033882
 20
196.7759008495057
 30
0.0
 10
139.31356363441
 20
165.9373209108078
 30
0.0
 10
139.1091500265222
 20
145.4010122302327
 30
0.0
 10
139.0069430925904
 20
135.1328448307882
 30
0.0
  0
LWPOLYLINE
  5
ED
330
1F
100
AcDbEntity
  8
0
  6
Continuous
 62
     7
370
    25
100
AcDbPolyline
 90
       14
 70
   128
 43
0.0
 10
139.0069430926
 20
135.1328448308
 10
135.479171145
 20
135.2209412852
 10
132.0255503662
 20
135.3381002203
 10
128.6820180691
 20
135.4831025165
 10
125.4833660197
 20
135.6544393244
 10
122.4628784047
 20
135.8503277662
 10
119.6519854869
 20
136.0687294871
 10
117.079936551
 20
136.3073718661
 10
114.7734955452
 20
136.5637716643
 10
112.7566625833
 20
136.8352608645
 10
111.0504242071
 20
137.1190144336
 10
109.672535007
 20
137.4120797197
 10
108.6373328731
 20
137.7114071756
 10
107.9555897995
 20
138.0138820923
  0
LWPOLYLINE
  5
EE
330
1F
100
AcDbEntity
  8
0
  6
Continuous
 62
     7
370
    25
100
AcDbPolyline
 90
       14
 70
   128
 43
0.0
 10
139.0069430926
 20
440.8949193537
 10
135.479171145
 20
440.8068228993
 10
132.0255503662
 20
440.6896639642
 10
128.6820180691
 20
440.5446616681
 10
125.4833660197
 20
440.3733248601
 10
122.4628784047
 20
440.1774364183
 10
119.6519854869
 20
439.9590346974
 10
117.079936551
 20
439.7203923184
 10
114.7734955452
 20
439.4639925202
 10
112.7566625833
 20
439.1925033201
 10
111.0504242071
 20
438.9087497509
 10
109.672535007
 20
438.6156844649
 10
108.6373328731
 20
438.3163570089
 10
107.9555897995
 20
438.0138820923
  0
LWPOLYLINE
  5
EF
330
1F
100
AcDbEntity
  8
0
  6
Continuous
 62
     7
370
    25
100
AcDbPolyline
 90
       14
 70
   128
 43
0.0
 10
146.487106504
 20
127.6666421792
 10
146.5881845171
 20
124.0866767566
 10
146.7250843266
 20
120.5771488953
 10
146.8963456699
 20
117.1754935052
 10
147.100141762
 20
113.9179948583
 10
147.3342987811
 20
110.8393995565
 10
147.5963190558
 20
107.9725459026
 10
147.8834077073
 20
105.3480136246
 10
148.192502461
 20
102.9937976933
 10
148.520306311
 20
100.935009709
 10
148.8633226879
 20
99.1936100453
 10
149.2178927557
 20
97.7881736051
 10
149.580234439
 20
96.7336916888
 10
149.9464827655
 20
96.0414120873
  0
SPLINE
  5
F0
330
1F
100
AcDbEntity
  8
0
  6
Continuous
 62
     7
370
    25
100
AcDbSpline
210
0.0
220
0.0
230
1.0
 70
     8
 71
     3
 72
    13
 73
     9
 74
     0
 42
0.000000001
 43
0.00000001
 40
0.0
 40
0.0
 40
0.0
 40
0.0
 40
0.1504172842375689
 40
0.300888801804602
 40
0.4754013148081868
 40
0.650015090268692
 40
0.8249512319737833
 40
1.0
 40
1.0
 40
1.0
 40
1.0
 10
146.4871065039511
 20
127.666642179218
 30
0.0
 10
158.7164551829132
 20
127.8164171039786
 30
0.0
 10
183.1795618632061
 20
128.1160209552251
 30
0.0
 10
221.911452572631
 20
128.4633224558422
 30
0.0
 10
262.665300672815
 20
128.7130180577802
 30
0.0
 10
305.4570751222022
 20
128.8366831081168
 30
0.0
 10
348.3110483720153
 20
128.8524025414789
 30
0.0
 10
376.8861385856435
 20
128.7614178140653
 30
0.0
 10
391.1782814725291
 20
128.7159108107628
 30
0.0
  0
LWPOLYLINE
  5
F1
330
1F
100
AcDbEntity
  8
0
  6
Continuous
 62
     7
370
    25
100
AcDbPolyline
 90
       14
 70
   128
 43
0.0
 10
389.9464827655
 20
97.3279970172
 10
390.0757927222
 20
98.0499832933
 10
390.2037575681
 20
99.1242982485
 10
390.3290461843
 20
100.5397666202
 10
390.4503552909
 20
102.2816643923
 10
390.5664230037
 20
104.3318719575
 10
390.6760419606
 20
106.6690626016
 10
390.7780718808
 20
109.2689243489
 10
390.8714514264
 20
112.1044128603
 10
390.9552092427
 20
115.1460327551
 10
391.0284740623
 20
118.362144428
 10
391.0904837683
 20
121.7192931716
 10
391.1405933219
 20
125.1825571795
 10
391.1782814725
 20
128.7159108108
  0
SPLINE
  5
F2
330
1F
100
AcDbEntity
  8
0
  6
Continuous
 62
     7
370
    25
100
AcDbSpline
210
0.0
220
0.0
230
1.0
 70
     8
 71
     3
 72
    12
 73
     8
 74
     0
 42
0.000000001
 43
0.00000001
 40
0.0
 40
0.0
 40
0.0
 40
0.0
 40
0.1587461308200711
 40
0.3679239806406012
 40
0.5779016979231411
 40
0.7890640455991978
 40
1.0
 40
1.0
 40
1.0
 40
1.0
 10
139.0069430925904
 20
135.1328448307882
 30
0.0
 10
139.0466288640165
 20
134.5115809759405
 30
0.0
 10
139.1386080947701
 20
133.0716852800716
 30
0.0
 10
140.0912741128402
 20
130.95235366542
 30
0.0
 10
141.7814222364825
 20
129.1142532992927
 30
0.0
 10
144.0058888657156
 20
127.8773215494741
 30
0.0
 10
145.6603297454396
 20
127.7368435207454
 30
0.0
 10
146.4871065039511
 20
127.666642179218
 30
0.0
  0
SPLINE
  5
F3
330
1F
100
AcDbEntity
  8
0
  6
Continuous
 62
     7
370
    25
100
AcDbSpline
210
0.0
220
0.0
230
1.0
 70
     8
 71
     3
 72
    12
 73
     8
 74
     0
 42
0.000000001
 43
0.00000001
 40
0.0
 40
0.0
 40
0.0
 40
0.0
 40
0.1608732025308433
 40
0.3700371694335099
 40
0.579463589491723
 40
0.7898172603100679
 40
1.0
 40
1.0
 40
1.0
 40
1.0
 10
146.4871065039509
 20
448.3611220053101
 30
0.0
 10
145.8583294457026
 20
448.3218638273507
 30
0.0
 10
144.4120296320695
 20
448.2315629890465
 30
0.0
 10
142.2901579263855
 20
447.2751205754008
 30
0.0
 10
140.4572235938321
 20
445.5882461793555
 30
0.0
 10
139.2222256317126
 20
443.3703531766993
 30
0.0
 10
139.0786844910652
 20
441.7198403390427
 30
0.0
 10
139.0069430925904
 20
440.8949193537401
 30
0.0
  0
LWPOLYLINE
  5
F4
330
1F
100
AcDbEntity
  8
0
  6
Continuous
 62
     7
370
    25
100
AcDbPolyline
 90
       14
 70
   128
 43
0.0
 10
429.3895947594
 20
308.8526263961
 10
428.6102384613
 20
308.91237204
 10
427.4626551338
 20
308.9714660028
 10
425.9593621489
 20
309.0292637115
 10
424.1167568144
 20
309.0851347323
 10
421.9549375194
 20
309.1384696467
 10
419.4974845088
 20
309.1886866994
 10
416.7712026797
 20
309.235238143
 10
413.8058292046
 20
309.2776162135
 10
410.6337091704
 20
309.315358668
 10
407.289442771
 20
309.3480538273
 10
403.8095079033
 20
309.3753450658
 10
400.2318622802
 20
309.3969347018
 10
396.595529404
 20
309.4125872444
  0
SPLINE
  5
F5
330
1F
100
AcDbEntity
  8
0
  6
Continuous
 62
     7
370
    25
100
AcDbSpline
210
0.0
220
0.0
230
1.0
 70
     8
 71
     3
 72
    11
 73
     7
 74
     0
 42
0.000000001
 43
0.00000001
 40
0.0
 40
0.0
 40
0.0
 40
0.0
 40
0.2497680886335301
 40
0.4996446970922943
 40
0.7497870875584671
 40
1.0
 40
1.0
 40
1.0
 40
1.0
 10
396.59552940396
 20
309.4125872443508
 30
0.0
 10
396.5936416309477
 20
320.3936394111365
 30
0.0
 10
396.5898652647189
 20
342.3605148180205
 30
0.0
 10
396.7235501740436
 20
375.2948485730469
 30
0.0
 10
396.9743159008477
 20
408.2199239605905
 30
0.0
 10
397.2256589029171
 20
430.1434031348895
 30
0.0
 10
397.35134811657
 20
441.106687711219
 30
0.0
  0
LWPOLYLINE
  5
F6
330
1F
100
AcDbEntity
  8
0
  6
Continuous
 62
     7
370
    25
100
AcDbPolyline
 90
       14
 70
   128
 43
0.0
 10
430.5798332071
 20
438.0138820923
 10
429.8220773606
 20
438.3475144826
 10
428.6838119339
 20
438.6773945491
 10
427.1778388628
 20
438.9998121698
 10
425.3210956475
 20
439.3111411521
 10
423.1344648583
 20
439.607880016
 10
420.6425392717
 20
439.8866913747
 10
417.8733452787
 20
440.14443947
 10
414.8580276749
 20
440.3782254397
 10
411.630499379
 20
440.5854199208
 10
408.2270600182
 20
440.7636926216
 10
404.6859876704
 20
440.9110385302
 10
401.0471083555
 20
441.0258004647
 10
397.3513481166
 20
441.1066877112
  0
LWPOLYLINE
  5
F7
330
1F
100
AcDbEntity
  8
0
  6
Continuous
 62
     7
370
    25
100
AcDbPolyline
 90
       14
 70
   128
 43
0.0
 10
430.5798332071
 20
138.0138820923
 10
429.8220773606
 20
137.6802497019
 10
428.6838119339
 20
137.3503696355
 10
427.1778388628
 20
137.0279520147
 10
425.3210956475
 20
136.7166230324
 10
423.1344648583
 20
136.4198841685
 10
420.6425392717
 20
136.1410728098
 10
417.8733452787
 20
135.8833247145
 10
414.8580276749
 20
135.6495387448
 10
411.630499379
 20
135.4423442637
 10
408.2270600182
 20
135.2640715629
 10
404.6859876704
 20
135.1167256543
 10
401.0471083555
 20
135.0019637199
 10
397.3513481166
 20
134.9210764733
  0
SPLINE
  5
F8
330
1F
100
AcDbEntity
  8
0
  6
Continuous
 62
     7
370
    25
100
AcDbSpline
210
0.0
220
0.0
230
1.0
 70
     8
 71
     3
 72
    11
 73
     7
 74
     0
 42
0.000000001
 43
0.00000001
 40
0.0
 40
0.0
 40
0.0
 40
0.0
 40
0.2498070594180488
 40
0.4996818527105465
 40
0.7497915781304343
 40
1.0
 40
1.0
 40
1.0
 40
1.0
 10
397.3513481165701
 20
134.9210764733086
 30
0.0
 10
397.2258499467675
 20
145.866570650523
 30
0.0
 10
396.9748195789916
 20
167.7605268183118
 30
0.0
 10
396.7239567896847
 20
200.6661908929174
 30
0.0
 10
396.5898857719163
 20
233.6182869516483
 30
0.0
 10
396.5936479458917
 20
255.6147672146558
 30
0.0
 10
396.5955294039564
 20
266.6151769401661
 30
0.0
  0
LWPOLYLINE
  5
F9
330
1F
100
AcDbEntity
  8
0
  6
Continuous
 62
     7
370
    25
100
AcDbPolyline
 90
       14
 70
   128
 43
0.0
 10
429.3895947594
 20
267.1751377884
 10
428.6102384613
 20
267.1153921445
 10
427.4626551338
 20
267.0562981817
 10
425.9593621489
 20
266.998500473
 10
424.1167568144
 20
266.9426294523
 10
421.9549375194
 20
266.8892945378
 10
419.4974845088
 20
266.8390774851
 10
416.7712026797
 20
266.7925260415
 10
413.8058292046
 20
266.750147971
 10
410.6337091704
 20
266.7124055165
 10
407.289442771
 20
266.6797103572
 10
403.8095079033
 20
266.6524191187
 10
400.2318622802
 20
266.6308294827
 10
396.595529404
 20
266.6151769402
  0
SPLINE
  5
FA
330
1F
100
AcDbEntity
  8
0
  6
Continuous
 62
     7
370
    25
100
AcDbSpline
210
0.0
220
0.0
230
1.0
 70
     8
 71
     3
 72
    12
 73
     8
 74
     0
 42
0.000000001
 43
0.00000001
 40
0.0
 40
0.0
 40
0.0
 40
0.0
 40
0.1510982574714584
 40
0.3625908980513421
 40
0.574809251314327
 40
0.7875647343591599
 40
1.0
 40
1.0
 40
1.0
 40
1.0
 10
391.1782814725291
 20
128.7159108107628
 30
0.0
 10
391.6682108481053
 20
128.7485608394833
 30
0.0
 10
392.8438956987759
 20
128.8269112019115
 30
0.0
 10
394.5933846775506
 20
129.5994157351811
 30
0.0
 10
396.1345657110762
 20
131.0028382286171
 30
0.0
 10
397.1726419763381
 20
132.8528633824823
 30
0.0
 10
397.2918093187186
 20
134.2320183303224
 30
0.0
 10
397.3513481165701
 20
134.9210764733086
 30
0.0
  0
SPLINE
  5
FB
330
1F
100
AcDbEntity
  8
0
  6
Continuous
 62
     7
370
    25
100
AcDbSpline
210
0.0
220
0.0
230
1.0
 70
     8
 71
     3
 72
    12
 73
     8
 74
     0
 42
0.000000001
 43
0.00000001
 40
0.0
 40
0.0
 40
0.0
 40
0.0
 40
0.1554052485532813
 40
0.3666179083237823
 40
0.5776099685932115
 40
0.7888216133894752
 40
1.0
 40
1.0
 40
1.0
 40
1.0
 10
397.35134811657
 20
441.106687711219
 30
0.0
 10
397.3207952059493
 20
441.6092703025889
 30
0.0
 10
397.2487175619233
 20
442.794917377725
 30
0.0
 10
396.4728113821134
 20
444.5485837872001
 30
0.0
 10
395.0769412844586
 20
446.081697305822
 30
0.0
 10
393.2386313642559
 20
447.1192782648506
 30
0.0
 10
391.8650287181539
 20
447.2476650404371
 30
0.0
 10
391.1782814725296
 20
447.3118533737654
 30
0.0
  0
ARC
  5
FC
330
1F
100
AcDbEntity
  8
0
  6
Continuous
 62
     7
370
    25
100
AcDbCircle
 10
329.9464827655
 20
288.0138820923
 30
0.0
 40
70.00000000000001
100
AcDbArc
 50
17.8000290607
 51
342.1999709393
  0
LINE
  5
FD
330
1F
100
AcDbEntity
  8
0
  6
Continuous
 62
     7
370
    25
100
AcDbLine
 10
396.595529404
 20
266.6151769402
 30
0.0
 11
396.6536750657
 21
285.0896851796
 31
0.0
  0
LINE
  5
FE
330
1F
100
AcDbEntity
  8
0
  6
Continuous
 62
     7
370
    25
100
AcDbLine
 10
396.6536750657
 20
290.9380790049
 30
0.0
 11
396.6536750657
 21
285.0896851796
 31
0.0
  0
LINE
  5
FF
330
1F
100
AcDbEntity
  8
0
  6
Continuous
 62
     7
370
    25
100
AcDbLine
 10
396.6536750657
 20
290.9380790049
 30
0.0
 11
396.595529404
 21
309.4125872444
 31
0.0
  0
ARC
  5
100
330
1F
100
AcDbEntity
  8
0
  6
Continuous
 62
     7
370
    25
100
AcDbCircle
 10
329.9464827655
 20
288.0138820923
 30
0.0
 40
66.77125453482508
100
AcDbArc
 50
2.5100283872
 51
357.4899716128
  0
LINE
  5
101
330
1F
100
AcDbEntity
  8
0
  6
Continuous
 62
     7
370
    25
100
AcDbLine
 10
396.0348201163
 20
285.1168134947
 30
0.0
 11
396.0348201163
 21
290.9109506898
 31
0.0
  0
LINE
  5
102
330
1F
100
AcDbEntity
  8
0
  6
Continuous
 62
     7
370
    25
100
AcDbLine
 10
396.6536750657
 20
290.9380790049
 30
0.0
 11
396.0348201163
 21
290.9109506898
 31
0.0
  0
LINE
  5
103
330
1F
100
AcDbEntity
  8
0
  6
Continuous
 62
     7
370
    25
100
AcDbLine
 10
396.0348201163
 20
285.1168134947
 30
0.0
 11
396.6536750657
 21
285.0896851796
 31
0.0
  0
CIRCLE
  5
104
330
1F
100
AcDbEntity
  8
0
  6
Continuous
 62
     7
370
    25
100
AcDbCircle
 10
329.9464827655
 20
288.0138820923
 30
0.0
 40
58.61177143234625
  0
ARC
  5
105
330
1F
100
AcDbEntity
  8
0
  6
Continuous
 62
     7
370
    25
100
AcDbCircle
 10
329.9464827655
 20
288.0138820923
 30
0.0
 40
66.15180526824552
100
AcDbArc
 50
2.5100283872
 51
357.4899716128
  0
CIRCLE
  5
106
330
1F
100
AcDbEntity
  8
0
  6
Continuous
 62
     7
370
    25
100
AcDbCircle
 10
329.9464827655
 20
288.0138820923
 30
0.0
 40
57.5
  0
CIRCLE
  5
107
330
1F
100
AcDbEntity
  8
0
  6
Continuous
 62
     7
370
    25
100
AcDbCircle
 10
329.9464827655
 20
288.0138820923
 30
0.0
 40
56.58715574274765
  0
CIRCLE
  5
108
330
1F
100
AcDbEntity
  8
0
  6
Continuous
 62
     7
370
    25
100
AcDbCircle
 10
329.9464827655
 20
288.0138820923
 30
0.0
 40
45.0
  0
ARC
  5
109
330
1F
100
AcDbEntity
  8
0
  6
Continuous
 62
     7
370
    25
100
AcDbCircle
 10
73.4164827655
 20
61.4838820923
 30
0.0
 40
10.00000000000001
100
AcDbArc
 50
180.0
 51
270.0
  0
LINE
  5
10A
330
1F
100
AcDbEntity
  8
0
  6
Continuous
 62
     7
370
    25
100
AcDbLine
 10
63.4164827655
 20
61.4838820923
 30
0.0
 11
64.4164827655
 21
61.4838820923
 31
0.0
  0
ARC
  5
10B
330
1F
100
AcDbEntity
  8
0
  6
Continuous
 62
     7
370
    25
100
AcDbCircle
 10
73.4164827655
 20
61.4838820923
 30
0.0
 40
9.000000000000014
100
AcDbArc
 50
180.0
 51
270.0
  0
LINE
  5
10C
330
1F
100
AcDbEntity
  8
0
  6
Continuous
 62
     7
370
    25
100
AcDbLine
 10
73.4164827655
 20
51.4838820923
 30
0.0
 11
73.4164827655
 21
52.4838820923
 31
0.0
  0
LINE
  5
10D
330
1F
100
AcDbEntity
  8
0
  6
Continuous
 62
     7
370
    25
100
AcDbLine
 10
64.4164827655
 20
541.4838820923
 30
0.0
 11
64.4164827655
 21
61.4838820923
 31
0.0
  0
LINE
  5
10E
330
1F
100
AcDbEntity
  8
0
  6
Continuous
 62
     7
370
    25
100
AcDbLine
 10
63.4164827655
 20
61.4838820923
 30
0.0
 11
63.4164827655
 21
541.4838820923
 31
0.0
  0
LINE
  5
10F
330
1F
100
AcDbEntity
  8
0
  6
Continuous
 62
     7
370
    25
100
AcDbLine
 10
64.4164827655
 20
541.4838820923
 30
0.0
 11
63.4164827655
 21
541.4838820923
 31
0.0
  0
ARC
  5
110
330
1F
100
AcDbEntity
  8
0
  6
Continuous
 62
     7
370
    25
100
AcDbCircle
 10
817.8164827655
 20
512.8838820923
 30
0.0
 40
19.58499408867306
100
AcDbArc
 50
0.0
 51
90.0
  0
LINE
  5
111
330
1F
100
AcDbEntity
  8
0
  6
Continuous
 62
     7
370
    25
100
AcDbLine
 10
817.8164827655
 20
532.4688761809
 30
0.0
 11
817.8164827655
 21
533.3456184745
 31
0.0
  0
ARC
  5
112
330
1F
100
AcDbEntity
  8
0
  6
Continuous
 62
     7
370
    25
100
AcDbCircle
 10
817.8164827655
 20
512.8838820923
 30
0.0
 40
20.46173638225116
100
AcDbArc
 50
0.0
 51
90.0
  0
LINE
  5
113
330
1F
100
AcDbEntity
  8
0
  6
Continuous
 62
     7
370
    25
100
AcDbLine
 10
837.4014768542
 20
512.8838820923
 30
0.0
 11
838.2782191478
 21
512.8838820923
 31
0.0
  0
ARC
  5
114
330
1F
100
AcDbEntity
  8
0
  6
Continuous
 62
     7
370
    25
100
AcDbCircle
 10
102.0164827655
 20
90.0838820923
 30
0.0
 40
20.46173638225112
100
AcDbArc
 50
180.0
 51
270.0
  0
LINE
  5
115
330
1F
100
AcDbEntity
  8
0
  6
Continuous
 62
     7
370
    25
100
AcDbLine
 10
81.5547463833
 20
90.0838820923
 30
0.0
 11
82.4314886768
 21
90.0838820923
 31
0.0
  0
ARC
  5
116
330
1F
100
AcDbEntity
  8
0
  6
Continuous
 62
     7
370
    25
100
AcDbCircle
 10
102.0164827655
 20
90.0838820923
 30
0.0
 40
19.58499408867297
100
AcDbArc
 50
180.0
 51
270.0
  0
LINE
  5
117
330
1F
100
AcDbEntity
  8
0
  6
Continuous
 62
     7
370
    25
100
AcDbLine
 10
102.0164827655
 20
69.62214571
 30
0.0
 11
102.0164827655
 21
70.4988880036
 31
0.0
  0
LINE
  5
118
330
1F
100
AcDbEntity
  8
0
  6
Continuous
 62
     7
370
    25
100
AcDbLine
 10
817.8164827655
 20
532.4688761809
 30
0.0
 11
102.0164827655
 21
532.4688761809
 31
0.0
  0
LINE
  5
119
330
1F
100
AcDbEntity
  8
0
  6
Continuous
 62
     7
370
    25
100
AcDbLine
 10
102.0164827655
 20
532.4688761809
 30
0.0
 11
102.0164827655
 21
533.3456184745
 31
0.0
  0
LINE
  5
11A
330
1F
100
AcDbEntity
  8
0
  6
Continuous
 62
     7
370
    25
100
AcDbLine
 10
102.0164827655
 20
533.3456184745
 30
0.0
 11
817.8164827655
 21
533.3456184745
 31
0.0
  0
LINE
  5
11B
330
1F
100
AcDbEntity
  8
0
  6
Continuous
 62
     7
370
    25
100
AcDbLine
 10
817.8164827655
 20
69.62214571
 30
0.0
 11
102.0164827655
 21
69.62214571
 31
0.0
  0
ARC
  5
11C
330
1F
100
AcDbEntity
  8
0
  6
Continuous
 62
     7
370
    25
100
AcDbCircle
 10
817.8164827655
 20
90.0838820923
 30
0.0
 40
20.46173638225116
100
AcDbArc
 50
270.0
 51
0.0
  0
LINE
  5
11D
330
1F
100
AcDbEntity
  8
0
  6
Continuous
 62
     7
370
    25
100
AcDbLine
 10
838.2782191478
 20
512.8838820923
 30
0.0
 11
838.2782191478
 21
90.0838820923
 31
0.0
  0
ARC
  5
11E
330
1F
100
AcDbEntity
  8
0
  6
Continuous
 62
     7
370
    25
100
AcDbCircle
 10
102.0164827655
 20
512.8838820923
 30
0.0
 40
20.46173638225112
100
AcDbArc
 50
90.0
 51
180.0
  0
LINE
  5
11F
330
1F
100
AcDbEntity
  8
0
  6
Continuous
 62
     7
370
    25
100
AcDbLine
 10
81.5547463833
 20
90.0838820923
 30
0.0
 11
81.5547463833
 21
512.8838820923
 31
0.0
  0
LINE
  5
120
330
1F
100
AcDbEntity
  8
0
  6
Continuous
 62
     7
370
    25
100
AcDbLine
 10
846.4164827655
 20
550.4838820923
 30
0.0
 11
73.4164827655
 21
550.4838820923
 31
0.0
  0
ARC
  5
121
330
1F
100
AcDbEntity
  8
0
  6
Continuous
 62
     7
370
    25
100
AcDbCircle
 10
846.4164827655
 20
541.4838820923
 30
0.0
 40
9.0
100
AcDbArc
 50
0.0
 51
90.0
  0
LINE
  5
122
330
1F
100
AcDbEntity
  8
0
  6
Continuous
 62
     7
370
    25
100
AcDbLine
 10
855.4164827655
 20
61.4838820923
 30
0.0
 11
855.4164827655
 21
541.4838820923
 31
0.0
  0
ARC
  5
123
330
1F
100
AcDbEntity
  8
0
  6
Continuous
 62
     7
370
    25
100
AcDbCircle
 10
846.4164827655
 20
61.4838820923
 30
0.0
 40
9.000000000000007
100
AcDbArc
 50
270.0
 51
0.0
  0
LINE
  5
124
330
1F
100
AcDbEntity
  8
0
  6
Continuous
 62
     7
370
    25
100
AcDbLine
 10
73.4164827655
 20
52.4838820923
 30
0.0
 11
846.4164827655
 21
52.4838820923
 31
0.0
  0
ARC
  5
125
330
1F
100
AcDbEntity
  8
0
  6
Continuous
 62
     7
370
    25
100
AcDbCircle
 10
73.4164827655
 20
541.4838820923
 30
0.0
 40
9.000000000000014
100
AcDbArc
 50
90.0
 51
180.0
  0
ARC
  5
126
330
1F
100
AcDbEntity
  8
0
  6
Continuous
 62
     7
370
    25
100
AcDbCircle
 10
817.8164827655
 20
90.0838820923
 30
0.0
 40
19.58499408867306
100
AcDbArc
 50
270.0
 51
0.0
  0
LINE
  5
127
330
1F
100
AcDbEntity
  8
0
  6
Continuous
 62
     7
370
    25
100
AcDbLine
 10
837.4014768542
 20
90.0838820923
 30
0.0
 11
838.2782191478
 21
90.0838820923
 31
0.0
  0
LINE
  5
128
330
1F
100
AcDbEntity
  8
0
  6
Continuous
 62
     7
370
    25
100
AcDbLine
 10
817.8164827655
 20
69.62214571
 30
0.0
 11
817.8164827655
 21
70.4988880036
 31
0.0
  0
LINE
  5
129
330
1F
100
AcDbEntity
  8
0
  6
Continuous
 62
     7
370
    25
100
AcDbLine
 10
837.4014768542
 20
90.0838820923
 30
0.0
 11
837.4014768542
 21
512.8838820923
 31
0.0
  0
LINE
  5
12A
330
1F
100
AcDbEntity
  8
0
  6
Continuous
 62
     7
370
    25
100
AcDbLine
 10
102.0164827655
 20
70.4988880036
 30
0.0
 11
817.8164827655
 21
70.4988880036
 31
0.0
  0
LINE
  5
12B
330
1F
100
AcDbEntity
  8
0
  6
Continuous
 62
     7
370
    25
100
AcDbLine
 10
81.5547463833
 20
512.8838820923
 30
0.0
 11
82.4314886768
 21
512.8838820923
 31
0.0
  0
LINE
  5
12C
330
1F
100
AcDbEntity
  8
0
  6
Continuous
 62
     7
370
    25
100
AcDbLine
 10
82.4314886768
 20
512.8838820923
 30
0.0
 11
82.4314886768
 21
90.0838820923
 31
0.0
  0
ARC
  5
12D
330
1F
100
AcDbEntity
  8
0
  6
Continuous
 62
     7
370
    25
100
AcDbCircle
 10
102.0164827655
 20
512.8838820923
 30
0.0
 40
19.58499408867297
100
AcDbArc
 50
90.0
 51
180.0
  0
LINE
  5
12E
330
1F
100
AcDbEntity
  8
0
  6
Continuous
 62
     7
370
    25
100
AcDbLine
 10
855.4164827655
 20
541.4838820923
 30
0.0
 11
856.4164827655
 21
541.4838820923
 31
0.0
  0
LINE
  5
12F
330
1F
100
AcDbEntity
  8
0
  6
Continuous
 62
     7
370
    25
100
AcDbLine
 10
856.4164827655
 20
541.4838820923
 30
0.0
 11
856.4164827655
 21
61.4838820923
 31
0.0
  0
LINE
  5
130
330
1F
100
AcDbEntity
  8
0
  6
Continuous
 62
     7
370
    25
100
AcDbLine
 10
856.4164827655
 20
61.4838820923
 30
0.0
 11
855.4164827655
 21
61.4838820923
 31
0.0
  0
ARC
  5
131
330
1F
100
AcDbEntity
  8
0
  6
Continuous
 62
     7
370
    25
100
AcDbCircle
 10
73.4164827655
 20
541.4838820923
 30
0.0
 40
10.00000000000001
100
AcDbArc
 50
90.0
 51
180.0
  0
LINE
  5
132
330
1F
100
AcDbEntity
  8
0
  6
Continuous
 62
     7
370
    25
100
AcDbLine
 10
73.4164827655
 20
550.4838820923
 30
0.0
 11
73.4164827655
 21
551.4838820923
 31
0.0
  0
LINE
  5
133
330
1F
100
AcDbEntity
  8
0
  6
Continuous
 62
     7
370
    25
100
AcDbLine
 10
846.4164827655
 20
550.4838820923
 30
0.0
 11
846.4164827655
 21
551.4838820923
 31
0.0
  0
ARC
  5
134
330
1F
100
AcDbEntity
  8
0
  6
Continuous
 62
     7
370
    25
100
AcDbCircle
 10
846.4164827655
 20
541.4838820923
 30
0.0
 40
10.0
100
AcDbArc
 50
0.0
 51
90.0
  0
LINE
  5
135
330
1F
100
AcDbEntity
  8
0
  6
Continuous
 62
     7
370
    25
100
AcDbLine
 10
846.4164827655
 20
51.4838820923
 30
0.0
 11
73.4164827655
 21
51.4838820923
 31
0.0
  0
LINE
  5
136
330
1F
100
AcDbEntity
  8
0
  6
Continuous
 62
     7
370
    25
100
AcDbLine
 10
846.4164827655
 20
51.4838820923
 30
0.0
 11
846.4164827655
 21
52.4838820923
 31
0.0
  0
LINE
  5
137
330
1F
100
AcDbEntity
  8
0
  6
Continuous
 62
     7
370
    25
100
AcDbLine
 10
73.4164827655
 20
551.4838820923
 30
0.0
 11
846.4164827655
 21
551.4838820923
 31
0.0
  0
ARC
  5
138
330
1F
100
AcDbEntity
  8
0
  6
Continuous
 62
     7
370
    25
100
AcDbCircle
 10
846.4164827655
 20
61.4838820923
 30
0.0
 40
10.0
100
AcDbArc
 50
270.0
 51
0.0
  0
LINE
  5
139
330
1F
100
AcDbEntity
  8
0
  6
Continuous
 62
     7
370
    25
100
AcDbLine
 10
102.0164827655
 20
529.8108989014
 30
0.0
 11
817.8164827655
 21
529.8108989014
 31
0.0
  0
LINE
  5
13A
330
1F
100
AcDbEntity
  8
0
  6
Continuous
 62
     7
370
    25
100
AcDbLine
 10
102.0164827655
 20
529.8108989014
 30
0.0
 11
102.0164827655
 21
532.4688761809
 31
0.0
  0
LINE
  5
13B
330
1F
100
AcDbEntity
  8
0
  6
Continuous
 62
     7
370
    25
100
AcDbLine
 10
817.8164827655
 20
529.8108989014
 30
0.0
 11
817.8164827655
 21
532.4688761809
 31
0.0
  0
ARC
  5
13C
330
1F
100
AcDbEntity
  8
0
  6
Continuous
 62
     7
370
    25
100
AcDbCircle
 10
102.0164827655
 20
512.8838820923
 30
0.0
 40
16.9270168091366
100
AcDbArc
 50
90.0
 51
180.0
  0
LINE
  5
13D
330
1F
100
AcDbEntity
  8
0
  6
Continuous
 62
     7
370
    25
100
AcDbLine
 10
85.0894659564
 20
512.8838820923
 30
0.0
 11
82.4314886768
 21
512.8838820923
 31
0.0
  0
LINE
  5
13E
330
1F
100
AcDbEntity
  8
0
  6
Continuous
 62
     7
370
    25
100
AcDbLine
 10
85.0894659564
 20
90.0838820923
 30
0.0
 11
85.0894659564
 21
512.8838820923
 31
0.0
  0
LINE
  5
13F
330
1F
100
AcDbEntity
  8
0
  6
Continuous
 62
     7
370
    25
100
AcDbLine
 10
85.0894659564
 20
90.0838820923
 30
0.0
 11
82.4314886768
 21
90.0838820923
 31
0.0
  0
LINE
  5
140
330
1F
100
AcDbEntity
  8
0
  6
Continuous
 62
     7
370
    25
100
AcDbLine
 10
817.8164827655
 20
73.1568652831
 30
0.0
 11
102.0164827655
 21
73.1568652831
 31
0.0
  0
LINE
  5
141
330
1F
100
AcDbEntity
  8
0
  6
Continuous
 62
     7
370
    25
100
AcDbLine
 10
817.8164827655
 20
73.1568652831
 30
0.0
 11
817.8164827655
 21
70.4988880036
 31
0.0
  0
LINE
  5
142
330
1F
100
AcDbEntity
  8
0
  6
Continuous
 62
     7
370
    25
100
AcDbLine
 10
102.0164827655
 20
73.1568652831
 30
0.0
 11
102.0164827655
 21
70.4988880036
 31
0.0
  0
ARC
  5
143
330
1F
100
AcDbEntity
  8
0
  6
Continuous
 62
     7
370
    25
100
AcDbCircle
 10
817.8164827655
 20
512.8838820923
 30
0.0
 40
16.9270168091366
100
AcDbArc
 50
0.0
 51
90.0
  0
LINE
  5
144
330
1F
100
AcDbEntity
  8
0
  6
Continuous
 62
     7
370
    25
100
AcDbLine
 10
834.7434995746
 20
512.8838820923
 30
0.0
 11
837.4014768542
 21
512.8838820923
 31
0.0
  0
ARC
  5
145
330
1F
100
AcDbEntity
  8
0
  6
Continuous
 62
     7
370
    25
100
AcDbCircle
 10
102.0164827655
 20
90.0838820923
 30
0.0
 40
16.92701680913663
100
AcDbArc
 50
180.0
 51
270.0
  0
LINE
  5
146
330
1F
100
AcDbEntity
  8
0
  6
Continuous
 62
     7
370
    25
100
AcDbLine
 10
834.7434995746
 20
512.8838820923
 30
0.0
 11
834.7434995746
 21
90.0838820923
 31
0.0
  0
LINE
  5
147
330
1F
100
AcDbEntity
  8
0
  6
Continuous
 62
     7
370
    25
100
AcDbLine
 10
834.7434995746
 20
90.0838820923
 30
0.0
 11
837.4014768542
 21
90.0838820923
 31
0.0
  0
ARC
  5
148
330
1F
100
AcDbEntity
  8
0
  6
Continuous
 62
     7
370
    25
100
AcDbCircle
 10
817.8164827655
 20
90.0838820923
 30
0.0
 40
16.92701680913672
100
AcDbArc
 50
270.0
 51
0.0
  0
LINE
  5
149
330
1F
100
AcDbEntity
  8
0
  6
Continuous
 62
     7
370
    25
100
AcDbLine
 10
810.5266682455
 20
513.7317237346
 30
0.0
 11
810.5266682455
 21
514.2317237346
 31
0.0
  0
LINE
  5
14A
330
1F
100
AcDbEntity
  8
0
  6
Continuous
 62
     7
370
    25
100
AcDbLine
 10
810.5266682455
 20
514.2317237346
 30
0.0
 11
807.2926502455
 21
514.2317237346
 31
0.0
  0
LINE
  5
14B
330
1F
100
AcDbEntity
  8
0
  6
Continuous
 62
     7
370
    25
100
AcDbLine
 10
807.2926502455
 20
514.2317237346
 30
0.0
 11
807.2926502455
 21
513.7317237346
 31
0.0
  0
LINE
  5
14C
330
1F
100
AcDbEntity
  8
0
  6
Continuous
 62
     7
370
    25
100
AcDbLine
 10
807.2926502455
 20
513.7317237346
 30
0.0
 11
810.5266682455
 21
513.7317237346
 31
0.0
  0
LINE
  5
14D
330
1F
100
AcDbEntity
  8
0
  6
Continuous
 62
     7
370
    25
100
AcDbLine
 10
805.2364827655
 20
517.0011639646
 30
0.0
 11
810.5266682455
 21
517.0011639646
 31
0.0
  0
LINE
  5
14E
330
1F
100
AcDbEntity
  8
0
  6
Continuous
 62
     7
370
    25
100
AcDbLine
 10
805.2364827655
 20
519.3725277546
 30
0.0
 11
805.2364827655
 21
517.0011639646
 31
0.0
  0
LINE
  5
14F
330
1F
100
AcDbEntity
  8
0
  6
Continuous
 62
     7
370
    25
100
AcDbLine
 10
812.1164827655
 20
519.3725277546
 30
0.0
 11
805.2364827655
 21
519.3725277546
 31
0.0
  0
ARC
  5
150
330
1F
100
AcDbEntity
  8
0
  6
Continuous
 62
     7
370
    25
100
AcDbCircle
 10
812.1164827655
 20
518.3725277546
 30
0.0
 40
1.0
100
AcDbArc
 50
0.0
 51
90.0
  0
LINE
  5
151
330
1F
100
AcDbEntity
  8
0
  6
Continuous
 62
     7
370
    25
100
AcDbLine
 10
813.1164827655
 20
512.3603599446
 30
0.0
 11
813.1164827655
 21
518.3725277546
 31
0.0
  0
ARC
  5
152
330
1F
100
AcDbEntity
  8
0
  6
Continuous
 62
     7
370
    25
100
AcDbCircle
 10
812.1164827655
 20
512.3603599446
 30
0.0
 40
1.0
100
AcDbArc
 50
270.0
 51
0.0
  0
LINE
  5
153
330
1F
100
AcDbEntity
  8
0
  6
Continuous
 62
     7
370
    25
100
AcDbLine
 10
805.2364827655
 20
511.3603599446
 30
0.0
 11
812.1164827655
 21
511.3603599446
 31
0.0
  0
LINE
  5
154
330
1F
100
AcDbEntity
  8
0
  6
Continuous
 62
     7
370
    25
100
AcDbLine
 10
805.2364827655
 20
516.5011639646
 30
0.0
 11
805.2364827655
 21
511.3603599446
 31
0.0
  0
LINE
  5
155
330
1F
100
AcDbEntity
  8
0
  6
Continuous
 62
     7
370
    25
100
AcDbLine
 10
810.5266682455
 20
517.0011639646
 30
0.0
 11
810.5266682455
 21
516.5011639646
 31
0.0
  0
LINE
  5
156
330
1F
100
AcDbEntity
  8
0
  6
Continuous
 62
     7
370
    25
100
AcDbLine
 10
810.5266682455
 20
516.5011639646
 30
0.0
 11
805.2364827655
 21
516.5011639646
 31
0.0
  0
LINE
  5
157
330
1F
100
AcDbEntity
  8
0
  6
Continuous
 62
     7
370
    25
100
AcDbLine
 10
779.5964827655
 20
519.3725277546
 30
0.0
 11
772.7164827655
 21
519.3725277546
 31
0.0
  0
LINE
  5
158
330
1F
100
AcDbEntity
  8
0
  6
Continuous
 62
     7
370
    25
100
AcDbLine
 10
779.5964827655
 20
517.0011639646
 30
0.0
 11
779.5964827655
 21
519.3725277546
 31
0.0
  0
LINE
  5
159
330
1F
100
AcDbEntity
  8
0
  6
Continuous
 62
     7
370
    25
100
AcDbLine
 10
774.2950141855
 20
517.0011639646
 30
0.0
 11
779.5964827655
 21
517.0011639646
 31
0.0
  0
LINE
  5
15A
330
1F
100
AcDbEntity
  8
0
  6
Continuous
 62
     7
370
    25
100
AcDbLine
 10
774.2950141855
 20
516.5011639646
 30
0.0
 11
774.2950141855
 21
517.0011639646
 31
0.0
  0
LINE
  5
15B
330
1F
100
AcDbEntity
  8
0
  6
Continuous
 62
     7
370
    25
100
AcDbLine
 10
779.5990543955
 20
516.5011639646
 30
0.0
 11
774.2950141855
 21
516.5011639646
 31
0.0
  0
LINE
  5
15C
330
1F
100
AcDbEntity
  8
0
  6
Continuous
 62
     7
370
    25
100
AcDbLine
 10
779.5990543955
 20
511.3725277546
 30
0.0
 11
779.5990543955
 21
516.5011639646
 31
0.0
  0
LINE
  5
15D
330
1F
100
AcDbEntity
  8
0
  6
Continuous
 62
     7
370
    25
100
AcDbLine
 10
772.7164827655
 20
511.3725277546
 30
0.0
 11
779.5990543955
 21
511.3725277546
 31
0.0
  0
ARC
  5
15E
330
1F
100
AcDbEntity
  8
0
  6
Continuous
 62
     7
370
    25
100
AcDbCircle
 10
772.7164827655
 20
512.3725277546
 30
0.0
 40
1.000000000000114
100
AcDbArc
 50
180.0
 51
270.0
  0
LINE
  5
15F
330
1F
100
AcDbEntity
  8
0
  6
Continuous
 62
     7
370
    25
100
AcDbLine
 10
771.7164827655
 20
513.7317237346
 30
0.0
 11
771.7164827655
 21
512.3725277546
 31
0.0
  0
LINE
  5
160
330
1F
100
AcDbEntity
  8
0
  6
Continuous
 62
     7
370
    25
100
AcDbLine
 10
777.2471460755
 20
514.2317237346
 30
0.0
 11
777.2471460755
 21
513.7317237346
 31
0.0
  0
LINE
  5
161
330
1F
100
AcDbEntity
  8
0
  6
Continuous
 62
     7
370
    25
100
AcDbLine
 10
771.7164827655
 20
514.2317237346
 30
0.0
 11
777.2471460755
 21
514.2317237346
 31
0.0
  0
LINE
  5
162
330
1F
100
AcDbEntity
  8
0
  6
Continuous
 62
     7
370
    25
100
AcDbLine
 10
771.7164827655
 20
518.3725277546
 30
0.0
 11
771.7164827655
 21
514.2317237346
 31
0.0
  0
ARC
  5
163
330
1F
100
AcDbEntity
  8
0
  6
Continuous
 62
     7
370
    25
100
AcDbCircle
 10
772.7164827655
 20
518.3725277546
 30
0.0
 40
1.000000000000114
100
AcDbArc
 50
90.0
 51
180.0
  0
LINE
  5
164
330
1F
100
AcDbEntity
  8
0
  6
Continuous
 62
     7
370
    25
100
AcDbLine
 10
777.2471460755
 20
513.7317237346
 30
0.0
 11
771.7164827655
 21
513.7317237346
 31
0.0
  0
LINE
  5
165
330
1F
100
AcDbEntity
  8
0
  6
Continuous
 62
     7
370
    25
100
AcDbLine
 10
800.6870583055
 20
519.3725277546
 30
0.0
 11
796.8564827655
 21
519.3725277546
 31
0.0
  0
LINE
  5
166
330
1F
100
AcDbEntity
  8
0
  6
Continuous
 62
     7
370
    25
100
AcDbLine
 10
800.6870583055
 20
513.7317237346
 30
0.0
 11
800.6870583055
 21
519.3725277546
 31
0.0
  0
LINE
  5
167
330
1F
100
AcDbEntity
  8
0
  6
Continuous
 62
     7
370
    25
100
AcDbLine
 10
804.7364827655
 20
513.7317237346
 30
0.0
 11
800.6870583055
 21
513.7317237346
 31
0.0
  0
LINE
  5
168
330
1F
100
AcDbEntity
  8
0
  6
Continuous
 62
     7
370
    25
100
AcDbLine
 10
804.7364827655
 20
511.3603599446
 30
0.0
 11
804.7364827655
 21
513.7317237346
 31
0.0
  0
LINE
  5
169
330
1F
100
AcDbEntity
  8
0
  6
Continuous
 62
     7
370
    25
100
AcDbLine
 10
796.8564827655
 20
511.3603599446
 30
0.0
 11
804.7364827655
 21
511.3603599446
 31
0.0
  0
LINE
  5
16A
330
1F
100
AcDbEntity
  8
0
  6
Continuous
 62
     7
370
    25
100
AcDbLine
 10
796.8564827655
 20
519.3725277546
 30
0.0
 11
796.8564827655
 21
511.3603599446
 31
0.0
  0
LINE
  5
16B
330
1F
100
AcDbEntity
  8
0
  6
Continuous
 62
     7
370
    25
100
AcDbLine
 10
786.1873975055
 20
511.3603599446
 30
0.0
 11
786.1873975055
 21
517.0011639646
 31
0.0
  0
LINE
  5
16C
330
1F
100
AcDbEntity
  8
0
  6
Continuous
 62
     7
370
    25
100
AcDbLine
 10
782.3568219655
 20
511.3603599446
 30
0.0
 11
786.1873975055
 21
511.3603599446
 31
0.0
  0
LINE
  5
16D
330
1F
100
AcDbEntity
  8
0
  6
Continuous
 62
     7
370
    25
100
AcDbLine
 10
782.3568219655
 20
517.0011639646
 30
0.0
 11
782.3568219655
 21
511.3603599446
 31
0.0
  0
LINE
  5
16E
330
1F
100
AcDbEntity
  8
0
  6
Continuous
 62
     7
370
    25
100
AcDbLine
 10
786.1873975055
 20
517.0011639646
 30
0.0
 11
787.9764827655
 21
517.0011639646
 31
0.0
  0
LINE
  5
16F
330
1F
100
AcDbEntity
  8
0
  6
Continuous
 62
     7
370
    25
100
AcDbLine
 10
787.9764827655
 20
517.0011639646
 30
0.0
 11
787.9764827655
 21
519.3725277546
 31
0.0
  0
LINE
  5
170
330
1F
100
AcDbEntity
  8
0
  6
Continuous
 62
     7
370
    25
100
AcDbLine
 10
787.9764827655
 20
519.3725277546
 30
0.0
 11
780.0964827655
 21
519.3725277546
 31
0.0
  0
LINE
  5
171
330
1F
100
AcDbEntity
  8
0
  6
Continuous
 62
     7
370
    25
100
AcDbLine
 10
780.0964827655
 20
517.0011639646
 30
0.0
 11
782.3568219655
 21
517.0011639646
 31
0.0
  0
LINE
  5
172
330
1F
100
AcDbEntity
  8
0
  6
Continuous
 62
     7
370
    25
100
AcDbLine
 10
780.0964827655
 20
519.3725277546
 30
0.0
 11
780.0964827655
 21
517.0011639646
 31
0.0
  0
LINE
  5
173
330
1F
100
AcDbEntity
  8
0
  6
Continuous
 62
     7
370
    25
100
AcDbLine
 10
788.4764827655
 20
519.3725277546
 30
0.0
 11
788.4764827655
 21
517.0011639646
 31
0.0
  0
LINE
  5
174
330
1F
100
AcDbEntity
  8
0
  6
Continuous
 62
     7
370
    25
100
AcDbLine
 10
790.8259953855
 20
513.7317237346
 30
0.0
 11
793.9496070155
 21
513.7317237346
 31
0.0
  0
LINE
  5
175
330
1F
100
AcDbEntity
  8
0
  6
Continuous
 62
     7
370
    25
100
AcDbLine
 10
790.8259953855
 20
514.2317237346
 30
0.0
 11
790.8259953855
 21
513.7317237346
 31
0.0
  0
LINE
  5
176
330
1F
100
AcDbEntity
  8
0
  6
Continuous
 62
     7
370
    25
100
AcDbLine
 10
793.9496070155
 20
516.5011639646
 30
0.0
 11
788.4764827655
 21
516.5011639646
 31
0.0
  0
LINE
  5
177
330
1F
100
AcDbEntity
  8
0
  6
Continuous
 62
     7
370
    25
100
AcDbLine
 10
793.9496070155
 20
517.0011639646
 30
0.0
 11
793.9496070155
 21
516.5011639646
 31
0.0
  0
LINE
  5
178
330
1F
100
AcDbEntity
  8
0
  6
Continuous
 62
     7
370
    25
100
AcDbLine
 10
788.4764827655
 20
517.0011639646
 30
0.0
 11
793.9496070155
 21
517.0011639646
 31
0.0
  0
LINE
  5
179
330
1F
100
AcDbEntity
  8
0
  6
Continuous
 62
     7
370
    25
100
AcDbLine
 10
796.3564827655
 20
519.3725277546
 30
0.0
 11
788.4764827655
 21
519.3725277546
 31
0.0
  0
LINE
  5
17A
330
1F
100
AcDbEntity
  8
0
  6
Continuous
 62
     7
370
    25
100
AcDbLine
 10
793.9496070155
 20
514.2317237346
 30
0.0
 11
790.8259953855
 21
514.2317237346
 31
0.0
  0
LINE
  5
17B
330
1F
100
AcDbEntity
  8
0
  6
Continuous
 62
     7
370
    25
100
AcDbLine
 10
793.9496070155
 20
513.7317237346
 30
0.0
 11
793.9496070155
 21
514.2317237346
 31
0.0
  0
LINE
  5
17C
330
1F
100
AcDbEntity
  8
0
  6
Continuous
 62
     7
370
    25
100
AcDbLine
 10
796.3564827655
 20
511.3603599446
 30
0.0
 11
796.3564827655
 21
519.3725277546
 31
0.0
  0
LINE
  5
17D
330
1F
100
AcDbEntity
  8
0
  6
Continuous
 62
     7
370
    25
100
AcDbLine
 10
788.4764827655
 20
516.5011639646
 30
0.0
 11
788.4764827655
 21
511.3603599446
 31
0.0
  0
LINE
  5
17E
330
1F
100
AcDbEntity
  8
0
  6
Continuous
 62
     7
370
    25
100
AcDbLine
 10
788.4764827655
 20
511.3603599446
 30
0.0
 11
796.3564827655
 21
511.3603599446
 31
0.0
  0
ARC
  5
17F
330
1F
100
AcDbEntity
  8
0
  6
Continuous
 62
     7
370
    25
100
AcDbCircle
 10
817.8164827655
 20
90.0838820923
 30
0.0
 40
16.48864566234761
100
AcDbArc
 50
270.0
 51
0.0
  0
LINE
  5
180
330
1F
100
AcDbEntity
  8
0
  6
Continuous
 62
     7
370
    25
100
AcDbLine
 10
834.3051284279
 20
90.0838820923
 30
0.0
 11
834.7434995746
 21
90.0838820923
 31
0.0
  0
LINE
  5
181
330
1F
100
AcDbEntity
  8
0
  6
Continuous
 62
     7
370
    25
100
AcDbLine
 10
817.8164827655
 20
73.1568652831
 30
0.0
 11
817.8164827655
 21
73.5952364299
 31
0.0
  0
LINE
  5
182
330
1F
100
AcDbEntity
  8
0
  6
Continuous
 62
     7
370
    25
100
AcDbLine
 10
834.3051284279
 20
90.0838820923
 30
0.0
 11
834.3051284279
 21
512.8838820923
 31
0.0
  0
LINE
  5
183
330
1F
100
AcDbEntity
  8
0
  6
Continuous
 62
     7
370
    25
100
AcDbLine
 10
834.3051284279
 20
512.8838820923
 30
0.0
 11
834.7434995746
 21
512.8838820923
 31
0.0
  0
LINE
  5
184
330
1F
100
AcDbEntity
  8
0
  6
Continuous
 62
     7
370
    25
100
AcDbLine
 10
102.0164827655
 20
73.1568652831
 30
0.0
 11
102.0164827655
 21
73.5952364299
 31
0.0
  0
LINE
  5
185
330
1F
100
AcDbEntity
  8
0
  6
Continuous
 62
     7
370
    25
100
AcDbLine
 10
102.0164827655
 20
73.5952364299
 30
0.0
 11
817.8164827655
 21
73.5952364299
 31
0.0
  0
LINE
  5
186
330
1F
100
AcDbEntity
  8
0
  6
Continuous
 62
     7
370
    25
100
AcDbLine
 10
817.8164827655
 20
529.3725277546
 30
0.0
 11
102.0164827655
 21
529.3725277546
 31
0.0
  0
LINE
  5
187
330
1F
100
AcDbEntity
  8
0
  6
Continuous
 62
     7
370
    25
100
AcDbLine
 10
102.0164827655
 20
529.3725277546
 30
0.0
 11
102.0164827655
 21
529.8108989014
 31
0.0
  0
LINE
  5
188
330
1F
100
AcDbEntity
  8
0
  6
Continuous
 62
     7
370
    25
100
AcDbLine
 10
817.8164827655
 20
529.3725277546
 30
0.0
 11
817.8164827655
 21
529.8108989014
 31
0.0
  0
LINE
  5
189
330
1F
100
AcDbEntity
  8
0
  6
Continuous
 62
     7
370
    25
100
AcDbLine
 10
85.0894659564
 20
90.0838820923
 30
0.0
 11
85.5278371032
 21
90.0838820923
 31
0.0
  0
ARC
  5
18A
330
1F
100
AcDbEntity
  8
0
  6
Continuous
 62
     7
370
    25
100
AcDbCircle
 10
102.0164827655
 20
90.0838820923
 30
0.0
 40
16.48864566234755
100
AcDbArc
 50
180.0
 51
270.0
  0
ARC
  5
18B
330
1F
100
AcDbEntity
  8
0
  6
Continuous
 62
     7
370
    25
100
AcDbCircle
 10
817.8164827655
 20
512.8838820923
 30
0.0
 40
16.48864566234761
100
AcDbArc
 50
0.0
 51
90.0
  0
ARC
  5
18C
330
1F
100
AcDbEntity
  8
0
  6
Continuous
 62
     7
370
    25
100
AcDbCircle
 10
102.0164827655
 20
512.8838820923
 30
0.0
 40
16.48864566234754
100
AcDbArc
 50
90.0
 51
180.0
  0
LINE
  5
18D
330
1F
100
AcDbEntity
  8
0
  6
Continuous
 62
     7
370
    25
100
AcDbLine
 10
85.0894659564
 20
512.8838820923
 30
0.0
 11
85.5278371032
 21
512.8838820923
 31
0.0
  0
LINE
  5
18E
330
1F
100
AcDbEntity
  8
0
  6
Continuous
 62
     7
370
    25
100
AcDbLine
 10
85.5278371032
 20
512.8838820923
 30
0.0
 11
85.5278371032
 21
90.0838820923
 31
0.0
  0
LINE
  5
18F
330
1F
100
AcDbEntity
  8
0
  6
Continuous
 62
     7
370
    25
100
AcDbLine
 10
149.8964827655
 20
87.4638820923
 30
0.0
 11
389.9964827655
 21
87.4638820923
 31
0.0
  0
LINE
  5
190
330
1F
100
AcDbEntity
  8
0
  6
Continuous
 62
     7
370
    25
100
AcDbLine
 10
389.9964827655
 20
87.4638820923
 30
0.0
 11
389.9964827655
 21
82.4638820923
 31
0.0
  0
LINE
  5
191
330
1F
100
AcDbEntity
  8
0
  6
Continuous
 62
     7
370
    25
100
AcDbLine
 10
389.9964827655
 20
82.4638820923
 30
0.0
 11
149.8964827655
 21
82.4638820923
 31
0.0
  0
LINE
  5
192
330
1F
100
AcDbEntity
  8
0
  6
Continuous
 62
     7
370
    25
100
AcDbLine
 10
149.8964827655
 20
87.4638820923
 30
0.0
 11
149.8964827655
 21
82.4638820923
 31
0.0
  0
ARC
  5
193
330
1F
100
AcDbEntity
  8
0
  6
Continuous
 62
     7
370
    25
100
AcDbCircle
 10
149.8964827655
 20
438.0638820923
 30
0.0
 40
55.50000000000004
100
AcDbArc
 50
90.0
 51
180.0
  0
LINE
  5
194
330
1F
100
AcDbEntity
  8
0
  6
Continuous
 62
     7
370
    25
100
AcDbLine
 10
149.8964827655
 20
493.5638820923
 30
0.0
 11
149.8964827655
 21
488.5638820923
 31
0.0
  0
ARC
  5
195
330
1F
100
AcDbEntity
  8
0
  6
Continuous
 62
     7
370
    25
100
AcDbCircle
 10
149.8964827655
 20
438.0638820923
 30
0.0
 40
50.50000000000004
100
AcDbArc
 50
90.0
 51
180.0
  0
LINE
  5
196
330
1F
100
AcDbEntity
  8
0
  6
Continuous
 62
     7
370
    25
100
AcDbLine
 10
94.3964827655
 20
438.0638820923
 30
0.0
 11
99.3964827655
 21
438.0638820923
 31
0.0
  0
ARC
  5
197
330
1F
100
AcDbEntity
  8
0
  6
Continuous
 62
     7
370
    25
100
AcDbCircle
 10
389.9964827655
 20
438.0638820923
 30
0.0
 40
55.5
100
AcDbArc
 50
0.0
 51
90.0
  0
LINE
  5
198
330
1F
100
AcDbEntity
  8
0
  6
Continuous
 62
     7
370
    25
100
AcDbLine
 10
445.4964827655
 20
438.0638820923
 30
0.0
 11
440.4964827655
 21
438.0638820923
 31
0.0
  0
ARC
  5
199
330
1F
100
AcDbEntity
  8
0
  6
Continuous
 62
     7
370
    25
100
AcDbCircle
 10
389.9964827655
 20
438.0638820923
 30
0.0
 40
50.5
100
AcDbArc
 50
0.0
 51
90.0
  0
LINE
  5
19A
330
1F
100
AcDbEntity
  8
0
  6
Continuous
 62
     7
370
    25
100
AcDbLine
 10
389.9964827655
 20
493.5638820923
 30
0.0
 11
389.9964827655
 21
488.5638820923
 31
0.0
  0
LINE
  5
19B
330
1F
100
AcDbEntity
  8
0
  6
Continuous
 62
     7
370
    25
100
AcDbLine
 10
99.3964827655
 20
438.0638820923
 30
0.0
 11
99.3964827655
 21
137.9638820923
 31
0.0
  0
LINE
  5
19C
330
1F
100
AcDbEntity
  8
0
  6
Continuous
 62
     7
370
    25
100
AcDbLine
 10
99.3964827655
 20
137.9638820923
 30
0.0
 11
94.3964827655
 21
137.9638820923
 31
0.0
  0
LINE
  5
19D
330
1F
100
AcDbEntity
  8
0
  6
Continuous
 62
     7
370
    25
100
AcDbLine
 10
94.3964827655
 20
137.9638820923
 30
0.0
 11
94.3964827655
 21
438.0638820923
 31
0.0
  0
LINE
  5
19E
330
1F
100
AcDbEntity
  8
0
  6
Continuous
 62
     7
370
    25
100
AcDbLine
 10
479.3364827655
 20
438.0638820923
 30
0.0
 11
479.3364827655
 21
137.9638820923
 31
0.0
  0
LINE
  5
19F
330
1F
100
AcDbEntity
  8
0
  6
Continuous
 62
     7
370
    25
100
AcDbLine
 10
479.3364827655
 20
137.9638820923
 30
0.0
 11
474.3364827655
 21
137.9638820923
 31
0.0
  0
LINE
  5
1A0
330
1F
100
AcDbEntity
  8
0
  6
Continuous
 62
     7
370
    25
100
AcDbLine
 10
474.3364827655
 20
137.9638820923
 30
0.0
 11
474.3364827655
 21
438.0638820923
 31
0.0
  0
LINE
  5
1A1
330
1F
100
AcDbEntity
  8
0
  6
Continuous
 62
     7
370
    25
100
AcDbLine
 10
474.3364827655
 20
438.0638820923
 30
0.0
 11
479.3364827655
 21
438.0638820923
 31
0.0
  0
ARC
  5
1A2
330
1F
100
AcDbEntity
  8
0
  6
Continuous
 62
     7
370
    25
100
AcDbCircle
 10
149.8964827655
 20
137.9638820923
 30
0.0
 40
50.50000000000004
100
AcDbArc
 50
180.0
 51
270.0
  0
ARC
  5
1A3
330
1F
100
AcDbEntity
  8
0
  6
Continuous
 62
     7
370
    25
100
AcDbCircle
 10
149.8964827655
 20
137.9638820923
 30
0.0
 40
55.50000000000004
100
AcDbArc
 50
180.0
 51
270.0
  0
LINE
  5
1A4
330
1F
100
AcDbEntity
  8
0
  6
Continuous
 62
     7
370
    25
100
AcDbLine
 10
149.8964827655
 20
493.5638820923
 30
0.0
 11
389.9964827655
 21
493.5638820923
 31
0.0
  0
LINE
  5
1A5
330
1F
100
AcDbEntity
  8
0
  6
Continuous
 62
     7
370
    25
100
AcDbLine
 10
389.9964827655
 20
488.5638820923
 30
0.0
 11
149.8964827655
 21
488.5638820923
 31
0.0
  0
LINE
  5
1A6
330
1F
100
AcDbEntity
  8
0
  6
Continuous
 62
     7
370
    25
100
AcDbLine
 10
440.4964827655
 20
137.9638820923
 30
0.0
 11
440.4964827655
 21
438.0638820923
 31
0.0
  0
LINE
  5
1A7
330
1F
100
AcDbEntity
  8
0
  6
Continuous
 62
     7
370
    25
100
AcDbLine
 10
445.4964827655
 20
438.0638820923
 30
0.0
 11
445.4964827655
 21
137.9638820923
 31
0.0
  0
LINE
  5
1A8
330
1F
100
AcDbEntity
  8
0
  6
Continuous
 62
     7
370
    25
100
AcDbLine
 10
440.4964827655
 20
137.9638820923
 30
0.0
 11
445.4964827655
 21
137.9638820923
 31
0.0
  0
ARC
  5
1A9
330
1F
100
AcDbEntity
  8
0
  6
Continuous
 62
     7
370
    25
100
AcDbCircle
 10
529.8364827655
 20
137.9638820923
 30
0.0
 40
50.49999999999996
100
AcDbArc
 50
180.0
 51
270.0
  0
LINE
  5
1AA
330
1F
100
AcDbEntity
  8
0
  6
Continuous
 62
     7
370
    25
100
AcDbLine
 10
529.8364827655
 20
87.4638820923
 30
0.0
 11
529.8364827655
 21
82.4638820923
 31
0.0
  0
ARC
  5
1AB
330
1F
100
AcDbEntity
  8
0
  6
Continuous
 62
     7
370
    25
100
AcDbCircle
 10
529.8364827655
 20
137.9638820923
 30
0.0
 40
55.49999999999989
100
AcDbArc
 50
180.0
 51
270.0
  0
ARC
  5
1AC
330
1F
100
AcDbEntity
  8
0
  6
Continuous
 62
     7
370
    25
100
AcDbCircle
 10
769.9364827655
 20
438.0638820923
 30
0.0
 40
55.49999999999989
100
AcDbArc
 50
0.0
 51
90.0
  0
LINE
  5
1AD
330
1F
100
AcDbEntity
  8
0
  6
Continuous
 62
     7
370
    25
100
AcDbLine
 10
825.4364827655
 20
438.0638820923
 30
0.0
 11
820.4364827655
 21
438.0638820923
 31
0.0
  0
ARC
  5
1AE
330
1F
100
AcDbEntity
  8
0
  6
Continuous
 62
     7
370
    25
100
AcDbCircle
 10
769.9364827655
 20
438.0638820923
 30
0.0
 40
50.5
100
AcDbArc
 50
0.0
 51
90.0
  0
LINE
  5
1AF
330
1F
100
AcDbEntity
  8
0
  6
Continuous
 62
     7
370
    25
100
AcDbLine
 10
769.9364827655
 20
493.5638820923
 30
0.0
 11
769.9364827655
 21
488.5638820923
 31
0.0
  0
LINE
  5
1B0
330
1F
100
AcDbEntity
  8
0
  6
Continuous
 62
     7
370
    25
100
AcDbLine
 10
529.8364827655
 20
493.5638820923
 30
0.0
 11
769.9364827655
 21
493.5638820923
 31
0.0
  0
LINE
  5
1B1
330
1F
100
AcDbEntity
  8
0
  6
Continuous
 62
     7
370
    25
100
AcDbLine
 10
769.9364827655
 20
488.5638820923
 30
0.0
 11
529.8364827655
 21
488.5638820923
 31
0.0
  0
LINE
  5
1B2
330
1F
100
AcDbEntity
  8
0
  6
Continuous
 62
     7
370
    25
100
AcDbLine
 10
529.8364827655
 20
493.5638820923
 30
0.0
 11
529.8364827655
 21
488.5638820923
 31
0.0
  0
ARC
  5
1B3
330
1F
100
AcDbEntity
  8
0
  6
Continuous
 62
     7
370
    25
100
AcDbCircle
 10
529.8364827655
 20
438.0638820923
 30
0.0
 40
55.49999999999994
100
AcDbArc
 50
90.0
 51
180.0
  0
ARC
  5
1B4
330
1F
100
AcDbEntity
  8
0
  6
Continuous
 62
     7
370
    25
100
AcDbCircle
 10
529.8364827655
 20
438.0638820923
 30
0.0
 40
50.50000000000006
100
AcDbArc
 50
90.0
 51
180.0
  0
ARC
  5
1B5
330
1F
100
AcDbEntity
  8
0
  6
Continuous
 62
     7
370
    25
100
AcDbCircle
 10
389.9964827655
 20
137.9638820923
 30
0.0
 40
50.50000000000006
100
AcDbArc
 50
270.0
 51
0.0
  0
ARC
  5
1B6
330
1F
100
AcDbEntity
  8
0
  6
Continuous
 62
     7
370
    25
100
AcDbCircle
 10
389.9964827655
 20
137.9638820923
 30
0.0
 40
55.5
100
AcDbArc
 50
270.0
 51
0.0
  0
LINE
  5
1B7
330
1F
100
AcDbEntity
  8
0
  6
Continuous
 62
     7
370
    25
100
AcDbLine
 10
769.9364827655
 20
82.4638820923
 30
0.0
 11
529.8364827655
 21
82.4638820923
 31
0.0
  0
ARC
  5
1B8
330
1F
100
AcDbEntity
  8
0
  6
Continuous
 62
     7
370
    25
100
AcDbCircle
 10
769.9364827655
 20
137.9638820923
 30
0.0
 40
55.49999999999991
100
AcDbArc
 50
270.0
 51
0.0
  0
LINE
  5
1B9
330
1F
100
AcDbEntity
  8
0
  6
Continuous
 62
     7
370
    25
100
AcDbLine
 10
825.4364827655
 20
438.0638820923
 30
0.0
 11
825.4364827655
 21
137.9638820923
 31
0.0
  0
CIRCLE
  5
1BA
330
1F
100
AcDbEntity
  8
0
  6
Continuous
 62
     7
370
    25
100
AcDbCircle
 10
459.9164827655
 20
495.5138820923
 30
0.0
 40
17.5
  0
LINE
  5
1BB
330
1F
100
AcDbEntity
  8
0
  6
Continuous
 62
     7
370
    25
100
AcDbLine
 10
820.4364827655
 20
137.9638820923
 30
0.0
 11
820.4364827655
 21
438.0638820923
 31
0.0
  0
LINE
  5
1BC
330
1F
100
AcDbEntity
  8
0
  6
Continuous
 62
     7
370
    25
100
AcDbLine
 10
820.4364827655
 20
137.9638820923
 30
0.0
 11
825.4364827655
 21
137.9638820923
 31
0.0
  0
ARC
  5
1BD
330
1F
100
AcDbEntity
  8
0
  6
Continuous
 62
     7
370
    25
100
AcDbCircle
 10
769.9364827655
 20
137.9638820923
 30
0.0
 40
50.50000000000001
100
AcDbArc
 50
270.0
 51
0.0
  0
LINE
  5
1BE
330
1F
100
AcDbEntity
  8
0
  6
Continuous
 62
     7
370
    25
100
AcDbLine
 10
769.9364827655
 20
87.4638820923
 30
0.0
 11
769.9364827655
 21
82.4638820923
 31
0.0
  0
LINE
  5
1BF
330
1F
100
AcDbEntity
  8
0
  6
Continuous
 62
     7
370
    25
100
AcDbLine
 10
529.8364827655
 20
87.4638820923
 30
0.0
 11
769.9364827655
 21
87.4638820923
 31
0.0
  0
LINE
  5
1C0
330
1F
100
AcDbEntity
  8
0
  6
Continuous
 62
     8
370
    25
100
AcDbLine
 10
819.8864827655
 20
438.0138820923
 30
0.0
 11
820.4364827655
 21
438.0138820923
 31
0.0
  0
LINE
  5
1C1
330
1F
100
AcDbEntity
  8
0
  6
Continuous
 62
     8
370
    25
100
AcDbLine
 10
479.3364827655
 20
438.0138820923
 30
0.0
 11
479.8864827655
 21
438.0138820923
 31
0.0
  0
LINE
  5
1C2
330
1F
100
AcDbEntity
  8
0
  6
Continuous
 62
     8
370
    25
100
AcDbLine
 10
819.8864827655
 20
138.0138820923
 30
0.0
 11
820.4364827655
 21
138.0138820923
 31
0.0
  0
LINE
  5
1C3
330
1F
100
AcDbEntity
  8
0
  6
Continuous
 62
     8
370
    25
100
AcDbLine
 10
479.3364827655
 20
138.0138820923
 30
0.0
 11
479.8864827655
 21
138.0138820923
 31
0.0
  0
LINE
  5
1C4
330
1F
100
AcDbEntity
  8
0
  6
Continuous
 62
     8
370
    25
100
AcDbLine
 10
769.8864827655
 20
88.0138820923
 30
0.0
 11
769.8864827655
 21
87.4638820923
 31
0.0
  0
LINE
  5
1C5
330
1F
100
AcDbEntity
  8
0
  6
Continuous
 62
     8
370
    25
100
AcDbLine
 10
529.8864827655
 20
88.0138820923
 30
0.0
 11
529.8864827655
 21
87.4638820923
 31
0.0
  0
LINE
  5
1C6
330
1F
100
AcDbEntity
  8
0
  6
Continuous
 62
     8
370
    25
100
AcDbLine
 10
149.9464827655
 20
488.0138820923
 30
0.0
 11
149.9464827655
 21
488.5638820923
 31
0.0
  0
LINE
  5
1C7
330
1F
100
AcDbEntity
  8
0
  6
Continuous
 62
     8
370
    25
100
AcDbLine
 10
389.9464827655
 20
488.0138820923
 30
0.0
 11
389.9464827655
 21
488.5638820923
 31
0.0
  0
LINE
  5
1C8
330
1F
100
AcDbEntity
  8
0
  6
Continuous
 62
     8
370
    25
100
AcDbLine
 10
99.9464827655
 20
138.0138820923
 30
0.0
 11
99.3964827655
 21
138.0138820923
 31
0.0
  0
LINE
  5
1C9
330
1F
100
AcDbEntity
  8
0
  6
Continuous
 62
     8
370
    25
100
AcDbLine
 10
99.9464827655
 20
438.0138820923
 30
0.0
 11
99.3964827655
 21
438.0138820923
 31
0.0
  0
LINE
  5
1CA
330
1F
100
AcDbEntity
  8
0
  6
Continuous
 62
     8
370
    25
100
AcDbLine
 10
440.4964827655
 20
138.0138820923
 30
0.0
 11
439.9464827655
 21
138.0138820923
 31
0.0
  0
LINE
  5
1CB
330
1F
100
AcDbEntity
  8
0
  6
Continuous
 62
     8
370
    25
100
AcDbLine
 10
440.4964827655
 20
438.0138820923
 30
0.0
 11
439.9464827655
 21
438.0138820923
 31
0.0
  0
ENDSEC
  0
SECTION
  2
OBJECTS
  0
DICTIONARY
  5
C
330
0
100
AcDbDictionary
281
     1
  3
ACAD_GROUP
350
D
  3
ACAD_LAYOUT
350
1A
  3
ACAD_MLINESTYLE
350
17
  3
ACAD_PLOTSETTINGS
350
19
  3
ACAD_PLOTSTYLENAME
350
E
  3
ACAD_SCALELIST
350
47
  0
DICTIONARY
  5
D
102
{ACAD_REACTORS
330
C
102
}
330
C
100
AcDbDictionary
281
     1
  0
DICTIONARY
  5
1A
102
{ACAD_REACTORS
330
C
102
}
330
C
100
AcDbDictionary
281
     1
  3
Layout1
350
1E
  3
Layout2
350
26
  3
Model
350
22
  0
DICTIONARY
  5
17
102
{ACAD_REACTORS
330
C
102
}
330
C
100
AcDbDictionary
281
     1
  3
Standard
350
18
  0
DICTIONARY
  5
19
102
{ACAD_REACTORS
330
C
102
}
330
C
100
AcDbDictionary
281
     1
  0
ACDBDICTIONARYWDFLT
  5
E
102
{ACAD_REACTORS
330
C
102
}
330
C
100
AcDbDictionary
281
     1
  3
Normal
350
F
100
AcDbDictionaryWithDefault
340
F
  0
DICTIONARY
  5
47
102
{ACAD_REACTORS
330
C
102
}
330
C
100
AcDbDictionary
281
     1
  3
A0
350
48
  3
A1
350
49
  3
A2
350
4A
  3
A3
350
4B
  3
A4
350
4C
  3
A5
350
4D
  3
A6
350
4E
  3
A7
350
4F
  3
A8
350
50
  3
A9
350
51
  3
B0
350
52
  3
B1
350
53
  3
B2
350
54
  3
B3
350
55
  3
B4
350
56
  3
B5
350
57
  3
B6
350
58
  3
B7
350
59
  3
B8
350
5A
  3
B9
350
5B
  3
C0
350
5C
  3
C1
350
5D
  3
C2
350
5E
  3
C3
350
5F
  3
C4
350
60
  3
C5
350
61
  3
C6
350
62
  3
C7
350
63
  3
C8
350
64
  3
C9
350
65
  3
D0
350
66
  3
D1
350
67
  3
D2
350
68
  0
LAYOUT
  5
1E
102
{ACAD_REACTORS
330
1A
102
}
330
1A
100
AcDbPlotSettings
  1

  2
none_device
  4

  6

 40
0.0
 41
0.0
 42
0.0
 43
0.0
 44
0.0
 45
0.0
 46
0.0
 47
0.0
 48
0.0
 49
0.0
140
0.0
141
0.0
142
1.0
143
1.0
 70
   688
 72
     1
 73
     0
 74
     5
  7

 75
    16
147
1.0
148
0.0
149
0.0
100
AcDbLayout
  1
Layout1
 70
     1
 71
     1
 10
0.0
 20
0.0
 11
420.0
 21
297.0
 12
0.0
 22
0.0
 32
0.0
 14
1.0000000000E+20
 24
1.0000000000E+20
 34
1.0000000000E+20
 15
-1.0000000000E+20
 25
-1.0000000000E+20
 35
-1.0000000000E+20
146
0.0
 13
0.0
 23
0.0
 33
0.0
 16
1.0
 26
0.0
 36
0.0
 17
0.0
 27
1.0
 37
0.0
 76
     0
330
1B
  0
LAYOUT
  5
26
102
{ACAD_REACTORS
330
1A
102
}
330
1A
100
AcDbPlotSettings
  1

  2
none_device
  4

  6

 40
0.0
 41
0.0
 42
0.0
 43
0.0
 44
0.0
 45
0.0
 46
0.0
 47
0.0
 48
0.0
 49
0.0
140
0.0
141
0.0
142
1.0
143
1.0
 70
   688
 72
     1
 73
     0
 74
     5
  7

 75
    16
147
1.0
148
0.0
149
0.0
100
AcDbLayout
  1
Layout2
 70
     1
 71
     2
 10
0.0
 20
0.0
 11
0.0
 21
0.0
 12
0.0
 22
0.0
 32
0.0
 14
0.0
 24
0.0
 34
0.0
 15
0.0
 25
0.0
 35
0.0
146
0.0
 13
0.0
 23
0.0
 33
0.0
 16
1.0
 26
0.0
 36
0.0
 17
0.0
 27
1.0
 37
0.0
 76
     0
330
23
  0
LAYOUT
  5
22
102
{ACAD_REACTORS
330
1A
102
}
330
1A
100
AcDbPlotSettings
  1

  2
none_device
  4
Letter_(8.50_x_11.00_Inches)
  6

 40
6.35
 41
6.35
 42
6.35000508
 43
6.35000508
 44
215.9
 45
279.4
 46
0.0
 47
0.0
 48
0.0
 49
0.0
140
0.0
141
0.0
142
1.0
143
1.0
 70
  1712
 72
     1
 73
     0
 74
     0
  7

 75
     0
147
1.0
148
0.0
149
0.0
100
AcDbLayout
  1
Model
 70
     1
 71
     0
 10
0.0
 20
0.0
 11
900.0
 21
600.0
 12
0.0
 22
0.0
 32
0.0
 14
0.0
 24
0.0
 34
0.0
 15
900.0
 25
600.0
 35
0.0
146
0.0
 13
0.0
 23
0.0
 33
0.0
 16
1.0
 26
0.0
 36
0.0
 17
0.0
 27
1.0
 37
0.0
 76
     0
330
1F
331
29
  0
MLINESTYLE
  5
18
102
{ACAD_REACTORS
330
17
102
}
330
17
100
AcDbMlineStyle
  2
Standard
 70
     0
  3

 62
   256
 51
90.0
 52
90.0
 71
     2
 49
0.5
 62
   256
  6
BYLAYER
 49
-0.5
 62
   256
  6
BYLAYER
  0
ACDBPLACEHOLDER
  5
F
102
{ACAD_REACTORS
330
E
102
}
330
E
  0
SCALE
  5
48
102
{ACAD_REACTORS
330
47
102
}
330
47
100
AcDbScale
 70
     0
300
1:1
140
1.0
141
1.0
290
     1
  0
SCALE
  5
49
102
{ACAD_REACTORS
330
47
102
}
330
47
100
AcDbScale
 70
     0
300
1:2
140
1.0
141
2.0
290
     0
  0
SCALE
  5
4A
102
{ACAD_REACTORS
330
47
102
}
330
47
100
AcDbScale
 70
     0
300
1:4
140
1.0
141
4.0
290
     0
  0
SCALE
  5
4B
102
{ACAD_REACTORS
330
47
102
}
330
47
100
AcDbScale
 70
     0
300
1:5
140
1.0
141
5.0
290
     0
  0
SCALE
  5
4C
102
{ACAD_REACTORS
330
47
102
}
330
47
100
AcDbScale
 70
     0
300
1:8
140
1.0
141
8.0
290
     0
  0
SCALE
  5
4D
102
{ACAD_REACTORS
330
47
102
}
330
47
100
AcDbScale
 70
     0
300
1:10
140
1.0
141
10.0
290
     0
  0
SCALE
  5
4E
102
{ACAD_REACTORS
330
47
102
}
330
47
100
AcDbScale
 70
     0
300
1:16
140
1.0
141
16.0
290
     0
  0
SCALE
  5
4F
102
{ACAD_REACTORS
330
47
102
}
330
47
100
AcDbScale
 70
     0
300
1:20
140
1.0
141
20.0
290
     0
  0
SCALE
  5
50
102
{ACAD_REACTORS
330
47
102
}
330
47
100
AcDbScale
 70
     0
300
1:30
140
1.0
141
30.0
290
     0
  0
SCALE
  5
51
102
{ACAD_REACTORS
330
47
102
}
330
47
100
AcDbScale
 70
     0
300
1:40
140
1.0
141
40.0
290
     0
  0
SCALE
  5
52
102
{ACAD_REACTORS
330
47
102
}
330
47
100
AcDbScale
 70
     0
300
1:50
140
1.0
141
50.0
290
     0
  0
SCALE
  5
53
102
{ACAD_REACTORS
330
47
102
}
330
47
100
AcDbScale
 70
     0
300
1:100
140
1.0
141
100.0
290
     0
  0
SCALE
  5
54
102
{ACAD_REACTORS
330
47
102
}
330
47
100
AcDbScale
 70
     0
300
2:1
140
2.0
141
1.0
290
     0
  0
SCALE
  5
55
102
{ACAD_REACTORS
330
47
102
}
330
47
100
AcDbScale
 70
     0
300
4:1
140
4.0
141
1.0
290
     0
  0
SCALE
  5
56
102
{ACAD_REACTORS
330
47
102
}
330
47
100
AcDbScale
 70
     0
300
8:1
140
8.0
141
1.0
290
     0
  0
SCALE
  5
57
102
{ACAD_REACTORS
330
47
102
}
330
47
100
AcDbScale
 70
     0
300
10:1
140
10.0
141
1.0
290
     0
  0
SCALE
  5
58
102
{ACAD_REACTORS
330
47
102
}
330
47
100
AcDbScale
 70
     0
300
100:1
140
100.0
141
1.0
290
     0
  0
SCALE
  5
59
102
{ACAD_REACTORS
330
47
102
}
330
47
100
AcDbScale
 70
     0
300
1/128" = 1'-0"
140
0.0078125
141
12.0
290
     0
  0
SCALE
  5
5A
102
{ACAD_REACTORS
330
47
102
}
330
47
100
AcDbScale
 70
     0
300
1/64" = 1'-0"
140
0.015625
141
12.0
290
     0
  0
SCALE
  5
5B
102
{ACAD_REACTORS
330
47
102
}
330
47
100
AcDbScale
 70
     0
300
1/32" = 1'-0"
140
0.03125
141
12.0
290
     0
  0
SCALE
  5
5C
102
{ACAD_REACTORS
330
47
102
}
330
47
100
AcDbScale
 70
     0
300
1/16" = 1'-0"
140
0.0625
141
12.0
290
     0
  0
SCALE
  5
5D
102
{ACAD_REACTORS
330
47
102
}
330
47
100
AcDbScale
 70
     0
300
3/32" = 1'-0"
140
0.09375
141
12.0
290
     0
  0
SCALE
  5
5E
102
{ACAD_REACTORS
330
47
102
}
330
47
100
AcDbScale
 70
     0
300
1/8" = 1'-0"
140
0.125
141
12.0
290
     0
  0
SCALE
  5
5F
102
{ACAD_REACTORS
330
47
102
}
330
47
100
AcDbScale
 70
     0
300
3/16" = 1'-0"
140
0.1875
141
12.0
290
     0
  0
SCALE
  5
60
102
{ACAD_REACTORS
330
47
102
}
330
47
100
AcDbScale
 70
     0
300
1/4" = 1'-0"
140
0.25
141
12.0
290
     0
  0
SCALE
  5
61
102
{ACAD_REACTORS
330
47
102
}
330
47
100
AcDbScale
 70
     0
300
3/8" = 1'-0"
140
0.375
141
12.0
290
     0
  0
SCALE
  5
62
102
{ACAD_REACTORS
330
47
102
}
330
47
100
AcDbScale
 70
     0
300
1/2" = 1'-0"
140
0.5
141
12.0
290
     0
  0
SCALE
  5
63
102
{ACAD_REACTORS
330
47
102
}
330
47
100
AcDbScale
 70
     0
300
3/4" = 1'-0"
140
0.75
141
12.0
290
     0
  0
SCALE
  5
64
102
{ACAD_REACTORS
330
47
102
}
330
47
100
AcDbScale
 70
     0
300
1" = 1'-0"
140
1.0
141
12.0
290
     0
  0
SCALE
  5
65
102
{ACAD_REACTORS
330
47
102
}
330
47
100
AcDbScale
 70
     0
300
1-1/2" = 1'-0"
140
1.5
141
12.0
290
     0
  0
SCALE
  5
66
102
{ACAD_REACTORS
330
47
102
}
330
47
100
AcDbScale
 70
     0
300
3" = 1'-0"
140
3.0
141
12.0
290
     0
  0
SCALE
  5
67
102
{ACAD_REACTORS
330
47
102
}
330
47
100
AcDbScale
 70
     0
300
6" = 1'-0"
140
6.0
141
12.0
290
     0
  0
SCALE
  5
68
102
{ACAD_REACTORS
330
47
102
}
330
47
100
AcDbScale
 70
     0
300
1'-0" = 1'-0"
140
12.0
141
12.0
290
     0
  0
ENDSEC
  0
EOF
