  0
SECTION
  2
HEADER
  9
$ACADVER
  1
AC1015
  9
$ACADMAINTVER
 70
     6
  9
$DWGCODEPAGE
  3
ANSI_1252
  9
$INSBASE
 10
0.0
 20
0.0
 30
0.0
  9
$EXTMIN
 10
0.0
 20
0.0
 30
0.0
  9
$EXTMAX
 10
800.0
 20
600.0
 30
0.0
  9
$LIMMIN
 10
0.0
 20
0.0
  9
$LIMMAX
 10
800.0
 20
600.0
  9
$ORTHOMODE
 70
     0
  9
$REGENMODE
 70
     1
  9
$FILLMODE
 70
     1
  9
$QTEXTMODE
 70
     0
  9
$MIRRTEXT
 70
     1
  9
$LTSCALE
 40
1.0
  9
$ATTMODE
 70
     1
  9
$TEXTSIZE
 40
5.0
  9
$TRACEWID
 40
1.0
  9
$TEXTSTYLE
  7
Standard
  9
$CLAYER
  8
0
  9
$CELTYPE
  6
ByLayer
  9
$CECOLOR
 62
   256
  9
$CELTSCALE
 40
1.0
  9
$DISPSILH
 70
     0
  9
$DIMSCALE
 40
1.0
  9
$DIMASZ
 40
6.0
  9
$DIMEXO
 40
1.0
  9
$DIMDLI
 40
3.75
  9
$DIMRND
 40
0.0
  9
$DIMDLE
 40
0.0
  9
$DIMEXE
 40
1.0
  9
$DIMTP
 40
0.0
  9
$DIMTM
 40
0.0
  9
$DIMTXT
 40
5.0
  9
$DIMCEN
 40
2.5
  9
$DIMTSZ
 40
0.0
  9
$DIMTOL
 70
     0
  9
$DIMLIM
 70
     0
  9
$DIMTIH
 70
     1
  9
$DIMTOH
 70
     1
  9
$DIMSE1
 70
     0
  9
$DIMSE2
 70
     0
  9
$DIMTAD
 70
     1
  9
$DIMZIN
 70
     0
  9
$DIMBLK
  1

  9
$DIMASO
 70
     1
  9
$DIMSHO
 70
     1
  9
$DIMPOST
  1

  9
$DIMAPOST
  1

  9
$DIMALT
 70
     0
  9
$DIMALTD
 70
     3
  9
$DIMALTF
 40
0.0393700787
  9
$DIMLFAC
 40
1.0
  9
$DIMTOFL
 70
     1
  9
$DIMTVP
 40
0.0
  9
$DIMTIX
 70
     0
  9
$DIMSOXD
 70
     0
  9
$DIMSAH
 70
     0
  9
$DIMBLK1
  1

  9
$DIMBLK2
  1

  9
$DIMSTYLE
  2
ISO-25
  9
$DIMCLRD
 70
     0
  9
$DIMCLRE
 70
     0
  9
$DIMCLRT
 70
     0
  9
$DIMTFAC
 40
1.0
  9
$DIMGAP
 40
1.524
  9
$DIMJUST
 70
     0
  9
$DIMSD1
 70
     0
  9
$DIMSD2
 70
     0
  9
$DIMTOLJ
 70
     0
  9
$DIMTZIN
 70
     0
  9
$DIMALTZ
 70
     0
  9
$DIMALTTZ
 70
     0
  9
$DIMUPT
 70
     0
  9
$DIMDEC
 70
     2
  9
$DIMTDEC
 70
     2
  9
$DIMALTU
 70
     2
  9
$DIMALTTD
 70
     3
  9
$DIMTXSTY
  7
Standard
  9
$DIMAUNIT
 70
     0
  9
$DIMADEC
 70
     2
  9
$DIMALTRND
 40
0.0
  9
$DIMAZIN
 70
     0
  9
$DIMDSEP
 70
    44
  9
$DIMATFIT
 70
     3
  9
$DIMFRAC
 70
     0
  9
$DIMLDRBLK
  1

  9
$DIMLUNIT
 70
     2
  9
$DIMLWD
 70
    -2
  9
$DIMLWE
 70
    -2
  9
$DIMTMOVE
 70
     0
  9
$LUNITS
 70
     2
  9
$LUPREC
 70
     2
  9
$SKETCHINC
 40
1.0
  9
$FILLETRAD
 40
10.0
  9
$AUNITS
 70
     0
  9
$AUPREC
 70
     2
  9
$MENU
  1
.
  9
$ELEVATION
 40
0.0
  9
$PELEVATION
 40
0.0
  9
$THICKNESS
 40
0.0
  9
$LIMCHECK
 70
     0
  9
$CHAMFERA
 40
0.0
  9
$CHAMFERB
 40
0.0
  9
$CHAMFERC
 40
0.0
  9
$CHAMFERD
 40
0.0
  9
$SKPOLY
 70
     0
  9
$TDCREATE
 40
2459347.546122072
  9
$TDUCREATE
 40
2459347.421122072
  9
$TDUPDATE
 40
2459347.54612529
  9
$TDUUPDATE
 40
2459347.42112529
  9
$TDINDWG
 40
0.0000000116
  9
$TDUSRTIMER
 40
0.0000000116
  9
$USRTIMER
 70
     1
  9
$ANGBASE
 50
0.0
  9
$ANGDIR
 70
     0
  9
$PDMODE
 70
     0
  9
$PDSIZE
 40
-1.0
  9
$PLINEWID
 40
0.0
  9
$SPLFRAME
 70
     0
  9
$SPLINETYPE
 70
     6
  9
$SPLINESEGS
 70
     8
  9
$HANDSEED
  5
2BD
  9
$SURFTAB1
 70
     6
  9
$SURFTAB2
 70
     6
  9
$SURFTYPE
 70
     6
  9
$SURFU
 70
     6
  9
$SURFV
 70
     6
  9
$UCSBASE
  2

  9
$UCSNAME
  2

  9
$UCSORG
 10
0.0
 20
0.0
 30
0.0
  9
$UCSXDIR
 10
1.0
 20
0.0
 30
0.0
  9
$UCSYDIR
 10
0.0
 20
1.0
 30
0.0
  9
$UCSORTHOREF
  2

  9
$UCSORTHOVIEW
 70
     0
  9
$UCSORGTOP
 10
0.0
 20
0.0
 30
0.0
  9
$UCSORGBOTTOM
 10
0.0
 20
0.0
 30
0.0
  9
$UCSORGLEFT
 10
0.0
 20
0.0
 30
0.0
  9
$UCSORGRIGHT
 10
0.0
 20
0.0
 30
0.0
  9
$UCSORGFRONT
 10
0.0
 20
0.0
 30
0.0
  9
$UCSORGBACK
 10
0.0
 20
0.0
 30
0.0
  9
$PUCSBASE
  2

  9
$PUCSNAME
  2

  9
$PUCSORG
 10
0.0
 20
0.0
 30
0.0
  9
$PUCSXDIR
 10
1.0
 20
0.0
 30
0.0
  9
$PUCSYDIR
 10
0.0
 20
1.0
 30
0.0
  9
$PUCSORTHOREF
  2

  9
$PUCSORTHOVIEW
 70
     0
  9
$PUCSORGTOP
 10
0.0
 20
0.0
 30
0.0
  9
$PUCSORGBOTTOM
 10
0.0
 20
0.0
 30
0.0
  9
$PUCSORGLEFT
 10
0.0
 20
0.0
 30
0.0
  9
$PUCSORGRIGHT
 10
0.0
 20
0.0
 30
0.0
  9
$PUCSORGFRONT
 10
0.0
 20
0.0
 30
0.0
  9
$PUCSORGBACK
 10
0.0
 20
0.0
 30
0.0
  9
$USERI1
 70
     0
  9
$USERI2
 70
     0
  9
$USERI3
 70
     0
  9
$USERI4
 70
     0
  9
$USERI5
 70
     0
  9
$USERR1
 40
0.0
  9
$USERR2
 40
0.0
  9
$USERR3
 40
0.0
  9
$USERR4
 40
0.0
  9
$USERR5
 40
0.0
  9
$WORLDVIEW
 70
     1
  9
$SHADEDGE
 70
     3
  9
$SHADEDIF
 70
    70
  9
$TILEMODE
 70
     1
  9
$MAXACTVP
 70
    64
  9
$PINSBASE
 10
0.0
 20
0.0
 30
0.0
  9
$PLIMCHECK
 70
     0
  9
$PEXTMIN
 10
1.0000000000E+20
 20
1.0000000000E+20
 30
1.0000000000E+20
  9
$PEXTMAX
 10
-1.0000000000E+20
 20
-1.0000000000E+20
 30
-1.0000000000E+20
  9
$PLIMMIN
 10
0.0
 20
0.0
  9
$PLIMMAX
 10
420.0
 20
297.0
  9
$UNITMODE
 70
     0
  9
$VISRETAIN
 70
     1
  9
$PLINEGEN
 70
     0
  9
$PSLTSCALE
 70
     1
  9
$TREEDEPTH
 70
  3020
  9
$CMLSTYLE
  2
Standard
  9
$CMLJUST
 70
     0
  9
$CMLSCALE
 40
20.0
  9
$PROXYGRAPHICS
 70
     1
  9
$MEASUREMENT
 70
     1
  9
$CELWEIGHT
370
    -1
  9
$ENDCAPS
280
     0
  9
$JOINSTYLE
280
     0
  9
$LWDISPLAY
290
     1
  9
$INSUNITS
 70
     4
  9
$HYPERLINKBASE
  1

  9
$STYLESHEET
  1

  9
$XEDIT
290
     1
  9
$CEPSNTYPE
380
     0
  9
$PSTYLEMODE
290
     1
  9
$FINGERPRINTGUID
  2
{074cd525-4783-4e04-98a7-cbc7f25d8ecf}
  9
$VERSIONGUID
  2
{FAEB1C32-E019-11D5-929B-00C0DF256EC4}
  9
$EXTNAMES
290
     1
  9
$PSVPSCALE
 40
0.0
  9
$OLESTARTUP
290
     0
  0
ENDSEC
  0
SECTION
  2
CLASSES
  0
CLASS
  1
ACDBDICTIONARYWDFLT
  2
AcDbDictionaryWithDefault
  3
ObjectDBX Classes
 90
        0
280
     0
281
     0
  0
CLASS
  1
VISUALSTYLE
  2
AcDbVisualStyle
  3
ObjectDBX Classes
 90
     4095
280
     0
281
     0
  0
CLASS
  1
MATERIAL
  2
AcDbMaterial
  3
ObjectDBX Classes
 90
     1153
280
     0
281
     0
  0
CLASS
  1
SCALE
  2
AcDbScale
  3
ObjectDBX Classes
 90
     1153
280
     0
281
     0
  0
CLASS
  1
TABLESTYLE
  2
AcDbTableStyle
  3
ObjectDBX Classes
 90
     4095
280
     0
281
     0
  0
CLASS
  1
MLEADERSTYLE
  2
AcDbMLeaderStyle
  3
ACDB_MLEADERSTYLE_CLASS
 90
     4095
280
     0
281
     0
  0
CLASS
  1
SUN
  2
AcDbSun
  3
SCENEOE
 90
     1153
280
     0
281
     0
  0
CLASS
  1
ACDBPLACEHOLDER
  2
AcDbPlaceHolder
  3
ObjectDBX Classes
 90
        0
280
     0
281
     0
  0
CLASS
  1
LAYOUT
  2
AcDbLayout
  3
ObjectDBX Classes
 90
        0
280
     0
281
     0
  0
ENDSEC
  0
SECTION
  2
TABLES
  0
TABLE
  2
VPORT
  5
8
330
0
100
AcDbSymbolTable
 70
     1
  0
VPORT
  5
29
330
8
100
AcDbSymbolTableRecord
100
AcDbViewportTableRecord
  2
*Active
 70
     0
 10
0.0
 20
0.0
 11
1.0
 21
1.0
 12
400.0
 22
300.0
 13
0.0
 23
0.0
 14
10.0
 24
10.0
 15
10.0
 25
10.0
 16
0.0
 26
0.0
 36
1.0
 17
0.0
 27
0.0
 37
0.0
 40
600.0
 41
1.3333333333
 42
50.0
 43
0.0
 44
0.0
 50
0.0
 51
0.0
 71
     0
 72
  2000
 73
     1
 74
     3
 75
     0
 76
     0
 77
     0
 78
     0
281
     0
 65
     1
110
0.0
120
0.0
130
0.0
111
1.0
121
0.0
131
0.0
112
0.0
122
1.0
132
0.0
 79
     0
146
0.0
  0
ENDTAB
  0
TABLE
  2
LTYPE
  5
5
330
0
100
AcDbSymbolTable
 70
     6
  0
LTYPE
  5
14
330
5
100
AcDbSymbolTableRecord
100
AcDbLinetypeTableRecord
  2
ByBlock
 70
     0
  3

 72
    65
 73
     0
 40
0.0
  0
LTYPE
  5
15
330
5
100
AcDbSymbolTableRecord
100
AcDbLinetypeTableRecord
  2
ByLayer
 70
     0
  3

 72
    65
 73
     0
 40
0.0
  0
LTYPE
  5
16
330
5
100
AcDbSymbolTableRecord
100
AcDbLinetypeTableRecord
  2
Continuous
 70
     0
  3
Solid line
 72
    65
 73
     0
 40
0.0
  0
LTYPE
  5
6E
330
5
100
AcDbSymbolTableRecord
100
AcDbLinetypeTableRecord
  2
HIDDEN
 70
     0
  3
Hidden __ __ __ __ __ __ __ __ __ __ __ __ __ __
 72
    65
 73
     2
 40
1.905
 49
1.27
 74
     0
 49
-0.635
 74
     0
  0
LTYPE
  5
6F
330
5
100
AcDbSymbolTableRecord
100
AcDbLinetypeTableRecord
  2
PHANTOM
 70
     0
  3
Phantom ______  __  __  ______  __  __  ______
 72
    65
 73
     6
 40
12.7
 49
6.35
 74
     0
 49
-1.27
 74
     0
 49
1.27
 74
     0
 49
-1.27
 74
     0
 49
1.27
 74
     0
 49
-1.27
 74
     0
  0
LTYPE
  5
70
330
5
100
AcDbSymbolTableRecord
100
AcDbLinetypeTableRecord
  2
CENTER
 70
     0
  3
Center ____ _ ____ _ ____ _ ____ _ ____ _ ____
 72
    65
 73
     4
 40
10.16
 49
6.35
 74
     0
 49
-1.27
 74
     0
 49
1.27
 74
     0
 49
-1.27
 74
     0
  0
LTYPE
  5
71
330
5
100
AcDbSymbolTableRecord
100
AcDbLinetypeTableRecord
  2
CENTERX2
 70
     0
  3
Center (2x) ________  __  ________  __  _____
 72
    65
 73
     4
 40
20.32
 49
12.7
 74
     0
 49
-2.54
 74
     0
 49
2.54
 74
     0
 49
-2.54
 74
     0
  0
LTYPE
  5
72
330
5
100
AcDbSymbolTableRecord
100
AcDbLinetypeTableRecord
  2
DOT2
 70
     0
  3
Dot (.5x) ........................................
 72
    65
 73
     2
 40
0.635
 49
0.0
 74
     0
 49
-0.635
 74
     0
  0
ENDTAB
  0
TABLE
  2
LAYER
  5
2
330
0
100
AcDbSymbolTable
 70
     2
  0
LAYER
  5
10
330
2
100
AcDbSymbolTableRecord
100
AcDbLayerTableRecord
  2
0
 70
     0
 62
     7
  6
Continuous
370
    -3
390
F
  0
LAYER
  5
73
330
2
100
AcDbSymbolTableRecord
100
AcDbLayerTableRecord
  2
TABLE_BL1
 70
     0
 62
   179
  6
Continuous
370
    -3
390
F
  0
ENDTAB
  0
TABLE
  2
STYLE
  5
3
330
0
100
AcDbSymbolTable
 70
     1
  0
STYLE
  5
11
330
3
100
AcDbSymbolTableRecord
100
AcDbTextStyleTableRecord
  2
Standard
 70
     0
 40
0.0
 41
1.0
 50
0.0
 71
     0
 42
5.0
  3
txt
  4

  0
ENDTAB
  0
TABLE
  2
VIEW
  5
6
330
0
100
AcDbSymbolTable
 70
     0
  0
ENDTAB
  0
TABLE
  2
UCS
  5
7
330
0
100
AcDbSymbolTable
 70
     0
  0
ENDTAB
  0
TABLE
  2
APPID
  5
9
330
0
100
AcDbSymbolTable
 70
     1
  0
APPID
  5
12
330
9
100
AcDbSymbolTableRecord
100
AcDbRegAppTableRecord
  2
ACAD
 70
     0
  0
ENDTAB
  0
TABLE
  2
DIMSTYLE
  5
A
330
0
100
AcDbSymbolTable
 70
     1
100
AcDbDimStyleTable
  0
DIMSTYLE
105
27
330
A
100
AcDbSymbolTableRecord
100
AcDbDimStyleTableRecord
  2
ISO-25
 70
     0
 41
2.5
 42
0.625
 43
3.75
 44
1.25
 73
     0
 74
     0
 77
     1
 78
     8
140
2.5
141
2.5
143
0.0393700787
147
0.625
171
     3
172
     1
178
     0
271
     2
272
     2
274
     3
278
    44
283
     0
284
     8
340
11
  0
ENDTAB
  0
TABLE
  2
BLOCK_RECORD
  5
1
330
0
100
AcDbSymbolTable
 70
     1
  0
BLOCK_RECORD
  5
1F
330
1
100
AcDbSymbolTableRecord
100
AcDbBlockTableRecord
  2
*Model_Space
340
22
  0
BLOCK_RECORD
  5
1B
330
1
100
AcDbSymbolTableRecord
100
AcDbBlockTableRecord
  2
*Paper_Space
340
1E
  0
BLOCK_RECORD
  5
23
330
1
100
AcDbSymbolTableRecord
100
AcDbBlockTableRecord
  2
*Paper_Space0
340
26
  0
ENDTAB
  0
ENDSEC
  0
SECTION
  2
BLOCKS
  0
BLOCK
  5
20
330
1F
100
AcDbEntity
  8
0
100
AcDbBlockBegin
  2
*Model_Space
 70
     0
 10
0.0
 20
0.0
 30
0.0
  3
*Model_Space
  1

  0
ENDBLK
  5
21
330
1F
100
AcDbEntity
  8
0
100
AcDbBlockEnd
  0
BLOCK
  5
1C
330
1B
100
AcDbEntity
 67
     1
  8
0
100
AcDbBlockBegin
  2
*Paper_Space
 70
     0
 10
0.0
 20
0.0
 30
0.0
  3
*Paper_Space
  1

  0
ENDBLK
  5
1D
330
1B
100
AcDbEntity
 67
     1
  8
0
100
AcDbBlockEnd
  0
BLOCK
  5
24
330
23
100
AcDbEntity
  8
0
100
AcDbBlockBegin
  2
*Paper_Space0
 70
     0
 10
0.0
 20
0.0
 30
0.0
  3
*Paper_Space0
  1

  0
ENDBLK
  5
25
330
23
100
AcDbEntity
  8
0
100
AcDbBlockEnd
  0
ENDSEC
  0
SECTION
  2
ENTITIES
  0
SPLINE
  5
74
330
1F
100
AcDbEntity
  8
0
  6
Continuous
 62
     7
370
    25
100
AcDbSpline
210
0.0
220
0.0
230
1.0
 70
     8
 71
     3
 72
    30
 73
    26
 74
     0
 42
0.000000001
 43
0.00000001
 40
0.0
 40
0.0
 40
0.0
 40
0.0
 40
0.0440718792517268
 40
0.0863222760364016
 40
0.1247550287247631
 40
0.1574398144805457
 40
0.1924922544366462
 40
0.2274789655244115
 40
0.2631791657725299
 40
0.3175032211310716
 40
0.3728779180127647
 40
0.4287700454222966
 40
0.4844755681042728
 40
0.5406069250903104
 40
0.5965926197962067
 40
0.6515116474233524
 40
0.7043020288162537
 40
0.7297241976450747
 40
0.754410533624729
 40
0.7811719176707894
 40
0.815841004017165
 40
0.8570911879391322
 40
0.9029572057844759
 40
0.9512878525698604
 40
1.0
 40
1.0
 40
1.0
 40
1.0
 10
401.9843253117947
 20
287.3655701550578
 30
0.0
 10
403.5763495126531
 20
288.0762101134782
 30
0.0
 10
406.6945998540596
 20
289.4681194147103
 30
0.0
 10
410.8010032858059
 20
292.2316560538065
 30
0.0
 10
414.2038982674197
 20
295.1541929282887
 30
0.0
 10
417.0590299298471
 20
298.2360962309579
 30
0.0
 10
419.4913812668171
 20
301.4932635133804
 30
0.0
 10
421.6115904213538
 20
305.1012736453546
 30
0.0
 10
423.6304856593433
 20
309.6173130642256
 30
0.0
 10
425.2200613321816
 20
315.1663036816489
 30
0.0
 10
425.9189453080053
 20
321.7017680987588
 30
0.0
 10
425.4667090343235
 20
328.3151502311139
 30
0.0
 10
423.8603814360632
 20
334.7768439606861
 30
0.0
 10
421.1473739439137
 20
340.8621782477744
 30
0.0
 10
417.4271375670248
 20
346.3518615009383
 30
0.0
 10
412.9053661667272
 20
351.0168218499897
 30
0.0
 10
408.6405903827313
 20
354.137034875427
 30
0.0
 10
405.0883179183501
 20
356.1185500671025
 30
0.0
 10
402.3261006748781
 20
357.3860978769769
 30
0.0
 10
399.12679508696
 20
358.5520420649909
 30
0.0
 10
395.1928789794302
 20
359.5687375531844
 30
0.0
 10
390.411469437958
 20
360.2148411314579
 30
0.0
 10
385.0478959703695
 20
360.1872222222281
 30
0.0
 10
379.4280311982019
 20
359.3806326690722
 30
0.0
 10
375.8022546966374
 20
358.1152906752381
 30
0.0
 10
373.9822395072489
 20
357.4801324829019
 30
0.0
  0
SPLINE
  5
75
330
1F
100
AcDbEntity
  8
0
  6
Continuous
 62
     7
370
    25
100
AcDbSpline
210
0.0
220
0.0
230
1.0
 70
     8
 71
     3
 72
    30
 73
    26
 74
     0
 42
0.000000001
 43
0.00000001
 40
0.0
 40
0.0
 40
0.0
 40
0.0
 40
0.0440718792517268
 40
0.0863222760364016
 40
0.1247550287247631
 40
0.1574398144805457
 40
0.1924922544366462
 40
0.2274789655244116
 40
0.2631791657725299
 40
0.3175032211310715
 40
0.3728779180127646
 40
0.4287700454222966
 40
0.4844755681042728
 40
0.5406069250903103
 40
0.5965926197962067
 40
0.6515116474233525
 40
0.704302028816254
 40
0.7297241976450748
 40
0.7544105336247293
 40
0.7811719176707896
 40
0.8158410040171652
 40
0.8570911879391324
 40
0.902957205784476
 40
0.9512878525698605
 40
1.0
 40
1.0
 40
1.0
 40
1.0
 10
373.9822395072489
 20
357.4801324829019
 30
0.0
 10
372.3902153063906
 20
356.7694925244815
 30
0.0
 10
369.2719649649841
 20
355.3775832232494
 30
0.0
 10
365.1655615332378
 20
352.6140465841532
 30
0.0
 10
361.762666551624
 20
349.691509709671
 30
0.0
 10
358.9075348891967
 20
346.6096064070017
 30
0.0
 10
356.4751835522266
 20
343.3524391245792
 30
0.0
 10
354.3549743976899
 20
339.7444289926051
 30
0.0
 10
352.3360791597004
 20
335.228389573734
 30
0.0
 10
350.7465034868621
 20
329.6793989563108
 30
0.0
 10
350.0476195110384
 20
323.1439345392009
 30
0.0
 10
350.4998557847203
 20
316.5305524068459
 30
0.0
 10
352.1061833829805
 20
310.0688586772736
 30
0.0
 10
354.8191908751299
 20
303.9835243901853
 30
0.0
 10
358.539427252019
 20
298.4938411370214
 30
0.0
 10
363.0611986523166
 20
293.82888078797
 30
0.0
 10
367.3259744363124
 20
290.7086677625327
 30
0.0
 10
370.8782469006936
 20
288.7271525708572
 30
0.0
 10
373.6404641441655
 20
287.4596047609828
 30
0.0
 10
376.8397697320837
 20
286.2936605729688
 30
0.0
 10
380.7736858396135
 20
285.2769650847753
 30
0.0
 10
385.5550953810857
 20
284.6308615065018
 30
0.0
 10
390.9186688486742
 20
284.6584804157316
 30
0.0
 10
396.5385336208417
 20
285.4650699688875
 30
0.0
 10
400.1643101224063
 20
286.7304119627216
 30
0.0
 10
401.9843253117947
 20
287.3655701550578
 30
0.0
  0
ARC
  5
76
330
1F
100
AcDbEntity
  8
0
  6
Continuous
 62
     7
370
    25
100
AcDbCircle
 10
387.9832824095
 20
322.422851319
 30
0.0
 40
36.43501790566288
100
AcDbArc
 50
111.7705904009
 51
291.770590384
  0
ARC
  5
77
330
1F
100
AcDbEntity
  8
0
  6
Continuous
 62
     7
370
    25
100
AcDbCircle
 10
387.9832824095
 20
322.422851319
 30
0.0
 40
36.43501790566288
100
AcDbArc
 50
291.770590384
 51
111.7705904009
  0
SPLINE
  5
78
330
1F
100
AcDbEntity
  8
0
  6
Continuous
 62
     7
370
    25
100
AcDbSpline
210
0.0
220
0.0
230
1.0
 70
    24
 71
     3
 72
     9
 73
     5
 74
     0
 42
0.000000001
 43
0.00000001
 40
0.0
 40
0.0
 40
0.0
 40
0.0
 40
0.5599999999871742
 40
1.0
 40
1.0
 40
1.0
 40
1.0
 10
418.5733943971435
 20
299.378149090424
 30
0.0
 10
418.7287942891004
 20
299.2610804037208
 30
0.0
 10
419.0062940961726
 20
299.0520291774602
 30
0.0
 10
419.3718236610951
 20
298.7766617651807
 30
0.0
 10
419.5326566696656
 20
298.6555001037742
 30
0.0
  0
SPLINE
  5
79
330
1F
100
AcDbEntity
  8
0
  6
Continuous
 62
     7
370
    25
100
AcDbSpline
210
0.0
220
0.0
230
1.0
 70
    24
 71
     3
 72
     9
 73
     5
 74
     0
 42
0.000000001
 43
0.00000001
 40
0.0
 40
0.0
 40
0.0
 40
0.0
 40
0.5600000000054365
 40
1.0
 40
1.0
 40
1.0
 40
1.0
 10
356.4339081493781
 20
346.1902025341853
 30
0.0
 10
356.6395047767982
 20
346.0353187253255
 30
0.0
 10
357.0066416114735
 20
345.7587404952213
 30
0.0
 10
357.2750643968946
 20
345.5565273368029
 30
0.0
 10
357.3931704224785
 20
345.4675535470999
 30
0.0
  0
ARC
  5
7A
330
1F
100
AcDbEntity
  8
0
  6
Continuous
 62
     7
370
    25
100
AcDbCircle
 10
387.9832824095
 20
322.422851319
 30
0.0
 40
38.29899805700018
100
AcDbArc
 50
143.0078861339
 51
323.0078861339
  0
ARC
  5
7B
330
1F
100
AcDbEntity
  8
0
  6
Continuous
 62
     7
370
    25
100
AcDbCircle
 10
387.9832824095
 20
322.422851319
 30
0.0
 40
39.50000000000017
100
AcDbArc
 50
143.0078861339
 51
323.0078861574
  0
ARC
  5
7C
330
1F
100
AcDbEntity
  8
0
  6
Continuous
 62
     7
370
    25
100
AcDbCircle
 10
387.9832824095
 20
322.422851319
 30
0.0
 40
38.29899805700018
100
AcDbArc
 50
323.0078861339
 51
143.0078861339
  0
ARC
  5
7D
330
1F
100
AcDbEntity
  8
0
  6
Continuous
 62
     7
370
    25
100
AcDbCircle
 10
387.9832824095
 20
322.422851319
 30
0.0
 40
39.50000000000017
100
AcDbArc
 50
323.0078861574
 51
143.0078861236
  0
CIRCLE
  5
7E
330
1F
100
AcDbEntity
  8
0
  6
Continuous
 62
     7
370
    25
100
AcDbCircle
 10
387.9832824095
 20
322.422851319
 30
0.0
 40
56.99999999999999
  0
SPLINE
  5
7F
330
1F
100
AcDbEntity
  8
0
  6
Continuous
 62
     7
370
    25
100
AcDbSpline
210
0.0
220
0.0
230
1.0
 70
     8
 71
     3
 72
    35
 73
    31
 74
     0
 42
0.000000001
 43
0.00000001
 40
0.0
 40
0.0
 40
0.0
 40
0.0
 40
0.0282546077220551
 40
0.0583834426637963
 40
0.0903495399278292
 40
0.1258616479012841
 40
0.1640104750491897
 40
0.204840521306947
 40
0.2374624815847452
 40
0.2716127104071199
 40
0.3071914351681362
 40
0.3440550017625778
 40
0.3820151215667337
 40
0.4208413631481731
 40
0.4602672732901847
 40
0.5000000044809543
 40
0.5397327356717238
 40
0.5791586458137356
 40
0.6179848873951748
 40
0.6559450071993307
 40
0.6928085737937721
 40
0.7283872985547886
 40
0.7625375273771633
 40
0.7951594876549615
 40
0.8359928376181991
 40
0.8741415922595357
 40
0.9096504660940476
 40
0.9416198397637114
 40
0.9717470283705424
 40
1.0
 40
1.0
 40
1.0
 40
1.0
 10
430.6568340869623
 20
334.1378716318351
 30
0.0
 10
430.2777976195634
 20
335.3913037573815
 30
0.0
 10
429.4945818665944
 20
337.9813125571737
 30
0.0
 10
427.8264574269213
 20
341.8291825077094
 30
0.0
 10
425.655444257846
 20
345.8014250489009
 30
0.0
 10
422.8552397830467
 20
349.8262706351521
 30
0.0
 10
419.3382585589005
 20
353.8112805905803
 30
0.0
 10
415.4528700806656
 20
357.2429303234431
 30
0.0
 10
411.3558931594134
 20
360.0949549434504
 30
0.0
 10
407.1950855049822
 20
362.3856868047971
 30
0.0
 10
402.6264335653664
 20
364.2836089852223
 30
0.0
 10
397.7010873443622
 20
365.6996044467897
 30
0.0
 10
392.4942157633554
 20
366.552731926182
 30
0.0
 10
387.1030700917556
 20
366.7781025045188
 30
0.0
 10
381.6425175453428
 20
366.3339999321853
 30
0.0
 10
376.2377935882971
 20
365.207388673534
 30
0.0
 10
371.0154101183131
 20
363.4165774423629
 30
0.0
 10
366.0934943096308
 20
361.0104174317175
 30
0.0
 10
361.5730722824651
 20
358.0640589688728
 30
0.0
 10
357.5316115102449
 20
354.6720192951689
 30
0.0
 10
354.0196015225774
 20
350.9397460033024
 30
0.0
 10
351.0603480750116
 20
346.9752145800647
 30
0.0
 10
348.6523328307482
 20
342.8811661572636
 30
0.0
 10
346.5857135317478
 20
338.3369515954125
 30
0.0
 10
344.9970340948068
 20
333.4023664911555
 30
0.0
 10
344.0076746508844
 20
328.1802368842754
 30
0.0
 10
343.6549988090358
 20
323.2898279116571
 30
0.0
 10
343.8163895259013
 20
318.7659669276418
 30
0.0
 10
344.3468000066683
 20
314.605751685902
 30
0.0
 10
344.9956978224968
 20
311.9790287570069
 30
0.0
 10
345.3097307320814
 20
310.7078310061246
 30
0.0
  0
SPLINE
  5
80
330
1F
100
AcDbEntity
  8
0
  6
Continuous
 62
     7
370
    25
100
AcDbSpline
210
0.0
220
0.0
230
1.0
 70
     8
 71
     3
 72
    35
 73
    31
 74
     0
 42
0.000000001
 43
0.00000001
 40
0.0
 40
0.0
 40
0.0
 40
0.0
 40
0.0282546077224705
 40
0.0583834426636137
 40
0.090349539927827
 40
0.1258616479030796
 40
0.164010475049916
 40
0.2048405213069384
 40
0.2374624815847372
 40
0.2716127104071123
 40
0.3071914351681292
 40
0.3440550017625713
 40
0.3820151215667276
 40
0.4208413631481676
 40
0.4602672732901799
 40
0.5000000044809499
 40
0.5397327356717201
 40
0.5791586458137324
 40
0.6179848873951723
 40
0.6559450071993288
 40
0.6928085737937709
 40
0.7283872985547878
 40
0.7625375273771628
 40
0.7951594876549616
 40
0.8359928376182599
 40
0.8741415922594736
 40
0.9096504660940486
 40
0.9416198397647875
 40
0.9717470283710211
 40
1.0
 40
1.0
 40
1.0
 40
1.0
 10
345.3097307320814
 20
310.7078310061246
 30
0.0
 10
345.6887671994827
 20
309.4543988805585
 30
0.0
 10
346.4719829524427
 20
306.8643900807718
 30
0.0
 10
348.1401073921451
 20
303.0165201302491
 30
0.0
 10
350.3111205612298
 20
299.0442775889916
 30
0.0
 10
353.1113250360606
 20
295.0194320027067
 30
0.0
 10
356.6283062602475
 20
291.0344220473176
 30
0.0
 10
360.5136947384025
 20
287.6027723144932
 30
0.0
 10
364.6106716596313
 20
284.7507476945103
 30
0.0
 10
368.7714793140614
 20
282.4600158331623
 30
0.0
 10
373.3401312536774
 20
280.5620936527375
 30
0.0
 10
378.2654774746816
 20
279.1460981911699
 30
0.0
 10
383.4723490556883
 20
278.2929707117777
 30
0.0
 10
388.8634947272882
 20
278.0676001334409
 30
0.0
 10
394.324047273701
 20
278.5117027057744
 30
0.0
 10
399.7287712307467
 20
279.6383139644257
 30
0.0
 10
404.9511547007307
 20
281.4291251955968
 30
0.0
 10
409.873070509413
 20
283.8352852062421
 30
0.0
 10
414.3934925365787
 20
286.7816436690869
 30
0.0
 10
418.4349533087989
 20
290.1736833427907
 30
0.0
 10
421.9469632964664
 20
293.9059566346572
 30
0.0
 10
424.9062167440321
 20
297.870488057895
 30
0.0
 10
427.3142319882959
 20
301.964536480696
 30
0.0
 10
429.380851287296
 20
306.50875104255
 30
0.0
 10
430.969530724242
 20
311.4433361468027
 30
0.0
 10
431.9588901681535
 20
316.665465753685
 30
0.0
 10
432.311566010011
 20
321.555874726349
 30
0.0
 10
432.1501752931442
 20
326.0797357103906
 30
0.0
 10
431.6197648123498
 20
330.2399509521261
 30
0.0
 10
430.9708669965389
 20
332.8666738809738
 30
0.0
 10
430.6568340869623
 20
334.1378716318351
 30
0.0
  0
SPLINE
  5
81
330
1F
100
AcDbEntity
  8
0
  6
Continuous
 62
     7
370
    25
100
AcDbSpline
210
0.0
220
0.0
230
1.0
 70
    24
 71
     3
 72
    11
 73
     7
 74
     0
 42
0.000000001
 43
0.00000001
 40
0.0
 40
0.0
 40
0.0
 40
0.0
 40
0.2706996604071897
 40
0.5623161110113912
 40
0.7892984430189716
 40
1.0
 40
1.0
 40
1.0
 40
1.0
 10
345.3097307320816
 20
310.7078310061246
 30
0.0
 10
345.8316653704969
 20
310.851115889868
 30
0.0
 10
346.9158642041208
 20
311.1487571889819
 30
0.0
 10
348.1605667928998
 20
311.4904610204612
 30
0.0
 10
348.906847311737
 20
311.6953347910662
 30
0.0
 10
349.0158308615859
 20
311.725253662359
 30
0.0
 10
349.0682956751562
 20
311.7396566434217
 30
0.0
  0
ARC
  5
82
330
1F
100
AcDbEntity
  8
0
  6
Continuous
 62
     7
370
    25
100
AcDbCircle
 10
387.9832824095
 20
322.422851319
 30
0.0
 40
40.35476230894857
100
AcDbArc
 50
195.3510254796
 51
15.3510254796
  0
SPLINE
  5
83
330
1F
100
AcDbEntity
  8
0
  6
Continuous
 62
     7
370
    25
100
AcDbSpline
210
0.0
220
0.0
230
1.0
 70
    24
 71
     3
 72
    11
 73
     7
 74
     0
 42
0.000000001
 43
0.00000001
 40
0.0
 40
0.0
 40
0.0
 40
0.0
 40
0.2706996603325151
 40
0.5623161109123069
 40
0.7892984429590802
 40
1.0
 40
1.0
 40
1.0
 40
1.0
 10
426.8982691438876
 20
333.106045994538
 30
0.0
 10
426.9799808327938
 20
333.1284780175992
 30
0.0
 10
427.1497180207361
 20
333.1750753718485
 30
0.0
 10
428.1668191318986
 20
333.4542965687989
 30
0.0
 10
429.4098377346954
 20
333.795538101519
 30
0.0
 10
430.2516058780076
 20
334.0266257544089
 30
0.0
 10
430.6568340869622
 20
334.1378716318351
 30
0.0
  0
ARC
  5
84
330
1F
100
AcDbEntity
  8
0
  6
Continuous
 62
     7
370
    25
100
AcDbCircle
 10
387.9832824095
 20
322.422851319
 30
0.0
 40
40.35476230894857
100
AcDbArc
 50
15.3510254796
 51
195.3510254796
  0
CIRCLE
  5
85
330
1F
100
AcDbEntity
  8
0
  6
Continuous
 62
     7
370
    25
100
AcDbCircle
 10
387.9832824095
 20
322.422851319
 30
0.0
 40
39.93812333100001
  0
LINE
  5
86
330
1F
100
AcDbEntity
  8
0
  6
Continuous
 62
     7
370
    25
100
AcDbLine
 10
211.6837447077
 20
472.9261179229
 30
0.0
 11
211.6837447077
 21
507.9261179229
 31
0.0
  0
LINE
  5
87
330
1F
100
AcDbEntity
  8
0
  6
Continuous
 62
     7
370
    25
100
AcDbLine
 10
211.6837447077
 20
507.9261179229
 30
0.0
 11
213.6837447077
 21
507.9261179229
 31
0.0
  0
LINE
  5
88
330
1F
100
AcDbEntity
  8
0
  6
Continuous
 62
     7
370
    25
100
AcDbLine
 10
213.6837447077
 20
507.9261179229
 30
0.0
 11
213.6837447077
 21
472.9261179229
 31
0.0
  0
LINE
  5
89
330
1F
100
AcDbEntity
  8
0
  6
Continuous
 62
     7
370
    25
100
AcDbLine
 10
211.6837447077
 20
472.9261179229
 30
0.0
 11
213.6837447077
 21
472.9261179229
 31
0.0
  0
ARC
  5
8A
330
1F
100
AcDbEntity
  8
0
  6
Continuous
 62
     7
370
    25
100
AcDbCircle
 10
216.6837447077
 20
507.9261179229
 30
0.0
 40
3.000000000000114
100
AcDbArc
 50
90.0
 51
180.0
  0
ARC
  5
8B
330
1F
100
AcDbEntity
  8
0
  6
Continuous
 62
     7
370
    25
100
AcDbCircle
 10
216.6837447077
 20
507.9261179229
 30
0.0
 40
5.000000000000171
100
AcDbArc
 50
90.0
 51
180.0
  0
LINE
  5
8C
330
1F
100
AcDbEntity
  8
0
  6
Continuous
 62
     7
370
    25
100
AcDbLine
 10
216.6837447077
 20
510.9261179229
 30
0.0
 11
216.6837447077
 21
512.9261179229
 31
0.0
  0
ARC
  5
8D
330
1F
100
AcDbEntity
  8
0
  6
Continuous
 62
     7
370
    25
100
AcDbCircle
 10
251.6837447077
 20
507.9261179229
 30
0.0
 40
3.000000000000114
100
AcDbArc
 50
0.0
 51
90.0
  0
LINE
  5
8E
330
1F
100
AcDbEntity
  8
0
  6
Continuous
 62
     7
370
    25
100
AcDbLine
 10
251.6837447077
 20
510.9261179229
 30
0.0
 11
251.6837447077
 21
512.9261179229
 31
0.0
  0
ARC
  5
8F
330
1F
100
AcDbEntity
  8
0
  6
Continuous
 62
     7
370
    25
100
AcDbCircle
 10
251.6837447077
 20
507.9261179229
 30
0.0
 40
5.000000000000171
100
AcDbArc
 50
0.0
 51
90.0
  0
LINE
  5
90
330
1F
100
AcDbEntity
  8
0
  6
Continuous
 62
     7
370
    25
100
AcDbLine
 10
254.6837447077
 20
507.9261179229
 30
0.0
 11
256.6837447077
 21
507.9261179229
 31
0.0
  0
LINE
  5
91
330
1F
100
AcDbEntity
  8
0
  6
Continuous
 62
     7
370
    25
100
AcDbLine
 10
254.6837447077
 20
472.9261179229
 30
0.0
 11
254.6837447077
 21
507.9261179229
 31
0.0
  0
ARC
  5
92
330
1F
100
AcDbEntity
  8
0
  6
Continuous
 62
     7
370
    25
100
AcDbCircle
 10
251.6837447077
 20
472.9261179229
 30
0.0
 40
3.0
100
AcDbArc
 50
270.0
 51
0.0
  0
LINE
  5
93
330
1F
100
AcDbEntity
  8
0
  6
Continuous
 62
     7
370
    25
100
AcDbLine
 10
216.6837447077
 20
469.9261179229
 30
0.0
 11
251.6837447077
 21
469.9261179229
 31
0.0
  0
ARC
  5
94
330
1F
100
AcDbEntity
  8
0
  6
Continuous
 62
     7
370
    25
100
AcDbCircle
 10
216.6837447077
 20
472.9261179229
 30
0.0
 40
3.0
100
AcDbArc
 50
180.0
 51
270.0
  0
LINE
  5
95
330
1F
100
AcDbEntity
  8
0
  6
Continuous
 62
     7
370
    25
100
AcDbLine
 10
251.6837447077
 20
510.9261179229
 30
0.0
 11
216.6837447077
 21
510.9261179229
 31
0.0
  0
LINE
  5
96
330
1F
100
AcDbEntity
  8
0
  6
Continuous
 62
     7
370
    25
100
AcDbLine
 10
254.6837447077
 20
472.9261179229
 30
0.0
 11
256.6837447077
 21
472.9261179229
 31
0.0
  0
ARC
  5
97
330
1F
100
AcDbEntity
  8
0
  6
Continuous
 62
     7
370
    25
100
AcDbCircle
 10
251.6837447077
 20
472.9261179229
 30
0.0
 40
5.0
100
AcDbArc
 50
270.0
 51
0.0
  0
LINE
  5
98
330
1F
100
AcDbEntity
  8
0
  6
Continuous
 62
     7
370
    25
100
AcDbLine
 10
251.6837447077
 20
467.9261179229
 30
0.0
 11
251.6837447077
 21
469.9261179229
 31
0.0
  0
LINE
  5
99
330
1F
100
AcDbEntity
  8
0
  6
Continuous
 62
     7
370
    25
100
AcDbLine
 10
256.6837447077
 20
507.9261179229
 30
0.0
 11
256.6837447077
 21
472.9261179229
 31
0.0
  0
LINE
  5
9A
330
1F
100
AcDbEntity
  8
0
  6
Continuous
 62
     7
370
    25
100
AcDbLine
 10
251.6837447077
 20
467.9261179229
 30
0.0
 11
216.6837447077
 21
467.9261179229
 31
0.0
  0
LINE
  5
9B
330
1F
100
AcDbEntity
  8
0
  6
Continuous
 62
     7
370
    25
100
AcDbLine
 10
216.6837447077
 20
467.9261179229
 30
0.0
 11
216.6837447077
 21
469.9261179229
 31
0.0
  0
LINE
  5
9C
330
1F
100
AcDbEntity
  8
0
  6
Continuous
 62
     7
370
    25
100
AcDbLine
 10
216.6837447077
 20
512.9261179229
 30
0.0
 11
251.6837447077
 21
512.9261179229
 31
0.0
  0
ARC
  5
9D
330
1F
100
AcDbEntity
  8
0
  6
Continuous
 62
     7
370
    25
100
AcDbCircle
 10
216.6837447077
 20
472.9261179229
 30
0.0
 40
5.0
100
AcDbArc
 50
180.0
 51
270.0
  0
ELLIPSE
  5
9E
330
1F
100
AcDbEntity
  8
0
  6
Continuous
 62
     7
370
    25
100
AcDbEllipse
 10
565.4471782505
 20
501.1332082977
 30
0.0
 11
1.061844784485857
 21
1.061844784485629
 31
0.0
210
0.0
220
0.0
230
1.0
 40
0.9988843824
 41
5.497939437029818
 42
7.068431177329545
  0
LINE
  5
9F
330
1F
100
AcDbEntity
  8
0
  6
Continuous
 62
     7
370
    25
100
AcDbLine
 10
565.4482444656
 20
502.6340460556
 30
0.0
 11
565.4482444656
 21
504.6337414459
 31
0.0
  0
ELLIPSE
  5
A0
330
1F
100
AcDbEntity
  8
0
  6
Continuous
 62
     7
370
    25
100
AcDbEllipse
 10
565.4471782505
 20
501.1332082977
 30
0.0
 11
-2.47562766209353
 21
-2.47562766209353
 31
0.0
210
0.0
220
0.0
230
1.0
 40
0.9996954599
 41
2.356346783439911
 42
3.926838523739673
  0
LINE
  5
A1
330
1F
100
AcDbEntity
  8
0
  6
Continuous
 62
     7
370
    25
100
AcDbLine
 10
566.9480160083
 20
501.1342745128
 30
0.0
 11
568.9477113986
 21
501.1342745128
 31
0.0
  0
LINE
  5
A2
330
1F
100
AcDbEntity
  8
0
  6
Continuous
 62
     7
370
    25
100
AcDbLine
 10
571.9823168724
 20
479.1683469197
 30
0.0
 11
571.9823168724
 21
505.1683469197
 31
0.0
  0
LINE
  5
A3
330
1F
100
AcDbEntity
  8
0
  6
Continuous
 62
     7
370
    25
100
AcDbLine
 10
518.9823168724
 20
477.1683469197
 30
0.0
 11
569.9823168724
 21
477.1683469197
 31
0.0
  0
ARC
  5
A4
330
1F
100
AcDbEntity
  8
0
  6
Continuous
 62
     7
370
    25
100
AcDbCircle
 10
518.9823168724
 20
479.1683469197
 30
0.0
 40
2.0
100
AcDbArc
 50
180.0
 51
270.0
  0
LINE
  5
A5
330
1F
100
AcDbEntity
  8
0
  6
Continuous
 62
     7
370
    25
100
AcDbLine
 10
516.9823168724
 20
505.1683469197
 30
0.0
 11
516.9823168724
 21
479.1683469197
 31
0.0
  0
ARC
  5
A6
330
1F
100
AcDbEntity
  8
0
  6
Continuous
 62
     7
370
    25
100
AcDbCircle
 10
518.9823168724
 20
505.1683469197
 30
0.0
 40
2.0
100
AcDbArc
 50
90.0
 51
180.0
  0
ELLIPSE
  5
A7
330
1F
100
AcDbEntity
  8
0
  6
Continuous
 62
     7
370
    25
100
AcDbEllipse
 10
523.5174554943
 20
483.2034855416
 30
0.0
 11
2.47562766209353
 21
2.47562766209353
 31
0.0
210
0.0
220
0.0
230
1.0
 40
0.9996954599
 41
2.356346783439932
 42
3.9268385237397
  0
LINE
  5
A8
330
1F
100
AcDbEntity
  8
0
  6
Continuous
 62
     7
370
    25
100
AcDbLine
 10
565.4482444656
 20
479.7029523934
 30
0.0
 11
523.5163892792
 21
479.7029523934
 31
0.0
  0
ELLIPSE
  5
A9
330
1F
100
AcDbEntity
  8
0
  6
Continuous
 62
     7
370
    25
100
AcDbEllipse
 10
565.4471782505
 20
483.2034855416
 30
0.0
 11
-2.475627662093415
 21
2.475627662093529
 31
0.0
210
0.0
220
0.0
230
1.0
 40
0.9996954599
 41
2.356346783439972
 42
3.926838523739673
  0
LINE
  5
AA
330
1F
100
AcDbEntity
  8
0
  6
Continuous
 62
     7
370
    25
100
AcDbLine
 10
568.9477113986
 20
501.1342745128
 30
0.0
 11
568.9477113986
 21
483.2024193265
 31
0.0
  0
LINE
  5
AB
330
1F
100
AcDbEntity
  8
0
  6
Continuous
 62
     7
370
    25
100
AcDbLine
 10
523.5163892792
 20
504.6337414459
 30
0.0
 11
565.4482444656
 21
504.6337414459
 31
0.0
  0
ELLIPSE
  5
AC
330
1F
100
AcDbEntity
  8
0
  6
Continuous
 62
     7
370
    25
100
AcDbEllipse
 10
523.5174554943
 20
501.1332082977
 30
0.0
 11
2.47562766209353
 21
-2.47562766209353
 31
0.0
210
0.0
220
0.0
230
1.0
 40
0.9996954599
 41
2.356346783439906
 42
3.926838523739678
  0
LINE
  5
AD
330
1F
100
AcDbEntity
  8
0
  6
Continuous
 62
     7
370
    25
100
AcDbLine
 10
520.0169223462
 20
483.2024193265
 30
0.0
 11
520.0169223462
 21
501.1342745128
 31
0.0
  0
ARC
  5
AE
330
1F
100
AcDbEntity
  8
0
  6
Continuous
 62
     7
370
    25
100
AcDbCircle
 10
569.9823168724
 20
505.1683469197
 30
0.0
 40
2.0
100
AcDbArc
 50
0.0
 51
90.0
  0
LINE
  5
AF
330
1F
100
AcDbEntity
  8
0
  6
Continuous
 62
     7
370
    25
100
AcDbLine
 10
569.9823168724
 20
507.1683469197
 30
0.0
 11
518.9823168724
 21
507.1683469197
 31
0.0
  0
ARC
  5
B0
330
1F
100
AcDbEntity
  8
0
  6
Continuous
 62
     7
370
    25
100
AcDbCircle
 10
569.9823168724
 20
479.1683469197
 30
0.0
 40
2.0
100
AcDbArc
 50
270.0
 51
0.0
  0
LINE
  5
B1
330
1F
100
AcDbEntity
  8
0
  6
Continuous
 62
     7
370
    25
100
AcDbLine
 10
566.9480160083
 20
483.2024193265
 30
0.0
 11
568.9477113986
 21
483.2024193265
 31
0.0
  0
LINE
  5
B2
330
1F
100
AcDbEntity
  8
0
  6
Continuous
 62
     7
370
    25
100
AcDbLine
 10
565.4482444656
 20
479.7029523934
 30
0.0
 11
565.4482444656
 21
481.7026477837
 31
0.0
  0
ELLIPSE
  5
B3
330
1F
100
AcDbEntity
  8
0
  6
Continuous
 62
     7
370
    25
100
AcDbEllipse
 10
565.4471782505
 20
483.2034855416
 30
0.0
 11
1.061844784485857
 21
-1.061844784485686
 31
0.0
210
0.0
220
0.0
230
1.0
 40
0.9988843824
 41
5.497939437029682
 42
7.068431177329344
  0
LINE
  5
B4
330
1F
100
AcDbEntity
  8
0
  6
Continuous
 62
     7
370
    25
100
AcDbLine
 10
565.4482444656
 20
502.6340460556
 30
0.0
 11
523.5163892792
 21
502.6340460556
 31
0.0
  0
LINE
  5
B5
330
1F
100
AcDbEntity
  8
0
  6
Continuous
 62
     7
370
    25
100
AcDbLine
 10
523.5163892792
 20
502.6340460556
 30
0.0
 11
523.5163892792
 21
504.6337414459
 31
0.0
  0
LINE
  5
B6
330
1F
100
AcDbEntity
  8
0
  6
Continuous
 62
     7
370
    25
100
AcDbLine
 10
523.5163892792
 20
479.7029523934
 30
0.0
 11
523.5163892792
 21
481.7026477837
 31
0.0
  0
LINE
  5
B7
330
1F
100
AcDbEntity
  8
0
  6
Continuous
 62
     7
370
    25
100
AcDbLine
 10
523.5163892792
 20
481.7026477837
 30
0.0
 11
565.4482444656
 21
481.7026477837
 31
0.0
  0
LINE
  5
B8
330
1F
100
AcDbEntity
  8
0
  6
Continuous
 62
     7
370
    25
100
AcDbLine
 10
520.0169223462
 20
483.2024193265
 30
0.0
 11
522.0166177365
 21
483.2024193265
 31
0.0
  0
ELLIPSE
  5
B9
330
1F
100
AcDbEntity
  8
0
  6
Continuous
 62
     7
370
    25
100
AcDbEllipse
 10
523.5174554943
 20
483.2034855416
 30
0.0
 11
1.061844784485857
 21
1.061844784485629
 31
0.0
210
0.0
220
0.0
230
1.0
 40
0.9988843824
 41
2.356346783440049
 42
3.926838523739841
  0
LINE
  5
BA
330
1F
100
AcDbEntity
  8
0
  6
Continuous
 62
     7
370
    25
100
AcDbLine
 10
520.0169223462
 20
501.1342745128
 30
0.0
 11
522.0166177365
 21
501.1342745128
 31
0.0
  0
ELLIPSE
  5
BB
330
1F
100
AcDbEntity
  8
0
  6
Continuous
 62
     7
370
    25
100
AcDbEllipse
 10
523.5174554943
 20
501.1332082977
 30
0.0
 11
1.061844784485857
 21
-1.0618447844858
 31
0.0
210
0.0
220
0.0
230
1.0
 40
0.9988843824
 41
2.356346783439799
 42
3.926838523739709
  0
ELLIPSE
  5
BC
330
1F
100
AcDbEntity
  8
0
  6
Continuous
 62
     7
370
    25
100
AcDbEllipse
 10
565.4209956531
 20
483.229668139
 30
0.0
 11
1.060660171778522
 21
1.060660171781194
 31
0.0
210
0.0
220
0.0
230
1.0
 40
0.9998985176
 41
3.92714311023363
 42
5.497634850533296
  0
LINE
  5
BD
330
1F
100
AcDbEntity
  8
0
  6
Continuous
 62
     7
370
    25
100
AcDbLine
 10
566.9209195123
 20
483.2295158225
 30
0.0
 11
566.9480160083
 21
483.2024193265
 31
0.0
  0
LINE
  5
BE
330
1F
100
AcDbEntity
  8
0
  6
Continuous
 62
     7
370
    25
100
AcDbLine
 10
565.4482444656
 20
481.7026477837
 30
0.0
 11
565.4211479695
 21
481.7297442798
 31
0.0
  0
ELLIPSE
  5
BF
330
1F
100
AcDbEntity
  8
0
  6
Continuous
 62
     7
370
    25
100
AcDbEllipse
 10
565.4209956531
 20
501.1070257003
 30
0.0
 11
-1.060660171779432
 21
1.060660171780114
 31
0.0
210
0.0
220
0.0
230
1.0
 40
0.9998985176
 41
3.927143110235111
 42
5.497634850534826
  0
LINE
  5
C0
330
1F
100
AcDbEntity
  8
0
  6
Continuous
 62
     7
370
    25
100
AcDbLine
 10
565.4211479695
 20
502.6069495595
 30
0.0
 11
565.4482444656
 21
502.6340460556
 31
0.0
  0
LINE
  5
C1
330
1F
100
AcDbEntity
  8
0
  6
Continuous
 62
     7
370
    25
100
AcDbLine
 10
566.9480160083
 20
501.1342745128
 30
0.0
 11
566.9209195123
 21
501.1071780168
 31
0.0
  0
ELLIPSE
  5
C2
330
1F
100
AcDbEntity
  8
0
  6
Continuous
 62
     7
370
    25
100
AcDbEllipse
 10
523.5436380917
 20
483.229668139
 30
0.0
 11
-1.060660171779773
 21
1.06066017177983
 31
0.0
210
0.0
220
0.0
230
1.0
 40
0.9998985176
 41
0.7855504566450335
 42
2.356042196944813
  0
LINE
  5
C3
330
1F
100
AcDbEntity
  8
0
  6
Continuous
 62
     7
370
    25
100
AcDbLine
 10
523.5434857753
 20
481.7297442798
 30
0.0
 11
523.5163892792
 21
481.7026477837
 31
0.0
  0
LINE
  5
C4
330
1F
100
AcDbEntity
  8
0
  6
Continuous
 62
     7
370
    25
100
AcDbLine
 10
522.0166177365
 20
483.2024193265
 30
0.0
 11
522.0437142325
 21
483.2295158225
 31
0.0
  0
ELLIPSE
  5
C5
330
1F
100
AcDbEntity
  8
0
  6
Continuous
 62
     7
370
    25
100
AcDbEllipse
 10
523.5436380917
 20
501.1070257003
 30
0.0
 11
1.060660171779091
 21
1.060660171780455
 31
0.0
210
0.0
220
0.0
230
1.0
 40
0.9998985176
 41
0.7855504566443637
 42
2.356042196944181
  0
LINE
  5
C6
330
1F
100
AcDbEntity
  8
0
  6
Continuous
 62
     7
370
    25
100
AcDbLine
 10
522.0437142325
 20
501.1071780168
 30
0.0
 11
522.0166177365
 21
501.1342745128
 31
0.0
  0
LINE
  5
C7
330
1F
100
AcDbEntity
  8
0
  6
Continuous
 62
     7
370
    25
100
AcDbLine
 10
523.5163892792
 20
502.6340460556
 30
0.0
 11
523.5434857753
 21
502.6069495595
 31
0.0
  0
LINE
  5
C8
330
1F
100
AcDbEntity
  8
0
  6
Continuous
 62
     7
370
    25
100
AcDbLine
 10
523.5434857753
 20
502.6069495595
 30
0.0
 11
565.4211479695
 21
502.6069495595
 31
0.0
  0
LINE
  5
C9
330
1F
100
AcDbEntity
  8
0
  6
Continuous
 62
     7
370
    25
100
AcDbLine
 10
565.4211479695
 20
481.7297442798
 30
0.0
 11
523.5434857753
 21
481.7297442798
 31
0.0
  0
LINE
  5
CA
330
1F
100
AcDbEntity
  8
0
  6
Continuous
 62
     7
370
    25
100
AcDbLine
 10
565.9210718171
 20
483.2295158225
 30
0.0
 11
565.9210718171
 21
484.5760732492
 31
0.0
  0
LINE
  5
CB
330
1F
100
AcDbEntity
  8
0
  6
Continuous
 62
     7
370
    25
100
AcDbLine
 10
565.9210718171
 20
499.7606205901
 30
0.0
 11
565.9210718171
 21
501.1071780168
 31
0.0
  0
LINE
  5
CC
330
1F
100
AcDbEntity
  8
0
  6
Continuous
 62
     7
370
    25
100
AcDbLine
 10
565.9210718171
 20
501.1071780168
 30
0.0
 11
566.9209195123
 21
501.1071780168
 31
0.0
  0
LINE
  5
CD
330
1F
100
AcDbEntity
  8
0
  6
Continuous
 62
     7
370
    25
100
AcDbLine
 10
565.9210718171
 20
483.2295158225
 30
0.0
 11
566.9209195123
 21
483.2295158225
 31
0.0
  0
ELLIPSE
  5
CE
330
1F
100
AcDbEntity
  8
0
  6
Continuous
 62
     7
370
    25
100
AcDbEllipse
 10
565.4209956531
 20
483.229668139
 30
0.0
 11
-0.3536610945847087
 21
0.3536610945847655
 31
0.0
210
0.0
220
0.0
230
1.0
 40
0.9996954599
 41
2.356346783440248
 42
3.926838523739627
  0
LINE
  5
CF
330
1F
100
AcDbEntity
  8
0
  6
Continuous
 62
     7
370
    25
100
AcDbLine
 10
565.4211479695
 20
481.7297442798
 30
0.0
 11
565.4211479695
 21
482.7295919749
 31
0.0
  0
LINE
  5
D0
330
1F
100
AcDbEntity
  8
0
  6
Continuous
 62
     7
370
    25
100
AcDbLine
 10
565.4211479695
 20
501.6071018644
 30
0.0
 11
523.5434857753
 21
501.6071018644
 31
0.0
  0
LINE
  5
D1
330
1F
100
AcDbEntity
  8
0
  6
Continuous
 62
     7
370
    25
100
AcDbLine
 10
523.5434857753
 20
501.6071018644
 30
0.0
 11
523.5434857753
 21
502.6069495595
 31
0.0
  0
LINE
  5
D2
330
1F
100
AcDbEntity
  8
0
  6
Continuous
 62
     7
370
    25
100
AcDbLine
 10
565.4211479695
 20
501.6071018644
 30
0.0
 11
565.4211479695
 21
502.6069495595
 31
0.0
  0
ELLIPSE
  5
D3
330
1F
100
AcDbEntity
  8
0
  6
Continuous
 62
     7
370
    25
100
AcDbEllipse
 10
565.4209956531
 20
501.1070257003
 30
0.0
 11
-0.3536610945847087
 21
-0.3536610945847655
 31
0.0
210
0.0
220
0.0
230
1.0
 40
0.9996954599
 41
2.356346783440054
 42
3.926838523739272
  0
LINE
  5
D4
330
1F
100
AcDbEntity
  8
0
  6
Continuous
 62
     7
370
    25
100
AcDbLine
 10
523.5434857753
 20
481.7297442798
 30
0.0
 11
523.5434857753
 21
482.7295919749
 31
0.0
  0
LINE
  5
D5
330
1F
100
AcDbEntity
  8
0
  6
Continuous
 62
     7
370
    25
100
AcDbLine
 10
523.5434857753
 20
482.7295919749
 30
0.0
 11
565.4211479695
 21
482.7295919749
 31
0.0
  0
LINE
  5
D6
330
1F
100
AcDbEntity
  8
0
  6
Continuous
 62
     7
370
    25
100
AcDbLine
 10
522.0437142325
 20
483.2295158225
 30
0.0
 11
523.0435619277
 21
483.2295158225
 31
0.0
  0
ELLIPSE
  5
D7
330
1F
100
AcDbEntity
  8
0
  6
Continuous
 62
     7
370
    25
100
AcDbEllipse
 10
523.5436380917
 20
483.229668139
 30
0.0
 11
0.3536610945848225
 21
0.3536610945847656
 31
0.0
210
0.0
220
0.0
230
1.0
 40
0.9996954599
 41
2.356346783440054
 42
3.92683852373982
  0
ELLIPSE
  5
D8
330
1F
100
AcDbEntity
  8
0
  6
Continuous
 62
     7
370
    25
100
AcDbEllipse
 10
523.5436380917
 20
501.1070257003
 30
0.0
 11
0.3536610945848224
 21
-0.3536610945848793
 31
0.0
210
0.0
220
0.0
230
1.0
 40
0.9996954599
 41
2.3563467834399
 42
3.926838523739975
  0
LINE
  5
D9
330
1F
100
AcDbEntity
  8
0
  6
Continuous
 62
     7
370
    25
100
AcDbLine
 10
522.0437142325
 20
501.1071780168
 30
0.0
 11
523.0435619277
 21
501.1071780168
 31
0.0
  0
LINE
  5
DA
330
1F
100
AcDbEntity
  8
0
  6
Continuous
 62
     7
370
    25
100
AcDbLine
 10
523.0435619277
 20
501.1071780168
 30
0.0
 11
523.0435619277
 21
499.7606205901
 31
0.0
  0
LINE
  5
DB
330
1F
100
AcDbEntity
  8
0
  6
Continuous
 62
     7
370
    25
100
AcDbLine
 10
523.0435619277
 20
484.5760732492
 30
0.0
 11
523.0435619277
 21
483.2295158225
 31
0.0
  0
ARC
  5
DC
330
1F
100
AcDbEntity
  8
0
  6
Continuous
 62
     7
370
    25
100
AcDbCircle
 10
544.4823168724
 20
737.2933469197
 30
0.0
 40
252.6250000000009
100
AcDbArc
 50
265.1178576675
 51
274.8821423325
  0
LINE
  5
DD
330
1F
100
AcDbEntity
  8
0
  6
Continuous
 62
     7
370
    25
100
AcDbLine
 10
565.9823168724
 20
485.5849032293
 30
0.0
 11
566.0674232554
 21
484.5885313592
 31
0.0
  0
ARC
  5
DE
330
1F
100
AcDbEntity
  8
0
  6
Continuous
 62
     7
370
    25
100
AcDbCircle
 10
544.4823168724
 20
737.2933469197
 30
0.0
 40
253.6250000000009
100
AcDbArc
 50
265.1178576675
 51
274.8821423325
  0
LINE
  5
DF
330
1F
100
AcDbEntity
  8
0
  6
Continuous
 62
     7
370
    25
100
AcDbLine
 10
522.9823168724
 20
485.5849032293
 30
0.0
 11
522.8972104894
 21
484.5885313592
 31
0.0
  0
LINE
  5
E0
330
1F
100
AcDbEntity
  8
0
  6
Continuous
 62
     7
370
    25
100
AcDbLine
 10
565.9823168724
 20
485.5849032293
 30
0.0
 11
565.9823168724
 21
498.75179061
 31
0.0
  0
LINE
  5
E1
330
1F
100
AcDbEntity
  8
0
  6
Continuous
 62
     7
370
    25
100
AcDbLine
 10
566.9823168724
 20
498.75179061
 30
0.0
 11
565.9823168724
 21
498.75179061
 31
0.0
  0
LINE
  5
E2
330
1F
100
AcDbEntity
  8
0
  6
Continuous
 62
     7
370
    25
100
AcDbLine
 10
566.9823168724
 20
498.75179061
 30
0.0
 11
566.9823168724
 21
485.5849032293
 31
0.0
  0
LINE
  5
E3
330
1F
100
AcDbEntity
  8
0
  6
Continuous
 62
     7
370
    25
100
AcDbLine
 10
565.9823168724
 20
485.5849032293
 30
0.0
 11
566.9823168724
 21
485.5849032293
 31
0.0
  0
LINE
  5
E4
330
1F
100
AcDbEntity
  8
0
  6
Continuous
 62
     7
370
    25
100
AcDbLine
 10
522.9823168724
 20
498.75179061
 30
0.0
 11
522.9823168724
 21
485.5849032293
 31
0.0
  0
ARC
  5
E5
330
1F
100
AcDbEntity
  8
0
  6
Continuous
 62
     7
370
    25
100
AcDbCircle
 10
544.4823168724
 20
247.0433469197
 30
0.0
 40
252.6250000000009
100
AcDbArc
 50
85.1178576675
 51
94.8821423325
  0
LINE
  5
E6
330
1F
100
AcDbEntity
  8
0
  6
Continuous
 62
     7
370
    25
100
AcDbLine
 10
566.0674232554
 20
499.7481624801
 30
0.0
 11
565.9823168724
 21
498.75179061
 31
0.0
  0
ARC
  5
E7
330
1F
100
AcDbEntity
  8
0
  6
Continuous
 62
     7
370
    25
100
AcDbCircle
 10
565.9823168724
 20
498.75179061
 30
0.0
 40
1.0
100
AcDbArc
 50
0.0
 51
85.1178576675
  0
ARC
  5
E8
330
1F
100
AcDbEntity
  8
0
  6
Continuous
 62
     7
370
    25
100
AcDbCircle
 10
565.9823168724
 20
485.5849032293
 30
0.0
 40
1.0
100
AcDbArc
 50
274.8821423325
 51
0.0
  0
ARC
  5
E9
330
1F
100
AcDbEntity
  8
0
  6
Continuous
 62
     7
370
    25
100
AcDbCircle
 10
544.4823168724
 20
247.0433469197
 30
0.0
 40
253.6250000000009
100
AcDbArc
 50
85.1178576675
 51
94.8821423325
  0
LINE
  5
EA
330
1F
100
AcDbEntity
  8
0
  6
Continuous
 62
     7
370
    25
100
AcDbLine
 10
522.8972104894
 20
499.7481624801
 30
0.0
 11
522.9823168724
 21
498.75179061
 31
0.0
  0
LINE
  5
EB
330
1F
100
AcDbEntity
  8
0
  6
Continuous
 62
     7
370
    25
100
AcDbLine
 10
522.9823168724
 20
485.5849032293
 30
0.0
 11
521.9823168724
 21
485.5849032293
 31
0.0
  0
LINE
  5
EC
330
1F
100
AcDbEntity
  8
0
  6
Continuous
 62
     7
370
    25
100
AcDbLine
 10
521.9823168724
 20
485.5849032293
 30
0.0
 11
521.9823168724
 21
498.75179061
 31
0.0
  0
LINE
  5
ED
330
1F
100
AcDbEntity
  8
0
  6
Continuous
 62
     7
370
    25
100
AcDbLine
 10
521.9823168724
 20
498.75179061
 30
0.0
 11
522.9823168724
 21
498.75179061
 31
0.0
  0
ARC
  5
EE
330
1F
100
AcDbEntity
  8
0
  6
Continuous
 62
     7
370
    25
100
AcDbCircle
 10
522.9823168724
 20
498.75179061
 30
0.0
 40
0.9999999999999545
100
AcDbArc
 50
94.8821423325
 51
180.0
  0
ARC
  5
EF
330
1F
100
AcDbEntity
  8
0
  6
Continuous
 62
     7
370
    25
100
AcDbCircle
 10
522.9823168724
 20
485.5849032293
 30
0.0
 40
0.9999999999999545
100
AcDbArc
 50
180.0
 51
265.1178576675
  0
LINE
  5
F0
330
1F
100
AcDbEntity
  8
0
  6
Continuous
 62
     7
370
    25
100
AcDbLine
 10
113.5932824095
 20
558.0240395049
 30
0.0
 11
662.3732824095
 21
558.0240395049
 31
0.0
  0
LINE
  5
F1
330
1F
100
AcDbEntity
  8
0
  6
Continuous
 62
     7
370
    25
100
AcDbLine
 10
662.3732824095
 20
558.0240395049
 30
0.0
 11
662.3732824095
 21
556.0316501087
 31
0.0
  0
LINE
  5
F2
330
1F
100
AcDbEntity
  8
0
  6
Continuous
 62
     7
370
    25
100
AcDbLine
 10
662.3732824095
 20
556.0316501087
 30
0.0
 11
113.5932824095
 21
556.0316501087
 31
0.0
  0
LINE
  5
F3
330
1F
100
AcDbEntity
  8
0
  6
Continuous
 62
     7
370
    25
100
AcDbLine
 10
113.5932824095
 20
558.0240395049
 30
0.0
 11
113.5932824095
 21
556.0316501087
 31
0.0
  0
ARC
  5
F4
330
1F
100
AcDbEntity
  8
0
  6
Continuous
 62
     7
370
    25
100
AcDbCircle
 10
662.3732824095
 20
547.8643124568
 30
0.0
 40
10.15972704814874
100
AcDbArc
 50
0.0
 51
90.0
  0
LINE
  5
F5
330
1F
100
AcDbEntity
  8
0
  6
Continuous
 62
     7
370
    25
100
AcDbLine
 10
672.5330094577
 20
547.8643124568
 30
0.0
 11
670.5406200615
 21
547.8643124568
 31
0.0
  0
ARC
  5
F6
330
1F
100
AcDbEntity
  8
0
  6
Continuous
 62
     7
370
    25
100
AcDbCircle
 10
662.3732824095
 20
547.8643124568
 30
0.0
 40
8.167337651965227
100
AcDbArc
 50
0.0
 51
90.0
  0
LINE
  5
F7
330
1F
100
AcDbEntity
  8
0
  6
Continuous
 62
     7
370
    25
100
AcDbLine
 10
672.5330094577
 20
547.8643124568
 30
0.0
 11
672.5330094577
 21
59.0843124568
 31
0.0
  0
LINE
  5
F8
330
1F
100
AcDbEntity
  8
0
  6
Continuous
 62
     7
370
    25
100
AcDbLine
 10
672.5330094577
 20
59.0843124568
 30
0.0
 11
670.5406200615
 21
59.0843124568
 31
0.0
  0
LINE
  5
F9
330
1F
100
AcDbEntity
  8
0
  6
Continuous
 62
     7
370
    25
100
AcDbLine
 10
670.5406200615
 20
59.0843124568
 30
0.0
 11
670.5406200615
 21
547.8643124568
 31
0.0
  0
ELLIPSE
  5
FA
330
1F
100
AcDbEntity
  8
0
  6
Continuous
 62
     7
370
    25
100
AcDbEllipse
 10
628.2347518511
 20
93.8078430152
 30
0.0
 11
-11.75622703018973
 21
11.75622703018873
 31
0.0
210
0.0
220
0.0
230
1.0
 40
0.9924325091
 41
2.359992588465571
 42
3.923192718713925
  0
LINE
  5
FB
330
1F
100
AcDbEntity
  8
0
  6
Continuous
 62
     7
370
    25
100
AcDbLine
 10
628.360566652
 20
77.2448156957
 30
0.0
 11
628.360566652
 21
78.7391077429
 31
0.0
  0
ELLIPSE
  5
FC
330
1F
100
AcDbEntity
  8
0
  6
Continuous
 62
     7
370
    25
100
AcDbEllipse
 10
628.2347518511
 20
93.8078430152
 30
0.0
 11
10.70359339456638
 21
-10.70359339456556
 31
0.0
210
0.0
220
0.0
230
1.0
 40
0.9909384005
 41
5.501585242055385
 42
7.064785372303704
  0
LINE
  5
FD
330
1F
100
AcDbEntity
  8
0
  6
Continuous
 62
     7
370
    25
100
AcDbLine
 10
643.3034871234
 20
93.6820282143
 30
0.0
 11
644.7977791705
 21
93.6820282143
 31
0.0
  0
ARC
  5
FE
330
1F
100
AcDbEntity
  8
0
  6
Continuous
 62
     7
370
    25
100
AcDbCircle
 10
662.3732824095
 20
59.0843124568
 30
0.0
 40
8.167337651965227
100
AcDbArc
 50
270.0
 51
0.0
  0
ARC
  5
FF
330
1F
100
AcDbEntity
  8
0
  6
Continuous
 62
     7
370
    25
100
AcDbCircle
 10
662.3732824095
 20
59.0843124568
 30
0.0
 40
10.15972704814874
100
AcDbArc
 50
270.0
 51
0.0
  0
LINE
  5
100
330
1F
100
AcDbEntity
  8
0
  6
Continuous
 62
     7
370
    25
100
AcDbLine
 10
662.3732824095
 20
50.9169748048
 30
0.0
 11
662.3732824095
 21
48.9245854086
 31
0.0
  0
ARC
  5
101
330
1F
100
AcDbEntity
  8
0
  6
Continuous
 62
     7
370
    25
100
AcDbCircle
 10
113.5932824095
 20
59.0843124568
 30
0.0
 40
8.167337651965205
100
AcDbArc
 50
180.0
 51
270.0
  0
LINE
  5
102
330
1F
100
AcDbEntity
  8
0
  6
Continuous
 62
     7
370
    25
100
AcDbLine
 10
105.4259447576
 20
547.8643124568
 30
0.0
 11
105.4259447576
 21
59.0843124568
 31
0.0
  0
ARC
  5
103
330
1F
100
AcDbEntity
  8
0
  6
Continuous
 62
     7
370
    25
100
AcDbCircle
 10
113.5932824095
 20
547.8643124568
 30
0.0
 40
8.16733765196534
100
AcDbArc
 50
90.0
 51
180.0
  0
LINE
  5
104
330
1F
100
AcDbEntity
  8
0
  6
Continuous
 62
     7
370
    25
100
AcDbLine
 10
113.5932824095
 20
50.9169748048
 30
0.0
 11
662.3732824095
 21
50.9169748048
 31
0.0
  0
ELLIPSE
  5
105
330
1F
100
AcDbEntity
  8
0
  6
Continuous
 62
     7
370
    25
100
AcDbEllipse
 10
147.731812968
 20
93.8078430152
 30
0.0
 11
-11.7562270301897
 21
-11.75622703018872
 31
0.0
210
0.0
220
0.0
230
1.0
 40
0.9924325091
 41
5.501585242055482
 42
7.064785372303795
  0
LINE
  5
106
330
1F
100
AcDbEntity
  8
0
  6
Continuous
 62
     7
370
    25
100
AcDbLine
 10
628.360566652
 20
77.2448156957
 30
0.0
 11
147.605998167
 21
77.2448156957
 31
0.0
  0
LINE
  5
107
330
1F
100
AcDbEntity
  8
0
  6
Continuous
 62
     7
370
    25
100
AcDbLine
 10
644.7977791705
 20
518.2475701897
 30
0.0
 11
644.7977791705
 21
93.6820282143
 31
0.0
  0
ELLIPSE
  5
108
330
1F
100
AcDbEntity
  8
0
  6
Continuous
 62
     7
370
    25
100
AcDbEllipse
 10
633.2538510388
 20
518.159881086
 30
0.0
 11
8.193733990737995
 21
8.193733990737881
 31
0.0
210
0.0
220
0.0
230
1.0
 40
0.9924325091
 41
5.50158524205543
 42
7.06478537230376
  0
LINE
  5
109
330
1F
100
AcDbEntity
  8
0
  6
Continuous
 62
     7
370
    25
100
AcDbLine
 10
142.6250246766
 20
529.7038092178
 30
0.0
 11
633.3415401425
 21
529.7038092178
 31
0.0
  0
ELLIPSE
  5
10A
330
1F
100
AcDbEntity
  8
0
  6
Continuous
 62
     7
370
    25
100
AcDbEllipse
 10
142.7127137802
 20
518.159881086
 30
0.0
 11
8.193733990738082
 21
-8.193733990737712
 31
0.0
210
0.0
220
0.0
230
1.0
 40
0.9924325091
 41
2.359992588465605
 42
3.923192718713955
  0
LINE
  5
10B
330
1F
100
AcDbEntity
  8
0
  6
Continuous
 62
     7
370
    25
100
AcDbLine
 10
131.1687856485
 20
93.6820282143
 30
0.0
 11
131.1687856485
 21
518.2475701897
 31
0.0
  0
LINE
  5
10C
330
1F
100
AcDbEntity
  8
0
  6
Continuous
 62
     7
370
    25
100
AcDbLine
 10
662.3732824095
 20
48.9245854086
 30
0.0
 11
113.5932824095
 21
48.9245854086
 31
0.0
  0
LINE
  5
10D
330
1F
100
AcDbEntity
  8
0
  6
Continuous
 62
     7
370
    25
100
AcDbLine
 10
113.5932824095
 20
50.9169748048
 30
0.0
 11
113.5932824095
 21
48.9245854086
 31
0.0
  0
LINE
  5
10E
330
1F
100
AcDbEntity
  8
0
  6
Continuous
 62
     7
370
    25
100
AcDbLine
 10
105.4259447576
 20
59.0843124568
 30
0.0
 11
103.4335553614
 21
59.0843124568
 31
0.0
  0
LINE
  5
10F
330
1F
100
AcDbEntity
  8
0
  6
Continuous
 62
     7
370
    25
100
AcDbLine
 10
103.4335553614
 20
59.0843124568
 30
0.0
 11
103.4335553614
 21
547.8643124568
 31
0.0
  0
LINE
  5
110
330
1F
100
AcDbEntity
  8
0
  6
Continuous
 62
     7
370
    25
100
AcDbLine
 10
105.4259447576
 20
547.8643124568
 30
0.0
 11
103.4335553614
 21
547.8643124568
 31
0.0
  0
LINE
  5
111
330
1F
100
AcDbEntity
  8
0
  6
Continuous
 62
     7
370
    25
100
AcDbLine
 10
142.6250246766
 20
528.2095171707
 30
0.0
 11
142.6250246766
 21
529.7038092178
 31
0.0
  0
ELLIPSE
  5
112
330
1F
100
AcDbEntity
  8
0
  6
Continuous
 62
     7
370
    25
100
AcDbEllipse
 10
142.7127137802
 20
518.159881086
 30
0.0
 11
7.141100355114816
 21
-7.141100355114474
 31
0.0
210
0.0
220
0.0
230
1.0
 40
0.9901930319
 41
2.359992588465611
 42
3.923192718713946
  0
LINE
  5
113
330
1F
100
AcDbEntity
  8
0
  6
Continuous
 62
     7
370
    25
100
AcDbLine
 10
131.1687856485
 20
518.2475701897
 30
0.0
 11
132.6630776956
 21
518.2475701897
 31
0.0
  0
ARC
  5
114
330
1F
100
AcDbEntity
  8
0
  6
Continuous
 62
     7
370
    25
100
AcDbCircle
 10
113.5932824095
 20
59.0843124568
 30
0.0
 40
10.15972704814871
100
AcDbArc
 50
180.0
 51
270.0
  0
ELLIPSE
  5
115
330
1F
100
AcDbEntity
  8
0
  6
Continuous
 62
     7
370
    25
100
AcDbEllipse
 10
633.2538510388
 20
518.159881086
 30
0.0
 11
7.141100355114759
 21
7.141100355114759
 31
0.0
210
0.0
220
0.0
230
1.0
 40
0.9901930319
 41
5.50158524205543
 42
7.064785372303744
  0
LINE
  5
116
330
1F
100
AcDbEntity
  8
0
  6
Continuous
 62
     7
370
    25
100
AcDbLine
 10
633.3415401425
 20
528.2095171707
 30
0.0
 11
633.3415401425
 21
529.7038092178
 31
0.0
  0
LINE
  5
117
330
1F
100
AcDbEntity
  8
0
  6
Continuous
 62
     7
370
    25
100
AcDbLine
 10
643.3034871234
 20
518.2475701897
 30
0.0
 11
644.7977791705
 21
518.2475701897
 31
0.0
  0
LINE
  5
118
330
1F
100
AcDbEntity
  8
0
  6
Continuous
 62
     7
370
    25
100
AcDbLine
 10
132.6630776956
 20
518.2475701897
 30
0.0
 11
132.6630776956
 21
93.6820282143
 31
0.0
  0
LINE
  5
119
330
1F
100
AcDbEntity
  8
0
  6
Continuous
 62
     7
370
    25
100
AcDbLine
 10
131.1687856485
 20
93.6820282143
 30
0.0
 11
132.6630776956
 21
93.6820282143
 31
0.0
  0
LINE
  5
11A
330
1F
100
AcDbEntity
  8
0
  6
Continuous
 62
     7
370
    25
100
AcDbLine
 10
633.3415401425
 20
528.2095171707
 30
0.0
 11
142.6250246766
 21
528.2095171707
 31
0.0
  0
LINE
  5
11B
330
1F
100
AcDbEntity
  8
0
  6
Continuous
 62
     7
370
    25
100
AcDbLine
 10
643.3034871234
 20
93.6820282143
 30
0.0
 11
643.3034871234
 21
518.2475701897
 31
0.0
  0
ELLIPSE
  5
11C
330
1F
100
AcDbEntity
  8
0
  6
Continuous
 62
     7
370
    25
100
AcDbEllipse
 10
147.731812968
 20
93.8078430152
 30
0.0
 11
10.70359339456641
 21
10.70359339456556
 31
0.0
210
0.0
220
0.0
230
1.0
 40
0.9909384005
 41
2.359992588465675
 42
3.923192718714013
  0
LINE
  5
11D
330
1F
100
AcDbEntity
  8
0
  6
Continuous
 62
     7
370
    25
100
AcDbLine
 10
147.605998167
 20
77.2448156957
 30
0.0
 11
147.605998167
 21
78.7391077429
 31
0.0
  0
LINE
  5
11E
330
1F
100
AcDbEntity
  8
0
  6
Continuous
 62
     7
370
    25
100
AcDbLine
 10
147.605998167
 20
78.7391077429
 30
0.0
 11
628.360566652
 21
78.7391077429
 31
0.0
  0
ARC
  5
11F
330
1F
100
AcDbEntity
  8
0
  6
Continuous
 62
     7
370
    25
100
AcDbCircle
 10
113.5932824095
 20
547.8643124568
 30
0.0
 40
10.15972704814885
100
AcDbArc
 50
90.0
 51
180.0
  0
LINE
  5
120
330
1F
100
AcDbEntity
  8
0
  6
Continuous
 62
     7
370
    25
100
AcDbLine
 10
147.8719637041
 20
452.66909364
 30
0.0
 11
149.0138833119
 21
451.5271740322
 31
0.0
  0
ELLIPSE
  5
121
330
1F
100
AcDbEntity
  8
0
  6
Continuous
 62
     7
370
    25
100
AcDbEllipse
 10
149.1053849853
 20
436.4927518874
 30
0.0
 11
10.65525056593
 21
-10.65525056592907
 31
0.0
210
0.0
220
0.0
230
1.0
 40
0.995434284
 41
2.359992588465564
 42
3.923192718713937
  0
LINE
  5
122
330
1F
100
AcDbEntity
  8
0
  6
Continuous
 62
     7
370
    25
100
AcDbLine
 10
134.0709628405
 20
436.5842535608
 30
0.0
 11
132.6894526605
 21
437.9657637408
 31
0.0
  0
SPLINE
  5
123
330
1F
100
AcDbEntity
  8
0
  6
Continuous
 62
     7
370
    25
100
AcDbSpline
210
0.0
220
0.0
230
1.0
 70
     8
 71
     3
 72
    12
 73
     8
 74
     0
 42
0.000000001
 43
0.00000001
 40
0.0
 40
0.0
 40
0.0
 40
0.0
 40
0.3040223224892002
 40
0.5646216616856584
 40
0.8256388611507013
 40
0.9972910134953518
 40
1.0
 40
1.0
 40
1.0
 40
1.0
 10
135.423763911126
 20
446.0187513610634
 30
0.0
 10
134.9468405695258
 20
445.2299556221197
 30
0.0
 10
134.061112023588
 20
443.7650264774225
 30
0.0
 10
133.240727480323
 20
441.5258097519038
 30
0.0
 10
132.8203277639404
 20
439.6390324574036
 30
0.0
 10
132.7098398864658
 20
438.4492594869489
 30
0.0
 10
132.6897645636232
 20
437.973160716742
 30
0.0
 10
132.6894526605293
 20
437.9657637408339
 30
0.0
  0
ELLIPSE
  5
124
330
1F
100
AcDbEntity
  8
0
  6
Continuous
 62
     7
370
    25
100
AcDbEllipse
 10
147.9977785051
 20
437.6003583677
 30
0.0
 11
10.70359339456667
 21
-10.7035933945653
 31
0.0
210
0.0
220
0.0
230
1.0
 40
0.9909384005
 41
2.359992588465562
 42
3.33876564188771
  0
SPLINE
  5
125
330
1F
100
AcDbEntity
  8
0
  6
Continuous
 62
     7
370
    25
100
AcDbSpline
210
0.0
220
0.0
230
1.0
 70
     8
 71
     3
 72
    11
 73
     7
 74
     0
 42
0.000000001
 43
0.00000001
 40
0.0
 40
0.0
 40
0.0
 40
0.0
 40
0.0028271606258533
 40
0.1764398406948375
 40
0.701103666381068
 40
1.0
 40
1.0
 40
1.0
 40
1.0
 10
132.6894526605293
 20
437.9657637408339
 30
0.0
 10
132.6896166968692
 20
437.9741813720587
 30
0.0
 10
132.699854016039
 20
438.4995160483919
 30
0.0
 10
132.7967390114318
 20
440.5858817519154
 30
0.0
 10
133.20125269379
 20
443.5641209929081
 30
0.0
 10
133.9221191902334
 20
445.9700278303343
 30
0.0
 10
134.1837447076668
 20
446.8432084044676
 30
0.0
  0
LINE
  5
126
330
1F
100
AcDbEntity
  8
0
  6
Continuous
 62
     7
370
    25
100
AcDbLine
 10
135.4237639111
 20
446.0187513611
 30
0.0
 11
134.1837447077
 21
446.8432084045
 31
0.0
  0
ARC
  5
127
330
1F
100
AcDbEntity
  8
0
  6
Continuous
 62
     7
370
    25
100
AcDbCircle
 10
458.1687196637
 20
515.7019441283
 30
0.0
 40
10.05148233102074
100
AcDbArc
 50
90.5081257793
 51
179.4918742207
  0
LINE
  5
128
330
1F
100
AcDbEntity
  8
0
  6
Continuous
 62
     7
370
    25
100
AcDbLine
 10
448.1176326033
 20
515.7910842079
 30
0.0
 11
445.9271121585
 21
517.9816046526
 31
0.0
  0
ELLIPSE
  5
129
330
1F
100
AcDbEntity
  8
0
  6
Continuous
 62
     7
370
    25
100
AcDbEllipse
 10
455.9767482431
 20
517.8939155489
 30
0.0
 11
7.141100355114759
 21
-7.141100355114645
 31
0.0
210
0.0
220
0.0
230
1.0
 40
0.9901930319
 41
3.06459874666359
 42
3.923192718713955
  0
SPLINE
  5
12A
330
1F
100
AcDbEntity
  8
0
  6
Continuous
 62
     7
370
    25
100
AcDbSpline
210
0.0
220
0.0
230
1.0
 70
     8
 71
     3
 72
    11
 73
     7
 74
     0
 42
0.000000001
 43
0.00000001
 40
0.0
 40
0.0
 40
0.0
 40
0.0
 40
0.0026908281397147
 40
0.2905963075682716
 40
0.7167074015963809
 40
1.0
 40
1.0
 40
1.0
 40
1.0
 10
455.6494685672091
 20
528.183142205763
 30
0.0
 10
455.6437324094704
 20
528.1828375924779
 30
0.0
 10
455.0242553667368
 20
528.1499408442254
 30
0.0
 10
453.4986333404929
 20
527.9086397277055
 30
0.0
 10
451.3606083563683
 20
527.067827224476
 30
0.0
 10
449.9600092074383
 20
525.9886921067983
 30
0.0
 10
449.4006952703171
 20
525.557751311343
 30
0.0
  0
LINE
  5
12B
330
1F
100
AcDbEntity
  8
0
  6
Continuous
 62
     7
370
    25
100
AcDbLine
 10
455.6494685672
 20
528.1831422058
 30
0.0
 11
458.0795795842
 21
525.7530311888
 31
0.0
  0
LINE
  5
12C
330
1F
100
AcDbEntity
  8
0
  6
Continuous
 62
     7
370
    25
100
AcDbLine
 10
449.4006952703
 20
525.5577513113
 30
0.0
 11
448.4327638415
 21
526.6888501586
 31
0.0
  0
SPLINE
  5
12D
330
1F
100
AcDbEntity
  8
0
  6
Continuous
 62
     7
370
    25
100
AcDbSpline
210
0.0
220
0.0
230
1.0
 70
     8
 71
     3
 72
    11
 73
     7
 74
     0
 42
0.000000001
 43
0.00000001
 40
0.0
 40
0.0
 40
0.0
 40
0.0
 40
0.2759404717633215
 40
0.7052974568470446
 40
0.9971371102583082
 40
1.0
 40
1.0
 40
1.0
 40
1.0
 10
448.4327638414754
 20
526.6888501586255
 30
0.0
 10
449.0816667504198
 20
526.9370921508702
 30
0.0
 10
450.7402475613262
 20
527.5715929353835
 30
0.0
 10
453.1662344673433
 20
528.0311247958917
 30
0.0
 10
454.9258431441684
 20
528.1661212112668
 30
0.0
 10
455.6425065361012
 20
528.1829784460479
 30
0.0
 10
455.6494685672091
 20
528.183142205763
 30
0.0
  0
LINE
  5
12E
330
1F
100
AcDbEntity
  8
0
  6
Continuous
 62
     7
370
    25
100
AcDbLine
 10
134.1837447077
 20
518.2211952248
 30
0.0
 11
132.6894526605
 21
518.2211952248
 31
0.0
  0
LINE
  5
12F
330
1F
100
AcDbEntity
  8
0
  6
Continuous
 62
     7
370
    25
100
AcDbLine
 10
134.1837447077
 20
518.2211952248
 30
0.0
 11
134.1837447077
 21
446.8432084045
 31
0.0
  0
LINE
  5
130
330
1F
100
AcDbEntity
  8
0
  6
Continuous
 62
     7
370
    25
100
AcDbLine
 10
132.6894526605
 20
437.9657637408
 30
0.0
 11
132.6894526605
 21
518.2211952248
 31
0.0
  0
ARC
  5
131
330
1F
100
AcDbEntity
  8
0
  6
Continuous
 62
     7
370
    25
100
AcDbCircle
 10
630.7959140811
 20
515.7019441283
 30
0.0
 40
10.0514823310208
100
AcDbArc
 50
0.5081257793
 51
89.4918742207
  0
LINE
  5
132
330
1F
100
AcDbEntity
  8
0
  6
Continuous
 62
     7
370
    25
100
AcDbLine
 10
630.8850541606
 20
525.7530311888
 30
0.0
 11
633.3415401425
 21
528.2095171707
 31
0.0
  0
LINE
  5
133
330
1F
100
AcDbEntity
  8
0
  6
Continuous
 62
     7
370
    25
100
AcDbLine
 10
643.3034871234
 20
518.2475701897
 30
0.0
 11
640.8470011415
 21
515.7910842079
 31
0.0
  0
ELLIPSE
  5
134
330
1F
100
AcDbEntity
  8
0
  6
Continuous
 62
     7
370
    25
100
AcDbEllipse
 10
142.7162133268
 20
518.1563815395
 30
0.0
 11
7.108871802690629
 21
-7.108871802690146
 31
0.0
210
0.0
220
0.0
230
1.0
 40
0.9946821392
 41
2.359992588465577
 42
3.923192718713958
  0
LINE
  5
135
330
1F
100
AcDbEntity
  8
0
  6
Continuous
 62
     7
370
    25
100
AcDbLine
 10
132.6894526605
 20
518.2211952248
 30
0.0
 11
132.6630776956
 21
518.2475701897
 31
0.0
  0
LINE
  5
136
330
1F
100
AcDbEntity
  8
0
  6
Continuous
 62
     7
370
    25
100
AcDbLine
 10
142.6250246766
 20
528.2095171707
 30
0.0
 11
142.6513996414
 21
528.1831422058
 31
0.0
  0
ELLIPSE
  5
137
330
1F
100
AcDbEntity
  8
0
  6
Continuous
 62
     7
370
    25
100
AcDbEllipse
 10
149.1053849853
 20
95.1814150326
 30
0.0
 11
10.65525056593
 21
10.65525056592904
 31
0.0
210
0.0
220
0.0
230
1.0
 40
0.995434284
 41
2.359992588465687
 42
3.923192718714037
  0
LINE
  5
138
330
1F
100
AcDbEntity
  8
0
  6
Continuous
 62
     7
370
    25
100
AcDbLine
 10
149.0138833119
 20
80.1469928878
 30
0.0
 11
147.605998167
 21
78.7391077429
 31
0.0
  0
LINE
  5
139
330
1F
100
AcDbEntity
  8
0
  6
Continuous
 62
     7
370
    25
100
AcDbLine
 10
132.6630776956
 20
93.6820282143
 30
0.0
 11
134.0709628405
 21
95.0899133591
 31
0.0
  0
ELLIPSE
  5
13A
330
1F
100
AcDbEntity
  8
0
  6
Continuous
 62
     7
370
    25
100
AcDbEllipse
 10
626.8611798337
 20
95.1814150326
 30
0.0
 11
10.65525056592992
 21
-10.65525056592902
 31
0.0
210
0.0
220
0.0
230
1.0
 40
0.995434284
 41
5.501585242055406
 42
7.064785372303693
  0
LINE
  5
13B
330
1F
100
AcDbEntity
  8
0
  6
Continuous
 62
     7
370
    25
100
AcDbLine
 10
641.8956019785
 20
95.0899133591
 30
0.0
 11
643.3034871234
 21
93.6820282143
 31
0.0
  0
LINE
  5
13C
330
1F
100
AcDbEntity
  8
0
  6
Continuous
 62
     7
370
    25
100
AcDbLine
 10
628.360566652
 20
78.7391077429
 30
0.0
 11
626.9526815071
 21
80.1469928878
 31
0.0
  0
LINE
  5
13D
330
1F
100
AcDbEntity
  8
0
  6
Continuous
 62
     7
370
    25
100
AcDbLine
 10
142.6513996414
 20
526.6888501586
 30
0.0
 11
142.6513996414
 21
528.1831422058
 31
0.0
  0
LINE
  5
13E
330
1F
100
AcDbEntity
  8
0
  6
Continuous
 62
     7
370
    25
100
AcDbLine
 10
142.6513996414
 20
528.1831422058
 30
0.0
 11
455.6494685672
 21
528.1831422058
 31
0.0
  0
LINE
  5
13F
330
1F
100
AcDbEntity
  8
0
  6
Continuous
 62
     7
370
    25
100
AcDbLine
 10
448.4327638415
 20
526.6888501586
 30
0.0
 11
142.6513996414
 21
526.6888501586
 31
0.0
  0
LINE
  5
140
330
1F
100
AcDbEntity
  8
0
  6
Continuous
 62
     7
370
    25
100
AcDbLine
 10
134.0709628405
 20
431.8399586172
 30
0.0
 11
134.0709628405
 21
436.5842535608
 31
0.0
  0
LINE
  5
141
330
1F
100
AcDbEntity
  8
0
  6
Continuous
 62
     7
370
    25
100
AcDbLine
 10
147.0513428999
 20
417.02364484
 30
0.0
 11
134.0709628405
 21
431.8399586172
 31
0.0
  0
SPLINE
  5
142
330
1F
100
AcDbEntity
  8
0
  6
Continuous
 62
     7
370
    25
100
AcDbSpline
210
0.0
220
0.0
230
1.0
 70
     8
 71
     3
 72
    10
 73
     6
 74
     0
 42
0.000000001
 43
0.00000001
 40
0.0
 40
0.0
 40
0.0
 40
0.0
 40
0.3147372840128664
 40
0.6573633424823309
 40
1.0
 40
1.0
 40
1.0
 40
1.0
 10
147.0462114763519
 20
114.644664872322
 30
0.0
 10
147.0584891503451
 20
146.3678438388418
 30
0.0
 10
147.0841324192682
 20
212.6251829558183
 30
0.0
 10
147.1081409566402
 20
313.4193830452837
 30
0.0
 10
147.0702774814467
 20
382.4885328666006
 30
0.0
 10
147.0513454510304
 20
417.0236419280535
 30
0.0
  0
LINE
  5
143
330
1F
100
AcDbEntity
  8
0
  6
Continuous
 62
     7
370
    25
100
AcDbLine
 10
134.0709628405
 20
99.8342083027
 30
0.0
 11
147.0462116605
 21
114.6446650825
 31
0.0
  0
LINE
  5
144
330
1F
100
AcDbEntity
  8
0
  6
Continuous
 62
     7
370
    25
100
AcDbLine
 10
134.0709628405
 20
95.0899133591
 30
0.0
 11
134.0709628405
 21
99.8342083027
 31
0.0
  0
LINE
  5
145
330
1F
100
AcDbEntity
  8
0
  6
Continuous
 62
     7
370
    25
100
AcDbLine
 10
641.8956019785
 20
99.8342083027
 30
0.0
 11
641.8956019785
 21
95.0899133591
 31
0.0
  0
LINE
  5
146
330
1F
100
AcDbEntity
  8
0
  6
Continuous
 62
     7
370
    25
100
AcDbLine
 10
630.0821762743
 20
113.3185147111
 30
0.0
 11
641.8956019785
 21
99.8342083027
 31
0.0
  0
LINE
  5
147
330
1F
100
AcDbEntity
  8
0
  6
Continuous
 62
     7
370
    25
100
AcDbLine
 10
630.0821762743
 20
113.3185147111
 30
0.0
 11
628.9203531586
 21
114.6446650825
 31
0.0
  0
SPLINE
  5
148
330
1F
100
AcDbEntity
  8
0
  6
Continuous
 62
     7
370
    25
100
AcDbSpline
210
0.0
220
0.0
230
1.0
 70
     8
 71
     3
 72
    10
 73
     6
 74
     0
 42
0.000000001
 43
0.00000001
 40
0.0
 40
0.0
 40
0.0
 40
0.0
 40
0.3147372840128664
 40
0.6573633424823309
 40
1.0
 40
1.0
 40
1.0
 40
1.0
 10
628.9203533426919
 20
114.644664872322
 30
0.0
 10
628.9080756686986
 20
146.3678438388418
 30
0.0
 10
628.8824323997756
 20
212.6251829558183
 30
0.0
 10
628.8584238624035
 20
313.4193830452837
 30
0.0
 10
628.8962873375971
 20
382.4885328666006
 30
0.0
 10
628.9152193680134
 20
417.0236419280535
 30
0.0
  0
LINE
  5
149
330
1F
100
AcDbEntity
  8
0
  6
Continuous
 62
     7
370
    25
100
AcDbLine
 10
628.9152219191
 20
417.02364484
 30
0.0
 11
630.0821762743
 21
418.3556522089
 31
0.0
  0
LINE
  5
14A
330
1F
100
AcDbEntity
  8
0
  6
Continuous
 62
     7
370
    25
100
AcDbLine
 10
641.8956019785
 20
431.8399586172
 30
0.0
 11
630.0821762743
 21
418.3556522089
 31
0.0
  0
LINE
  5
14B
330
1F
100
AcDbEntity
  8
0
  6
Continuous
 62
     7
370
    25
100
AcDbLine
 10
641.8956019785
 20
436.5842535608
 30
0.0
 11
641.8956019785
 21
431.8399586172
 31
0.0
  0
LINE
  5
14C
330
1F
100
AcDbEntity
  8
0
  6
Continuous
 62
     7
370
    25
100
AcDbLine
 10
642.4022255233
 20
437.0908771056
 30
0.0
 11
641.8956019785
 21
436.5842535608
 31
0.0
  0
LINE
  5
14D
330
1F
100
AcDbEntity
  8
0
  6
Continuous
 62
     7
370
    25
100
AcDbLine
 10
642.4022255233
 20
466.9903852497
 30
0.0
 11
642.4022255233
 21
437.0908771056
 31
0.0
  0
LINE
  5
14E
330
1F
100
AcDbEntity
  8
0
  6
Continuous
 62
     7
370
    25
100
AcDbLine
 10
640.8470011415
 20
468.5456096314
 30
0.0
 11
642.4022255233
 21
466.9903852497
 31
0.0
  0
LINE
  5
14F
330
1F
100
AcDbEntity
  8
0
  6
Continuous
 62
     7
370
    25
100
AcDbLine
 10
640.8470011415
 20
515.7910842079
 30
0.0
 11
640.8470011415
 21
468.5456096314
 31
0.0
  0
LINE
  5
150
330
1F
100
AcDbEntity
  8
0
  6
Continuous
 62
     7
370
    25
100
AcDbLine
 10
616.0100260064
 20
525.7336588013
 30
0.0
 11
630.8850541606
 21
525.7530311888
 31
0.0
  0
ELLIPSE
  5
151
330
1F
100
AcDbEntity
  8
0
  6
Continuous
 62
     7
370
    25
100
AcDbEllipse
 10
645.7630998893
 20
533.6472595667
 30
0.0
 11
367.9639355194794
 21
1.116473279567344
 31
0.0
210
0.0
220
0.0
230
1.0
 40
0.0213308791
 41
4.571092739181848
 42
4.631377219147735
  0
LINE
  5
152
330
1F
100
AcDbEntity
  8
0
  6
Continuous
 62
     7
370
    25
100
AcDbLine
 10
494.9970495434
 20
525.719257117
 30
0.0
 11
593.9675842015
 21
525.719257117
 31
0.0
  0
ELLIPSE
  5
153
330
1F
100
AcDbEntity
  8
0
  6
Continuous
 62
     7
370
    25
100
AcDbEllipse
 10
443.2015338555
 20
533.6472595667
 30
0.0
 11
367.9639355194776
 21
-1.116473279567344
 31
0.0
210
0.0
220
0.0
230
1.0
 40
0.0213308791
 41
4.793400741621653
 42
4.853685221587557
  0
LINE
  5
154
330
1F
100
AcDbEntity
  8
0
  6
Continuous
 62
     7
370
    25
100
AcDbLine
 10
458.0795795842
 20
525.7530311888
 30
0.0
 11
472.9546077384
 21
525.7336588013
 31
0.0
  0
LINE
  5
155
330
1F
100
AcDbEntity
  8
0
  6
Continuous
 62
     7
370
    25
100
AcDbLine
 10
626.9526815071
 20
80.1469928878
 30
0.0
 11
149.0138833119
 21
80.1469928878
 31
0.0
  0
ELLIPSE
  5
156
330
1F
100
AcDbEntity
  8
0
  6
Continuous
 62
     7
370
    25
100
AcDbEllipse
 10
142.7162133268
 20
518.1563815395
 30
0.0
 11
6.056238167067278
 21
-6.056238167067136
 31
0.0
210
0.0
220
0.0
230
1.0
 40
0.9924325091
 41
2.359992588465595
 42
3.923192718713985
  0
LINE
  5
157
330
1F
100
AcDbEntity
  8
0
  6
Continuous
 62
     7
370
    25
100
AcDbLine
 10
113.5932824095
 20
48.4718918121
 30
0.0
 11
662.3732824095
 21
48.4718918121
 31
0.0
  0
LINE
  5
158
330
1F
100
AcDbEntity
  8
0
  6
Continuous
 62
     7
370
    25
100
AcDbLine
 10
113.5932824095
 20
48.4718918121
 30
0.0
 11
113.5932824095
 21
48.9245854086
 31
0.0
  0
LINE
  5
159
330
1F
100
AcDbEntity
  8
0
  6
Continuous
 62
     7
370
    25
100
AcDbLine
 10
662.3732824095
 20
48.4718918121
 30
0.0
 11
662.3732824095
 21
48.9245854086
 31
0.0
  0
LINE
  5
15A
330
1F
100
AcDbEntity
  8
0
  6
Continuous
 62
     7
370
    25
100
AcDbLine
 10
102.9808617648
 20
547.8643124568
 30
0.0
 11
102.9808617648
 21
59.0843124568
 31
0.0
  0
LINE
  5
15B
330
1F
100
AcDbEntity
  8
0
  6
Continuous
 62
     7
370
    25
100
AcDbLine
 10
102.9808617648
 20
547.8643124568
 30
0.0
 11
103.4335553614
 21
547.8643124568
 31
0.0
  0
LINE
  5
15C
330
1F
100
AcDbEntity
  8
0
  6
Continuous
 62
     7
370
    25
100
AcDbLine
 10
102.9808617648
 20
59.0843124568
 30
0.0
 11
103.4335553614
 21
59.0843124568
 31
0.0
  0
ARC
  5
15D
330
1F
100
AcDbEntity
  8
0
  6
Continuous
 62
     7
370
    25
100
AcDbCircle
 10
662.3732824095
 20
547.8643124568
 30
0.0
 40
10.61242064468161
100
AcDbArc
 50
0.0
 51
90.0
  0
LINE
  5
15E
330
1F
100
AcDbEntity
  8
0
  6
Continuous
 62
     7
370
    25
100
AcDbLine
 10
672.9857030542
 20
547.8643124568
 30
0.0
 11
672.5330094577
 21
547.8643124568
 31
0.0
  0
LINE
  5
15F
330
1F
100
AcDbEntity
  8
0
  6
Continuous
 62
     7
370
    25
100
AcDbLine
 10
662.3732824095
 20
558.4767331015
 30
0.0
 11
662.3732824095
 21
558.0240395049
 31
0.0
  0
ARC
  5
160
330
1F
100
AcDbEntity
  8
0
  6
Continuous
 62
     7
370
    25
100
AcDbCircle
 10
113.5932824095
 20
59.0843124568
 30
0.0
 40
10.61242064468159
100
AcDbArc
 50
180.0
 51
270.0
  0
LINE
  5
161
330
1F
100
AcDbEntity
  8
0
  6
Continuous
 62
     7
370
    25
100
AcDbLine
 10
672.9857030542
 20
59.0843124568
 30
0.0
 11
672.9857030542
 21
547.8643124568
 31
0.0
  0
LINE
  5
162
330
1F
100
AcDbEntity
  8
0
  6
Continuous
 62
     7
370
    25
100
AcDbLine
 10
672.9857030542
 20
59.0843124568
 30
0.0
 11
672.5330094577
 21
59.0843124568
 31
0.0
  0
LINE
  5
163
330
1F
100
AcDbEntity
  8
0
  6
Continuous
 62
     7
370
    25
100
AcDbLine
 10
662.3732824095
 20
558.4767331015
 30
0.0
 11
113.5932824095
 21
558.4767331015
 31
0.0
  0
LINE
  5
164
330
1F
100
AcDbEntity
  8
0
  6
Continuous
 62
     7
370
    25
100
AcDbLine
 10
113.5932824095
 20
558.4767331015
 30
0.0
 11
113.5932824095
 21
558.0240395049
 31
0.0
  0
ARC
  5
165
330
1F
100
AcDbEntity
  8
0
  6
Continuous
 62
     7
370
    25
100
AcDbCircle
 10
662.3732824095
 20
59.0843124568
 30
0.0
 40
10.61242064468161
100
AcDbArc
 50
270.0
 51
0.0
  0
ARC
  5
166
330
1F
100
AcDbEntity
  8
0
  6
Continuous
 62
     7
370
    25
100
AcDbCircle
 10
113.5932824095
 20
547.8643124568
 30
0.0
 40
10.61242064468161
100
AcDbArc
 50
90.0
 51
180.0
  0
LINE
  5
167
330
1F
100
AcDbEntity
  8
0
  6
Continuous
 62
     7
370
    25
100
AcDbLine
 10
444.4328201114
 20
454.1633856871
 30
0.0
 11
444.4328201114
 21
517.9816046526
 31
0.0
  0
LINE
  5
168
330
1F
100
AcDbEntity
  8
0
  6
Continuous
 62
     7
370
    25
100
AcDbLine
 10
445.9271121585
 20
517.9816046526
 30
0.0
 11
444.4328201114
 21
517.9816046526
 31
0.0
  0
LINE
  5
169
330
1F
100
AcDbEntity
  8
0
  6
Continuous
 62
     7
370
    25
100
AcDbLine
 10
445.9271121585
 20
517.9816046526
 30
0.0
 11
445.9271121585
 21
454.1633856871
 31
0.0
  0
LINE
  5
16A
330
1F
100
AcDbEntity
  8
0
  6
Continuous
 62
     7
370
    25
100
AcDbLine
 10
445.9271121585
 20
454.1633856871
 30
0.0
 11
444.4328201114
 21
454.1633856871
 31
0.0
  0
LINE
  5
16B
330
1F
100
AcDbEntity
  8
0
  6
Continuous
 62
     7
370
    25
100
AcDbLine
 10
444.4328201114
 20
452.66909364
 30
0.0
 11
147.8719637041
 21
452.66909364
 31
0.0
  0
LINE
  5
16C
330
1F
100
AcDbEntity
  8
0
  6
Continuous
 62
     7
370
    25
100
AcDbLine
 10
147.8719637041
 20
452.66909364
 30
0.0
 11
147.8719637041
 21
454.1633856871
 31
0.0
  0
LINE
  5
16D
330
1F
100
AcDbEntity
  8
0
  6
Continuous
 62
     7
370
    25
100
AcDbLine
 10
147.8719637041
 20
454.1633856871
 30
0.0
 11
444.4328201114
 21
454.1633856871
 31
0.0
  0
LINE
  5
16E
330
1F
100
AcDbEntity
  8
0
  6
Continuous
 62
     7
370
    25
100
AcDbLine
 10
444.4328201114
 20
452.66909364
 30
0.0
 11
444.4328201114
 21
454.1633856871
 31
0.0
  0
ARC
  5
16F
330
1F
100
AcDbEntity
  8
0
  6
Continuous
 62
     7
370
    25
100
AcDbCircle
 10
444.4194490994
 20
454.1767566991
 30
0.0
 40
1.507722349652448
100
AcDbArc
 50
270.5081257793
 51
359.4918742207
  0
ELLIPSE
  5
170
330
1F
100
AcDbEntity
  8
0
  6
Continuous
 62
     7
370
    25
100
AcDbEllipse
 10
455.9767482431
 20
517.8939155489
 30
0.0
 11
8.193733990738053
 21
-8.193733990737769
 31
0.0
210
0.0
220
0.0
230
1.0
 40
0.9924325091
 41
3.06459874666357
 42
3.923192718713949
  0
ELLIPSE
  5
171
330
1F
100
AcDbEntity
  8
0
  6
Continuous
 62
     7
370
    25
100
AcDbEllipse
 10
147.9977785051
 20
437.6003583677
 30
0.0
 11
11.75622703018973
 21
-11.7562270301886
 31
0.0
210
0.0
220
0.0
230
1.0
 40
0.9924325091
 41
2.359992588465579
 42
3.338765641887722
  0
CIRCLE
  5
172
330
1F
100
AcDbEntity
  8
0
  6
Continuous
 62
     7
370
    25
100
AcDbCircle
 10
387.9832824095
 20
490.4261179229
 30
0.0
 40
17.5
  0
LINE
  5
173
330
1F
100
AcDbEntity
  8
0
  6
Continuous
 62
     7
370
    25
100
AcDbLine
 10
445.9271121585
 20
454.1633856871
 30
0.0
 11
446.5624082216
 21
453.5280896241
 31
0.0
  0
ARC
  5
174
330
1F
100
AcDbEntity
  8
0
  6
Continuous
 62
     7
370
    25
100
AcDbCircle
 10
445.0547451625
 20
453.541460636
 30
0.0
 40
1.507722349653308
100
AcDbArc
 50
270.5081257793
 51
359.4918742207
  0
LINE
  5
175
330
1F
100
AcDbEntity
  8
0
  6
Continuous
 62
     7
370
    25
100
AcDbLine
 10
445.0681161744
 20
452.033797577
 30
0.0
 11
444.4328201114
 21
452.66909364
 31
0.0
  0
LINE
  5
176
330
1F
100
AcDbEntity
  8
0
  6
Continuous
 62
     7
370
    25
100
AcDbLine
 10
448.1176326033
 20
468.5456096314
 30
0.0
 11
448.1176326033
 21
515.7910842079
 31
0.0
  0
LINE
  5
177
330
1F
100
AcDbEntity
  8
0
  6
Continuous
 62
     7
370
    25
100
AcDbLine
 10
446.5624082216
 20
466.9903852497
 30
0.0
 11
448.1176326033
 21
468.5456096314
 31
0.0
  0
LINE
  5
178
330
1F
100
AcDbEntity
  8
0
  6
Continuous
 62
     7
370
    25
100
AcDbLine
 10
446.5624082216
 20
453.5280896241
 30
0.0
 11
446.5624082216
 21
466.9903852497
 31
0.0
  0
LINE
  5
179
330
1F
100
AcDbEntity
  8
0
  6
Continuous
 62
     7
370
    25
100
AcDbLine
 10
149.0138833119
 20
451.5271740322
 30
0.0
 11
626.9526815071
 21
451.5271740322
 31
0.0
  0
ELLIPSE
  5
17A
330
1F
100
AcDbEntity
  8
0
  6
Continuous
 62
     7
370
    25
100
AcDbEllipse
 10
448.0567002687
 20
452.0566729953
 30
0.0
 11
3.0
 21
0.0
 31
0.0
210
0.0
220
0.0
230
1.0
 40
0.0874886635
 41
3.228859116189308
 42
4.712388980384691
  0
LINE
  5
17B
330
1F
100
AcDbEntity
  8
0
  6
Continuous
 62
     7
370
    25
100
AcDbLine
 10
627.2197144797
 20
451.7942070047
 30
0.0
 11
448.0567002687
 21
451.7942070047
 31
0.0
  0
LINE
  5
17C
330
1F
100
AcDbEntity
  8
0
  6
Continuous
 62
     7
370
    25
100
AcDbLine
 10
626.9526815071
 20
451.5271740322
 30
0.0
 11
627.2197144797
 21
451.7942070047
 31
0.0
  0
ELLIPSE
  5
17D
330
1F
100
AcDbEntity
  8
0
  6
Continuous
 62
     7
370
    25
100
AcDbEllipse
 10
626.8611798337
 20
436.4927518874
 30
0.0
 11
10.65525056592992
 21
10.65525056592901
 31
0.0
210
0.0
220
0.0
230
1.0
 40
0.995434284
 41
5.501585242055473
 42
7.06478537230381
  0
ELLIPSE
  5
17E
330
1F
100
AcDbEntity
  8
0
  6
Continuous
 62
     7
370
    25
100
AcDbEllipse
 10
627.0938996787
 20
436.7254717324
 30
0.0
 11
10.70359339456638
 21
10.70359339456559
 31
0.0
210
0.0
220
0.0
230
1.0
 40
0.9909384005
 41
6.086012318881647
 42
7.064785372303789
  0
SPLINE
  5
17F
330
1F
100
AcDbEntity
  8
0
  6
Continuous
 62
     7
370
    25
100
AcDbSpline
210
0.0
220
0.0
230
1.0
 70
     8
 71
     3
 72
    12
 73
     8
 74
     0
 42
0.000000001
 43
0.00000001
 40
0.0
 40
0.0
 40
0.0
 40
0.0
 40
0.0027089865047224
 40
0.1743611388491876
 40
0.4353783383142806
 40
0.69597767751079
 40
1.0
 40
1.0
 40
1.0
 40
1.0
 10
642.4022255232555
 20
437.0908771055749
 30
0.0
 10
642.4019136201604
 20
437.0982740814771
 30
0.0
 10
642.3818382972432
 20
437.5743728512925
 30
0.0
 10
642.2713504198975
 20
438.7641458224253
 30
0.0
 10
641.8509507034452
 20
440.6509231165567
 30
0.0
 10
641.0305661602017
 20
442.8901398421888
 30
0.0
 10
640.1448376142606
 20
444.3550689868693
 30
0.0
 10
639.6679142726588
 20
445.1438647258039
 30
0.0
  0
LINE
  5
180
330
1F
100
AcDbEntity
  8
0
  6
Continuous
 62
     7
370
    25
100
AcDbLine
 10
639.6679142727
 20
445.1438647258
 30
0.0
 11
640.9079334761
 21
445.9683217692
 31
0.0
  0
SPLINE
  5
181
330
1F
100
AcDbEntity
  8
0
  6
Continuous
 62
     7
370
    25
100
AcDbSpline
210
0.0
220
0.0
230
1.0
 70
     8
 71
     3
 72
    11
 73
     7
 74
     0
 42
0.000000001
 43
0.00000001
 40
0.0
 40
0.0
 40
0.0
 40
0.0
 40
0.2988963336189507
 40
0.8235601593053071
 40
0.99717283937431
 40
1.0
 40
1.0
 40
1.0
 40
1.0
 10
640.9079334761178
 20
445.968321769208
 30
0.0
 10
641.1695589935487
 20
445.0951411950695
 30
0.0
 10
641.8904254899855
 20
442.6892343576287
 30
0.0
 10
642.2949391724043
 20
439.7109951167616
 30
0.0
 10
642.3918241677102
 20
437.6246294130587
 30
0.0
 10
642.4020614869152
 20
437.0992947367981
 30
0.0
 10
642.4022255232554
 20
437.0908771055749
 30
0.0
  0
LINE
  5
182
330
1F
100
AcDbEntity
  8
0
  6
Continuous
 62
     7
370
    25
100
AcDbLine
 10
632.2006879701
 20
457.268028841
 30
0.0
 11
630.8850541606
 21
458.5836626505
 31
0.0
  0
ARC
  5
183
330
1F
100
AcDbEntity
  8
0
  6
Continuous
 62
     7
370
    25
100
AcDbCircle
 10
630.7959140811
 20
468.634749711
 30
0.0
 40
10.05148233102086
100
AcDbArc
 50
270.5081257793
 51
359.4918742207
  0
SPLINE
  5
184
330
1F
100
AcDbEntity
  8
0
  6
Continuous
 62
     7
370
    25
100
AcDbSpline
210
0.0
220
0.0
230
1.0
 70
     8
 71
     3
 72
    11
 73
     7
 74
     0
 42
0.000000001
 43
0.00000001
 40
0.0
 40
0.0
 40
0.0
 40
0.0
 40
0.2832925984036503
 40
0.7094036924319218
 40
0.9973091718596097
 40
1.0
 40
1.0
 40
1.0
 40
1.0
 10
639.7768346288354
 20
460.7416119528257
 30
0.0
 10
640.2077754242748
 20
461.3009258900516
 30
0.0
 10
641.2869105419123
 20
462.7015250392441
 30
0.0
 10
642.1277230455075
 20
464.8395500209699
 30
0.0
 10
642.3690241612723
 20
466.3651720521529
 30
0.0
 10
642.4019209099661
 20
466.9846490920036
 30
0.0
 10
642.4022255232554
 20
466.990385249717
 30
0.0
  0
ELLIPSE
  5
185
330
1F
100
AcDbEntity
  8
0
  6
Continuous
 62
     7
370
    25
100
AcDbEllipse
 10
632.1129988664
 20
467.3176649256
 30
0.0
 11
7.1411003551151
 21
-7.141100355114474
 31
0.0
210
0.0
220
0.0
230
1.0
 40
0.9901930319
 41
5.501585242055415
 42
6.360179214105846
  0
LINE
  5
186
330
1F
100
AcDbEntity
  8
0
  6
Continuous
 62
     7
370
    25
100
AcDbLine
 10
640.9079334761
 20
459.773680524
 30
0.0
 11
639.7768346288
 21
460.7416119528
 31
0.0
  0
SPLINE
  5
187
330
1F
100
AcDbEntity
  8
0
  6
Continuous
 62
     7
370
    25
100
AcDbSpline
210
0.0
220
0.0
230
1.0
 70
     8
 71
     3
 72
    11
 73
     7
 74
     0
 42
0.000000001
 43
0.00000001
 40
0.0
 40
0.0
 40
0.0
 40
0.0
 40
0.0028628897405718
 40
0.2947025431526016
 40
0.724059528236595
 40
1.0
 40
1.0
 40
1.0
 40
1.0
 10
642.4022255232554
 20
466.990385249717
 30
0.0
 10
642.402061763538
 20
466.9834232186188
 30
0.0
 10
642.385204528507
 20
466.266759827404
 30
0.0
 10
642.2502081135596
 20
464.5071511493529
 30
0.0
 10
641.7906762528457
 20
462.0811642439229
 30
0.0
 10
641.156175468354
 20
460.4225834329531
 30
0.0
 10
640.9079334761178
 20
459.7736805239841
 30
0.0
  0
LINE
  5
188
330
1F
100
AcDbEntity
  8
0
  6
Continuous
 62
     7
370
    25
100
AcDbLine
 10
448.0567002687
 20
459.773680524
 30
0.0
 11
449.187799116
 21
460.7416119528
 31
0.0
  0
SPLINE
  5
189
330
1F
100
AcDbEntity
  8
0
  6
Continuous
 62
     7
370
    25
100
AcDbSpline
210
0.0
220
0.0
230
1.0
 70
     8
 71
     3
 72
    11
 73
     7
 74
     0
 42
0.000000001
 43
0.00000001
 40
0.0
 40
0.0
 40
0.0
 40
0.0
 40
0.2759404717633595
 40
0.7052974568471992
 40
0.9971371102588582
 40
1.0
 40
1.0
 40
1.0
 40
1.0
 10
448.0567002686885
 20
459.7736805239835
 30
0.0
 10
447.8084582764485
 20
460.4225834329413
 30
0.0
 10
447.1739574919471
 20
462.0811642438824
 30
0.0
 10
446.714425631326
 20
464.5071511495786
 30
0.0
 10
446.5794292161853
 20
466.2667598270735
 30
0.0
 10
446.5625719812674
 20
466.9834232186143
 30
0.0
 10
446.5624082215509
 20
466.990385249717
 30
0.0
  0
SPLINE
  5
18A
330
1F
100
AcDbEntity
  8
0
  6
Continuous
 62
     7
370
    25
100
AcDbSpline
210
0.0
220
0.0
230
1.0
 70
     8
 71
     3
 72
    11
 73
     7
 74
     0
 42
0.000000001
 43
0.00000001
 40
0.0
 40
0.0
 40
0.0
 40
0.0
 40
0.0026908281401028
 40
0.2905963075681993
 40
0.7167074015963729
 40
0.9999999999999999
 40
0.9999999999999999
 40
0.9999999999999999
 40
0.9999999999999999
 10
446.5624082215509
 20
466.990385249717
 30
0.0
 10
446.5627128348382
 20
466.9846490919913
 30
0.0
 10
446.5956095833187
 20
466.365172050744
 30
0.0
 10
446.8369106994485
 20
464.8395500219534
 30
0.0
 10
447.677723202867
 20
462.7015250390657
 30
0.0
 10
448.7568583205239
 20
461.3009258900003
 30
0.0
 10
449.187799115971
 20
460.7416119528252
 30
0.0
  0
ARC
  5
18B
330
1F
100
AcDbEntity
  8
0
  6
Continuous
 62
     7
370
    25
100
AcDbCircle
 10
458.1687196637
 20
468.634749711
 30
0.0
 40
10.05148233102063
100
AcDbArc
 50
180.5081257793
 51
269.4918742207
  0
LINE
  5
18C
330
1F
100
AcDbEntity
  8
0
  6
Continuous
 62
     7
370
    25
100
AcDbLine
 10
458.0795795842
 20
458.5836626505
 30
0.0
 11
456.7639457747
 21
457.268028841
 31
0.0
  0
ELLIPSE
  5
18D
330
1F
100
AcDbEntity
  8
0
  6
Continuous
 62
     7
370
    25
100
AcDbEllipse
 10
456.8516348784
 20
467.3176649256
 30
0.0
 11
7.141100355114986
 21
7.141100355114418
 31
0.0
210
0.0
220
0.0
230
1.0
 40
0.9901930319
 41
3.064598746663585
 42
3.923192718714001
  0
LINE
  5
18E
330
1F
100
AcDbEntity
  8
0
  6
Continuous
 62
     7
370
    25
100
AcDbLine
 10
640.9079334761
 20
445.9683217692
 30
0.0
 11
640.9079334761
 21
459.773680524
 31
0.0
  0
ELLIPSE
  5
18F
330
1F
100
AcDbEntity
  8
0
  6
Continuous
 62
     7
370
    25
100
AcDbEllipse
 10
448.0567002687
 20
453.5509650424
 30
0.0
 11
1.5
 21
0.0
 31
0.0
210
0.0
220
0.0
230
1.0
 40
0.1749773271
 41
3.228859116190134
 42
4.712388980384692
  0
LINE
  5
190
330
1F
100
AcDbEntity
  8
0
  6
Continuous
 62
     7
370
    25
100
AcDbLine
 10
448.0567002687
 20
459.773680524
 30
0.0
 11
448.0567002687
 21
453.2884990519
 31
0.0
  0
LINE
  5
191
330
1F
100
AcDbEntity
  8
0
  6
Continuous
 62
     7
370
    25
100
AcDbLine
 10
448.0567002687
 20
451.7942070047
 30
0.0
 11
448.0567002687
 21
453.2884990519
 31
0.0
  0
LINE
  5
192
330
1F
100
AcDbEntity
  8
0
  6
Continuous
 62
     7
370
    25
100
AcDbLine
 10
448.0567002687
 20
453.2884990519
 30
0.0
 11
627.2197144797
 21
453.2884990519
 31
0.0
  0
LINE
  5
193
330
1F
100
AcDbEntity
  8
0
  6
Continuous
 62
     7
370
    25
100
AcDbLine
 10
627.2197144797
 20
451.7942070047
 30
0.0
 11
627.2197144797
 21
453.2884990519
 31
0.0
  0
ELLIPSE
  5
194
330
1F
100
AcDbEntity
  8
0
  6
Continuous
 62
     7
370
    25
100
AcDbEllipse
 10
632.1129988664
 20
467.3176649256
 30
0.0
 11
8.193733990738224
 21
-8.193733990737655
 31
0.0
210
0.0
220
0.0
230
1.0
 40
0.9924325091
 41
5.501585242055425
 42
6.360179214105841
  0
ELLIPSE
  5
195
330
1F
100
AcDbEntity
  8
0
  6
Continuous
 62
     7
370
    25
100
AcDbEllipse
 10
627.0938996787
 20
436.7254717324
 30
0.0
 11
11.75622703018973
 21
11.75622703018865
 31
0.0
210
0.0
220
0.0
230
1.0
 40
0.9924325091
 41
6.086012318881659
 42
7.0647853723038
  0
ELLIPSE
  5
196
330
1F
100
AcDbEntity
  8
0
  6
Continuous
 62
     7
370
    25
100
AcDbEllipse
 10
456.8516348784
 20
467.3176649256
 30
0.0
 11
-8.193733990738224
 21
-8.193733990737655
 31
0.0
210
0.0
220
0.0
230
1.0
 40
0.9924325091
 41
6.206191400253391
 42
7.064785372303776
  0
LINE
  5
197
330
1F
100
AcDbEntity
  8
0
  6
Continuous
 62
     7
370
    25
100
AcDbLine
 10
632.2006879701
 20
455.7737367939
 30
0.0
 11
456.7639457747
 21
455.7737367939
 31
0.0
  0
LINE
  5
198
330
1F
100
AcDbEntity
  8
0
  6
Continuous
 62
     7
370
    25
100
AcDbLine
 10
456.7639457747
 20
455.7737367939
 30
0.0
 11
456.7639457747
 21
457.268028841
 31
0.0
  0
LINE
  5
199
330
1F
100
AcDbEntity
  8
0
  6
Continuous
 62
     7
370
    25
100
AcDbLine
 10
456.7639457747
 20
457.268028841
 30
0.0
 11
632.2006879701
 21
457.268028841
 31
0.0
  0
LINE
  5
19A
330
1F
100
AcDbEntity
  8
0
  6
Continuous
 62
     7
370
    25
100
AcDbLine
 10
632.2006879701
 20
455.7737367939
 30
0.0
 11
632.2006879701
 21
457.268028841
 31
0.0
  0
LINE
  5
19B
330
1F
100
AcDbEntity
  8
0
  6
Continuous
 62
     7
370
    25
100
AcDbLine
 10
472.9546077384
 20
458.603035038
 30
0.0
 11
458.0795795842
 21
458.5836626505
 31
0.0
  0
ELLIPSE
  5
19C
330
1F
100
AcDbEntity
  8
0
  6
Continuous
 62
     7
370
    25
100
AcDbEllipse
 10
443.2015338555
 20
450.6894342726
 30
0.0
 11
367.9639355194769
 21
1.116473279567174
 31
0.0
210
0.0
220
0.0
230
1.0
 40
0.0213308791
 41
1.429500085592049
 42
1.489784565557944
  0
LINE
  5
19D
330
1F
100
AcDbEntity
  8
0
  6
Continuous
 62
     7
370
    25
100
AcDbLine
 10
593.9675842015
 20
458.6174367223
 30
0.0
 11
494.9970495434
 21
458.6174367223
 31
0.0
  0
ELLIPSE
  5
19E
330
1F
100
AcDbEntity
  8
0
  6
Continuous
 62
     7
370
    25
100
AcDbEllipse
 10
645.7630998893
 20
450.6894342726
 30
0.0
 11
367.9639355194769
 21
-1.116473279567231
 31
0.0
210
0.0
220
0.0
230
1.0
 40
0.0213308791
 41
1.651808088031849
 42
1.712092567997745
  0
LINE
  5
19F
330
1F
100
AcDbEntity
  8
0
  6
Continuous
 62
     7
370
    25
100
AcDbLine
 10
630.8850541606
 20
458.5836626505
 30
0.0
 11
616.0100260064
 21
458.603035038
 31
0.0
  0
SPLINE
  5
1A0
330
1F
100
AcDbEntity
  8
0
  6
Continuous
 62
     7
370
    25
100
AcDbSpline
210
0.0
220
0.0
230
1.0
 70
     8
 71
     3
 72
    15
 73
    11
 74
     0
 42
0.000000001
 43
0.00000001
 40
0.0
 40
0.0
 40
0.0
 40
0.0
 40
0.1165983344263514
 40
0.240111145497663
 40
0.3687055514896142
 40
0.5000000009134911
 40
0.6312944502144122
 40
0.7598888558450718
 40
0.8834016663380239
 40
1.0
 40
1.0
 40
1.0
 40
1.0
 10
163.7904528186459
 20
97.90042431850505
 30
0.0
 10
162.7733778649903
 20
97.96202174162222
 30
0.0
 10
160.6789137083562
 20
98.08886941828187
 30
0.0
 10
157.5717666996479
 20
99.03577434433409
 30
0.0
 10
154.5825784348561
 20
100.5888773359277
 30
0.0
 10
151.9126412374915
 20
102.7668537097743
 30
0.0
 10
149.7346647700979
 20
105.4367908099925
 30
0.0
 10
148.1815616871651
 20
108.4259789729561
 30
0.0
 10
147.2346566710451
 20
111.5331258755329
 30
0.0
 10
147.1078089304546
 20
113.6275899564262
 30
0.0
 10
147.0462114763518
 20
114.644664872322
 30
0.0
  0
LINE
  5
1A1
330
1F
100
AcDbEntity
  8
0
  6
Continuous
 62
     7
370
    25
100
AcDbLine
 10
163.7904526085
 20
97.9004241344
 30
0.0
 11
149.3902129118
 21
85.2845611728
 31
0.0
  0
SPLINE
  5
1A2
330
1F
100
AcDbEntity
  8
0
  6
Continuous
 62
     7
370
    25
100
AcDbSpline
210
0.0
220
0.0
230
1.0
 70
     8
 71
     3
 72
    11
 73
     7
 74
     0
 42
0.000000001
 43
0.00000001
 40
0.0
 40
0.0
 40
0.0
 40
0.0
 40
0.3311642633240662
 40
0.6719882690715477
 40
0.9999920190473758
 40
0.9999999999999999
 40
0.9999999999999999
 40
0.9999999999999999
 40
0.9999999999999999
 10
142.1728431180682
 20
87.1226974052966
 30
0.0
 10
142.9209686924271
 20
86.75905369037143
 30
0.0
 10
144.4390419431925
 20
86.02115912379446
 30
0.0
 10
146.8915303066595
 20
85.42436799692271
 30
0.0
 10
148.568246227973
 20
85.28385792133689
 30
0.0
 10
149.3901929127549
 20
85.2845611557013
 30
0.0
 10
149.3902129117883
 20
85.28456117281196
 30
0.0
  0
SPLINE
  5
1A3
330
1F
100
AcDbEntity
  8
0
  6
Continuous
 62
     7
370
    25
100
AcDbSpline
210
0.0
220
0.0
230
1.0
 70
     8
 71
     3
 72
    11
 73
     7
 74
     0
 42
0.000000001
 43
0.00000001
 40
0.0
 40
0.0
 40
0.0
 40
0.0
 40
0.1586996761351186
 40
0.3217230111908282
 40
0.6677345887155623
 40
1.0
 40
1.0
 40
1.0
 40
1.0
 10
134.9804491367582
 20
95.53984793018763
 30
0.0
 10
135.1930113623794
 20
95.01628677383766
 30
0.0
 10
135.6239269190944
 20
93.95490041272086
 30
0.0
 10
136.8650956183693
 20
91.7798057554154
 30
0.0
 10
138.905750805019
 20
89.23398489247441
 30
0.0
 10
141.0986261718035
 20
87.8168867883466
 30
0.0
 10
142.1728431180682
 20
87.12269740529658
 30
0.0
  0
SPLINE
  5
1A4
330
1F
100
AcDbEntity
  8
0
  6
Continuous
 62
     7
370
    25
100
AcDbSpline
210
0.0
220
0.0
230
1.0
 70
     8
 71
     3
 72
    10
 73
     6
 74
     0
 42
0.000000001
 43
0.00000001
 40
0.0
 40
0.0
 40
0.0
 40
0.0
 40
0.0049019660009191
 40
0.4974684082186773
 40
1.0
 40
1.0
 40
1.0
 40
1.0
 10
134.0709628405223
 20
99.83420830274353
 30
0.0
 10
134.0713323491105
 20
99.82716871081301
 30
0.0
 10
134.1088313544385
 20
99.11276665426536
 30
0.0
 10
134.2820530767505
 20
97.67328848646619
 30
0.0
 10
134.7461014197473
 20
96.25572671641214
 30
0.0
 10
134.9804491367582
 20
95.53984793018766
 30
0.0
  0
SPLINE
  5
1A5
330
1F
100
AcDbEntity
  8
0
  6
Continuous
 62
     7
370
    25
100
AcDbSpline
210
0.0
220
0.0
230
1.0
 70
     8
 71
     3
 72
    11
 73
     7
 74
     0
 42
0.000000001
 43
0.00000001
 40
0.0
 40
0.0
 40
0.0
 40
0.0
 40
0.0000079809536993
 40
0.3320703739084833
 40
0.6737371679387792
 40
1.0
 40
1.0
 40
1.0
 40
1.0
 10
149.3902129117884
 20
446.3896057471762
 30
0.0
 10
149.3901929127549
 20
446.3896057642868
 30
0.0
 10
148.558076004702
 20
446.3903177035485
 30
0.0
 10
146.868976537313
 20
446.2470523847402
 30
0.0
 10
144.4179135229373
 20
445.6445732301655
 30
0.0
 10
142.909604921543
 20
444.9101919240427
 30
0.0
 10
142.1728431180685
 20
444.5514695146916
 30
0.0
  0
LINE
  5
1A6
330
1F
100
AcDbEntity
  8
0
  6
Continuous
 62
     7
370
    25
100
AcDbLine
 10
149.3902129118
 20
446.3896057472
 30
0.0
 11
163.796309606
 21
433.7686115461
 31
0.0
  0
SPLINE
  5
1A7
330
1F
100
AcDbEntity
  8
0
  6
Continuous
 62
     7
370
    25
100
AcDbSpline
210
0.0
220
0.0
230
1.0
 70
     8
 71
     3
 72
    15
 73
    11
 74
     0
 42
0.000000001
 43
0.00000001
 40
0.0
 40
0.0
 40
0.0
 40
0.0
 40
0.1165983393399908
 40
0.2401111541291519
 40
0.3687055624435683
 40
0.5000000126578319
 40
0.6312944611683026
 40
0.7598888644764599
 40
0.8834016712515728
 40
0.9999999999999999
 40
0.9999999999999999
 40
0.9999999999999999
 40
0.9999999999999999
 10
147.0513454510303
 20
417.0236419280535
 30
0.0
 10
147.1129453448143
 20
418.0407612082864
 30
0.0
 10
147.2397981085367
 20
420.1353166337423
 30
0.0
 10
148.1867434979834
 20
423.242599000108
 30
0.0
 10
149.7399132196894
 20
426.2319174821181
 30
0.0
 10
151.9179833938065
 20
428.9019710290705
 30
0.0
 10
154.5880355945737
 20
431.0800424994914
 30
0.0
 10
157.577352665527
 20
432.6332134869083
 30
0.0
 10
160.6846335612017
 20
433.580160124444
 30
0.0
 10
162.7791879370989
 20
433.7070137740804
 30
0.0
 10
163.7963066940854
 20
433.7686140972431
 30
0.0
  0
SPLINE
  5
1A8
330
1F
100
AcDbEntity
  8
0
  6
Continuous
 62
     7
370
    25
100
AcDbSpline
210
0.0
220
0.0
230
1.0
 70
     8
 71
     3
 72
    10
 73
     6
 74
     0
 42
0.000000001
 43
0.00000001
 40
0.0
 40
0.0
 40
0.0
 40
0.0
 40
0.4922919025779035
 40
0.9950980472386405
 40
1.0
 40
1.0
 40
1.0
 40
1.0
 10
134.9804491367582
 20
436.1343189898001
 30
0.0
 10
134.7503127971645
 20
435.4331158658698
 30
0.0
 10
134.2851249260475
 20
434.0157335045374
 30
0.0
 10
134.1096028494188
 20
432.5761070758512
 30
0.0
 10
134.0713323445893
 20
431.846998207998
 30
0.0
 10
134.0709628405223
 20
431.8399586172445
 30
0.0
  0
SPLINE
  5
1A9
330
1F
100
AcDbEntity
  8
0
  6
Continuous
 62
     7
370
    25
100
AcDbSpline
210
0.0
220
0.0
230
1.0
 70
     8
 71
     3
 72
    11
 73
     7
 74
     0
 42
0.000000001
 43
0.00000001
 40
0.0
 40
0.0
 40
0.0
 40
0.0
 40
0.3596331594267137
 40
0.5761729730148082
 40
0.7998050528557203
 40
1.0
 40
1.0
 40
1.0
 40
1.0
 10
142.1728431180685
 20
444.5514695146916
 30
0.0
 10
141.0107522897046
 20
443.7938770961648
 30
0.0
 10
139.148951424181
 20
442.5801284062167
 30
0.0
 10
137.1523492594696
 20
440.2503794151727
 30
0.0
 10
135.8363992227794
 20
438.2002948728621
 30
0.0
 10
135.2550498548952
 20
436.797112849404
 30
0.0
 10
134.9804491367582
 20
436.1343189898001
 30
0.0
  0
SPLINE
  5
1AA
330
1F
100
AcDbEntity
  8
0
  6
Continuous
 62
     7
370
    25
100
AcDbSpline
210
0.0
220
0.0
230
1.0
 70
     8
 71
     3
 72
    16
 73
    12
 74
     0
 42
0.000000001
 43
0.00000001
 40
0.0
 40
0.0
 40
0.0
 40
0.0
 40
0.1062016282629618
 40
0.2154693427251372
 40
0.3216774019543481
 40
0.4310026827414805
 40
0.5365707403875252
 40
0.6452148811902068
 40
0.7505599050908341
 40
0.8589372845231708
 40
1.0
 40
1.0
 40
1.0
 40
1.0
 10
613.5022625818689
 20
434.9355659012775
 30
0.0
 10
614.4244572590488
 20
434.8913959509063
 30
0.0
 10
616.295470766154
 20
434.8017808449012
 30
0.0
 10
619.0115197365033
 20
434.0784332860718
 30
0.0
 10
621.5953648568377
 20
432.9307408489755
 30
0.0
 10
623.9213368947422
 20
431.3712847372345
 30
0.0
 10
625.9647260230045
 20
429.4302477664125
 30
0.0
 10
627.6348063151669
 20
427.1991816368777
 30
0.0
 10
628.907097676759
 20
424.6989627545599
 30
0.0
 10
629.8697726421208
 20
421.7503998130699
 30
0.0
 10
630.0054489567527
 20
419.5819489285554
 30
0.0
 10
630.0821762742869
 20
418.3556522088595
 30
0.0
  0
LINE
  5
1AB
330
1F
100
AcDbEntity
  8
0
  6
Continuous
 62
     7
370
    25
100
AcDbLine
 10
613.5022625819
 20
434.9355659013
 30
0.0
 11
626.5763519073
 21
446.3896057472
 31
0.0
  0
SPLINE
  5
1AC
330
1F
100
AcDbEntity
  8
0
  6
Continuous
 62
     7
370
    25
100
AcDbSpline
210
0.0
220
0.0
230
1.0
 70
     8
 71
     3
 72
    11
 73
     7
 74
     0
 42
0.000000001
 43
0.00000001
 40
0.0
 40
0.0
 40
0.0
 40
0.0
 40
0.3311642633234025
 40
0.671988269070157
 40
0.9999920190473723
 40
1.0
 40
1.0
 40
1.0
 40
1.0
 10
633.7937217009753
 20
444.5514695146916
 30
0.0
 10
633.0455961267091
 20
444.9151132296979
 30
0.0
 10
631.5275228761324
 20
445.6530077964392
 30
0.0
 10
629.075034511263
 20
446.249798922057
 30
0.0
 10
627.3983185934162
 20
446.3903090007469
 30
0.0
 10
626.5763719062887
 20
446.3896057642869
 30
0.0
 10
626.5763519072553
 20
446.3896057471762
 30
0.0
  0
SPLINE
  5
1AD
330
1F
100
AcDbEntity
  8
0
  6
Continuous
 62
     7
370
    25
100
AcDbSpline
210
0.0
220
0.0
230
1.0
 70
     8
 71
     3
 72
    11
 73
     7
 74
     0
 42
0.000000001
 43
0.00000001
 40
0.0
 40
0.0
 40
0.0
 40
0.0
 40
0.1586996761350865
 40
0.3217230111907806
 40
0.6677345887154864
 40
1.0
 40
1.0
 40
1.0
 40
1.0
 10
640.9861156822855
 20
436.1343189898001
 30
0.0
 10
640.7735534566643
 20
436.65788014615
 30
0.0
 10
640.3426378999495
 20
437.7192665072666
 30
0.0
 10
639.101469200675
 20
439.8943611645723
 30
0.0
 10
637.0608140140253
 20
442.4401820275135
 30
0.0
 10
634.8679386472403
 20
443.8572801316415
 30
0.0
 10
633.7937217009753
 20
444.5514695146916
 30
0.0
  0
SPLINE
  5
1AE
330
1F
100
AcDbEntity
  8
0
  6
Continuous
 62
     7
370
    25
100
AcDbSpline
210
0.0
220
0.0
230
1.0
 70
     8
 71
     3
 72
    10
 73
     6
 74
     0
 42
0.000000001
 43
0.00000001
 40
0.0
 40
0.0
 40
0.0
 40
0.0
 40
0.004901966000939
 40
0.4974684082211729
 40
1.0
 40
1.0
 40
1.0
 40
1.0
 10
641.8956019785213
 20
431.8399586172445
 30
0.0
 10
641.8952324699329
 20
431.8469982091733
 30
0.0
 10
641.8577334645828
 20
432.561400265542
 30
0.0
 10
641.6845117423022
 20
434.0008784336051
 30
0.0
 10
641.2204633992986
 20
435.4184402036061
 30
0.0
 10
640.9861156822855
 20
436.1343189898001
 30
0.0
  0
ARC
  5
1AF
330
1F
100
AcDbEntity
  8
0
  6
Continuous
 62
     7
370
    25
100
AcDbCircle
 10
641.6299737682
 20
436.0672529914
 30
0.0
 40
0.6473415504963111
100
AcDbArc
 50
126.9984380619
 51
174.0533616218
  0
SPLINE
  5
1B0
330
1F
100
AcDbEntity
  8
0
  6
Continuous
 62
     7
370
    25
100
AcDbSpline
210
0.0
220
0.0
230
1.0
 70
     8
 71
     3
 72
     9
 73
     5
 74
     0
 42
0.000000001
 43
0.00000001
 40
0.0
 40
0.0
 40
0.0
 40
0.0
 40
0.9948949659020064
 40
1.0
 40
1.0
 40
1.0
 40
1.0
 10
641.2404079918311
 20
436.5842535608407
 30
0.0
 10
641.5416558749629
 20
435.0117850574115
 30
0.0
 10
641.8444495300286
 20
433.4312478576846
 30
0.0
 10
641.8953421698598
 20
431.8480409425306
 30
0.0
 10
641.8956019785213
 20
431.8399586172446
 30
0.0
  0
LINE
  5
1B1
330
1F
100
AcDbEntity
  8
0
  6
Continuous
 62
     7
370
    25
100
AcDbLine
 10
641.2404079918
 20
436.5842535608
 30
0.0
 11
641.8956019785
 21
436.5842535608
 31
0.0
  0
LINE
  5
1B2
330
1F
100
AcDbEntity
  8
0
  6
Continuous
 62
     7
370
    25
100
AcDbLine
 10
149.0138833119
 20
448.5385899379
 30
0.0
 11
149.0138833119
 21
451.5271740322
 31
0.0
  0
ELLIPSE
  5
1B3
330
1F
100
AcDbEntity
  8
0
  6
Continuous
 62
     7
370
    25
100
AcDbEllipse
 10
149.1053849853
 20
436.4927518874
 30
0.0
 11
8.549983294683415
 21
-8.549983294682706
 31
0.0
210
0.0
220
0.0
230
1.0
 40
0.9924325091
 41
2.359992588465565
 42
3.04029210941935
  0
SPLINE
  5
1B4
330
1F
100
AcDbEntity
  8
0
  6
Continuous
 62
     7
370
    25
100
AcDbSpline
210
0.0
220
0.0
230
1.0
 70
     8
 71
     3
 72
    11
 73
     7
 74
     0
 42
0.000000001
 43
0.00000001
 40
0.0
 40
0.0
 40
0.0
 40
0.0
 40
0.1885006596008358
 40
0.4036264238283632
 40
0.6255350479062015
 40
0.9999999999999999
 40
0.9999999999999999
 40
0.9999999999999999
 40
0.9999999999999999
 10
134.7261568272127
 20
436.5842535608408
 30
0.0
 10
134.9364496744168
 20
437.2718626383217
 30
0.0
 10
135.3867385490202
 20
438.7442033374115
 30
0.0
 10
136.5189344083598
 20
440.9281374550546
 30
0.0
 10
138.3807592944737
 20
443.5433254612144
 30
0.0
 10
140.2706554685029
 20
444.9645845361919
 30
0.0
 10
141.4573275622148
 20
445.8569978366618
 30
0.0
  0
LINE
  5
1B5
330
1F
100
AcDbEntity
  8
0
  6
Continuous
 62
     7
370
    25
100
AcDbLine
 10
134.7261568272
 20
436.5842535608
 30
0.0
 11
134.0709628405
 21
436.5842535608
 31
0.0
  0
LINE
  5
1B6
330
1F
100
AcDbEntity
  8
0
  6
Continuous
 62
     7
370
    25
100
AcDbLine
 10
641.8956019785
 20
95.0899133591
 30
0.0
 11
641.2404079918
 21
95.0899133591
 31
0.0
  0
SPLINE
  5
1B7
330
1F
100
AcDbEntity
  8
0
  6
Continuous
 62
     7
370
    25
100
AcDbSpline
210
0.0
220
0.0
230
1.0
 70
     8
 71
     3
 72
     9
 73
     5
 74
     0
 42
0.000000001
 43
0.00000001
 40
0.0
 40
0.0
 40
0.0
 40
0.0
 40
0.0051050340975819
 40
0.9999999999999999
 40
0.9999999999999999
 40
0.9999999999999999
 40
0.9999999999999999
 10
641.8956019785213
 20
99.83420830274353
 30
0.0
 10
641.8953421698601
 20
99.8261259774565
 30
0.0
 10
641.8444495301123
 20
98.2429190619813
 30
0.0
 10
641.5416558750053
 20
96.662381862416
 30
0.0
 10
641.240407991832
 20
95.08991335914702
 30
0.0
  0
LINE
  5
1B8
330
1F
100
AcDbEntity
  8
0
  6
Continuous
 62
     7
370
    25
100
AcDbLine
 10
626.9526815071
 20
80.1469928878
 30
0.0
 11
626.9526815071
 21
83.135576982
 31
0.0
  0
ELLIPSE
  5
1B9
330
1F
100
AcDbEntity
  8
0
  6
Continuous
 62
     7
370
    25
100
AcDbEllipse
 10
626.8611798337
 20
95.1814150326
 30
0.0
 11
-8.549983294683557
 21
8.549983294682704
 31
0.0
210
0.0
220
0.0
230
1.0
 40
0.9924325091
 41
2.359992588465589
 42
3.040292109419392
  0
SPLINE
  5
1BA
330
1F
100
AcDbEntity
  8
0
  6
Continuous
 62
     7
370
    25
100
AcDbSpline
210
0.0
220
0.0
230
1.0
 70
     8
 71
     3
 72
    11
 73
     7
 74
     0
 42
0.000000001
 43
0.00000001
 40
0.0
 40
0.0
 40
0.0
 40
0.0
 40
0.1885006596008207
 40
0.4036264238283496
 40
0.6255350479061879
 40
1.0
 40
1.0
 40
1.0
 40
1.0
 10
641.240407991832
 20
95.08991335914702
 30
0.0
 10
641.0301151446275
 20
94.40230428166632
 30
0.0
 10
640.5798262700234
 20
92.9299635825771
 30
0.0
 10
639.4476304106842
 20
90.74602946493387
 30
0.0
 10
637.5858055245707
 20
88.13084145877393
 30
0.0
 10
635.6959093505415
 20
86.70958238379653
 30
0.0
 10
634.5092372568295
 20
85.81716908332665
 30
0.0
  0
LINE
  5
1BB
330
1F
100
AcDbEntity
  8
0
  6
Continuous
 62
     7
370
    25
100
AcDbLine
 10
626.9526815071
 20
448.5385899379
 30
0.0
 11
149.0138833119
 21
448.5385899379
 31
0.0
  0
LINE
  5
1BC
330
1F
100
AcDbEntity
  8
0
  6
Continuous
 62
     7
370
    25
100
AcDbLine
 10
626.9526815071
 20
448.5385899379
 30
0.0
 11
626.9526815071
 21
451.5271740322
 31
0.0
  0
SPLINE
  5
1BD
330
1F
100
AcDbEntity
  8
0
  6
Continuous
 62
     7
370
    25
100
AcDbSpline
210
0.0
220
0.0
230
1.0
 70
     8
 71
     3
 72
    10
 73
     6
 74
     0
 42
0.000000001
 43
0.00000001
 40
0.0
 40
0.0
 40
0.0
 40
0.0
 40
0.3467609647438704
 40
0.6940389041021761
 40
1.0
 40
1.0
 40
1.0
 40
1.0
 10
634.509237256829
 20
445.8569978366617
 30
0.0
 10
635.6043367863199
 20
445.0370223885934
 30
0.0
 10
637.7961684934787
 20
443.3958490178009
 30
0.0
 10
640.0709143135857
 20
440.0766087993899
 30
0.0
 10
640.8673684604342
 20
437.6982284252578
 30
0.0
 10
641.2404079918311
 20
436.5842535608407
 30
0.0
  0
ELLIPSE
  5
1BE
330
1F
100
AcDbEntity
  8
0
  6
Continuous
 62
     7
370
    25
100
AcDbEllipse
 10
626.8611798337
 20
436.4927518874
 30
0.0
 11
8.549983294683443
 21
8.549983294682704
 31
0.0
210
0.0
220
0.0
230
1.0
 40
0.9924325091
 41
0.1013005441704376
 42
0.7816000651242319
  0
ARC
  5
1BF
330
1F
100
AcDbEntity
  8
0
  6
Continuous
 62
     7
370
    25
100
AcDbCircle
 10
134.3365910508
 20
95.6069139286
 30
0.0
 40
0.647341550495174
100
AcDbArc
 50
306.9984380619
 51
354.0533616218
  0
SPLINE
  5
1C0
330
1F
100
AcDbEntity
  8
0
  6
Continuous
 62
     7
370
    25
100
AcDbSpline
210
0.0
220
0.0
230
1.0
 70
     8
 71
     3
 72
     9
 73
     5
 74
     0
 42
0.000000001
 43
0.00000001
 40
0.0
 40
0.0
 40
0.0
 40
0.0
 40
0.9948949659026141
 40
1.0
 40
1.0
 40
1.0
 40
1.0
 10
134.7261568272128
 20
95.08991335914702
 30
0.0
 10
134.424908944092
 20
96.66238186264417
 30
0.0
 10
134.1221152890376
 20
98.2429190624384
 30
0.0
 10
134.0712226491841
 20
99.8261259774591
 30
0.0
 10
134.0709628405223
 20
99.83420830274353
 30
0.0
  0
LINE
  5
1C1
330
1F
100
AcDbEntity
  8
0
  6
Continuous
 62
     7
370
    25
100
AcDbLine
 10
134.0709628405
 20
95.0899133591
 30
0.0
 11
134.7261568272
 21
95.0899133591
 31
0.0
  0
SPLINE
  5
1C2
330
1F
100
AcDbEntity
  8
0
  6
Continuous
 62
     7
370
    25
100
AcDbSpline
210
0.0
220
0.0
230
1.0
 70
     8
 71
     3
 72
    11
 73
     7
 74
     0
 42
0.000000001
 43
0.00000001
 40
0.0
 40
0.0
 40
0.0
 40
0.0
 40
0.0000079809536956
 40
0.3320703739076403
 40
0.6737371679370165
 40
1.0
 40
1.0
 40
1.0
 40
1.0
 10
626.5763519072553
 20
85.28456117281196
 30
0.0
 10
626.5763719062888
 20
85.28456115570133
 30
0.0
 10
627.4084888135582
 20
85.28384921822746
 30
0.0
 10
629.0975882820965
 20
85.42711453439586
 30
0.0
 10
631.5486512960114
 20
86.02959369002444
 30
0.0
 10
633.0569598974678
 20
86.76397499601087
 30
0.0
 10
633.7937217009757
 20
87.1226974052967
 30
0.0
  0
LINE
  5
1C3
330
1F
100
AcDbEntity
  8
0
  6
Continuous
 62
     7
370
    25
100
AcDbLine
 10
626.5763519073
 20
85.2845611728
 30
0.0
 11
613.5022625819
 21
96.7386010187
 31
0.0
  0
SPLINE
  5
1C4
330
1F
100
AcDbEntity
  8
0
  6
Continuous
 62
     7
370
    25
100
AcDbSpline
210
0.0
220
0.0
230
1.0
 70
     8
 71
     3
 72
    16
 73
    12
 74
     0
 42
0.000000001
 43
0.00000001
 40
0.0
 40
0.0
 40
0.0
 40
0.0
 40
0.1077327973606074
 40
0.2154609726618571
 40
0.3232245445845596
 40
0.4309854772432452
 40
0.5380904884021226
 40
0.6451960852498789
 40
0.7520549062692955
 40
0.8589171513633318
 40
0.9999999999999999
 40
0.9999999999999999
 40
0.9999999999999999
 40
0.9999999999999999
 10
630.0821762742869
 20
113.318514711129
 30
0.0
 10
630.0358449655208
 20
112.3831518347668
 30
0.0
 10
629.9431843357404
 20
110.5124662119086
 30
0.0
 10
629.2176380283288
 20
107.7835818138663
 30
0.0
 10
628.0677521643183
 20
105.2151375093213
 30
0.0
 10
626.5026231811605
 20
102.8777512531589
 30
0.0
 10
624.5646188255615
 20
100.8497006213244
 30
0.0
 10
622.3245313200525
 20
99.17090886316177
 30
0.0
 10
619.8321939389533
 20
97.91155407820554
 30
0.0
 10
616.8844753144709
 20
96.94908124272797
 30
0.0
 10
614.7288382466063
 20
96.81493268117508
 30
0.0
 10
613.5022625818689
 20
96.73860101871051
 30
0.0
  0
SPLINE
  5
1C5
330
1F
100
AcDbEntity
  8
0
  6
Continuous
 62
     7
370
    25
100
AcDbSpline
210
0.0
220
0.0
230
1.0
 70
     8
 71
     3
 72
    10
 73
     6
 74
     0
 42
0.000000001
 43
0.00000001
 40
0.0
 40
0.0
 40
0.0
 40
0.0
 40
0.4922919025778307
 40
0.995098047238117
 40
1.0
 40
1.0
 40
1.0
 40
1.0
 10
640.9861156822881
 20
95.53984793019407
 30
0.0
 10
641.2162520218927
 20
96.24105105403576
 30
0.0
 10
641.6814398930318
 20
97.65843341518848
 30
0.0
 10
641.8569619695402
 20
99.09805984477308
 30
0.0
 10
641.8952324744536
 20
99.82716871199531
 30
0.0
 10
641.8956019785213
 20
99.83420830274353
 30
0.0
  0
SPLINE
  5
1C6
330
1F
100
AcDbEntity
  8
0
  6
Continuous
 62
     7
370
    25
100
AcDbSpline
210
0.0
220
0.0
230
1.0
 70
     8
 71
     3
 72
    11
 73
     7
 74
     0
 42
0.000000001
 43
0.00000001
 40
0.0
 40
0.0
 40
0.0
 40
0.0
 40
0.35963315942651
 40
0.5761729730144745
 40
0.7998050528552407
 40
1.0
 40
1.0
 40
1.0
 40
1.0
 10
633.7937217009757
 20
87.1226974052967
 30
0.0
 10
634.9558125293395
 20
87.88028982382356
 30
0.0
 10
636.8176133948633
 20
89.09403851377165
 30
0.0
 10
638.8142155595744
 20
91.42378750481586
 30
0.0
 10
640.1301655962657
 20
93.47387204712837
 30
0.0
 10
640.7115149641503
 20
94.87705407058822
 30
0.0
 10
640.986115682288
 20
95.5398479301941
 30
0.0
  0
LINE
  5
1C7
330
1F
100
AcDbEntity
  8
0
  6
Continuous
 62
     7
370
    25
100
AcDbLine
 10
149.0138833119
 20
80.1469928878
 30
0.0
 11
149.0138833119
 21
83.135576982
 31
0.0
  0
LINE
  5
1C8
330
1F
100
AcDbEntity
  8
0
  6
Continuous
 62
     7
370
    25
100
AcDbLine
 10
149.0138833119
 20
83.135576982
 30
0.0
 11
626.9526815071
 21
83.135576982
 31
0.0
  0
SPLINE
  5
1C9
330
1F
100
AcDbEntity
  8
0
  6
Continuous
 62
     7
370
    25
100
AcDbSpline
210
0.0
220
0.0
230
1.0
 70
     8
 71
     3
 72
    10
 73
     6
 74
     0
 42
0.000000001
 43
0.00000001
 40
0.0
 40
0.0
 40
0.0
 40
0.0
 40
0.3467609647438023
 40
0.6940389041021371
 40
1.0
 40
1.0
 40
1.0
 40
1.0
 10
141.4573275622144
 20
85.81716908332649
 30
0.0
 10
140.3622280327239
 20
86.63714453139448
 30
0.0
 10
138.1703963255653
 20
88.27831790218677
 30
0.0
 10
135.8956505054586
 20
91.59755812059775
 30
0.0
 10
135.0991963586098
 20
93.97593849472996
 30
0.0
 10
134.7261568272127
 20
95.08991335914699
 30
0.0
  0
ELLIPSE
  5
1CA
330
1F
100
AcDbEntity
  8
0
  6
Continuous
 62
     7
370
    25
100
AcDbEllipse
 10
149.1053849853
 20
95.1814150326
 30
0.0
 11
-8.549983294683443
 21
-8.549983294682704
 31
0.0
210
0.0
220
0.0
230
1.0
 40
0.9924325091
 41
0.1013005441704076
 42
0.781600065124231
  0
ARC
  5
1CB
330
1F
100
AcDbEntity
  8
0
  6
Continuous
 62
     7
370
    25
100
AcDbCircle
 10
641.6299737682
 20
95.6069139286
 30
0.0
 40
0.6473415504920489
100
AcDbArc
 50
185.9466383773
 51
233.001561938
  0
SPLINE
  5
1CC
330
1F
100
AcDbEntity
  8
0
  6
Continuous
 62
     7
370
    25
100
AcDbSpline
210
0.0
220
0.0
230
1.0
 70
     8
 71
     3
 72
     9
 73
     5
 74
     0
 42
0.000000001
 43
0.00000001
 40
0.0
 40
0.0
 40
0.0
 40
0.0
 40
0.0051050340973464
 40
0.9999999999999999
 40
0.9999999999999999
 40
0.9999999999999999
 40
0.9999999999999999
 10
134.0709628405223
 20
431.8399586172446
 30
0.0
 10
134.0712226491836
 20
431.8480409425312
 30
0.0
 10
134.1221152889364
 20
433.4312478579866
 30
0.0
 10
134.4249089440415
 20
435.0117850575617
 30
0.0
 10
134.7261568272127
 20
436.5842535608407
 30
0.0
  0
ARC
  5
1CD
330
1F
100
AcDbEntity
  8
0
  6
Continuous
 62
     7
370
    25
100
AcDbCircle
 10
134.3365910508
 20
436.0672529914
 30
0.0
 40
0.6473415504971858
100
AcDbArc
 50
5.9466383783
 51
53.0015619381
  0
LINE
  5
1CE
330
1F
100
AcDbEntity
  8
0
  6
Continuous
 62
     7
370
    25
100
AcDbLine
 10
634.5092372568
 20
85.8171690833
 30
0.0
 11
633.793721701
 21
87.1226974053
 31
0.0
  0
LINE
  5
1CF
330
1F
100
AcDbEntity
  8
0
  6
Continuous
 62
     7
370
    25
100
AcDbLine
 10
142.1728431181
 20
444.5514695147
 30
0.0
 11
141.4573275622
 21
445.8569978367
 31
0.0
  0
LINE
  5
1D0
330
1F
100
AcDbEntity
  8
0
  6
Continuous
 62
     7
370
    25
100
AcDbLine
 10
633.793721701
 20
444.5514695147
 30
0.0
 11
634.5092372568
 21
445.8569978367
 31
0.0
  0
LINE
  5
1D1
330
1F
100
AcDbEntity
  8
0
  6
Continuous
 62
     7
370
    25
100
AcDbLine
 10
141.4573275622
 20
85.8171690833
 30
0.0
 11
142.1728431181
 21
87.1226974053
 31
0.0
  0
LINE
  5
1D2
330
1F
100
AcDbEntity
  8
0
  6
Continuous
 62
     7
370
    25
100
AcDbLine
 10
626.5763519073
 20
83.7902691257
 30
0.0
 11
149.3902129118
 21
83.7902691257
 31
0.0
  0
LINE
  5
1D3
330
1F
100
AcDbEntity
  8
0
  6
Continuous
 62
     7
370
    25
100
AcDbLine
 10
149.3902129118
 20
83.7902691257
 30
0.0
 11
149.3902129118
 21
85.2845611728
 31
0.0
  0
LINE
  5
1D4
330
1F
100
AcDbEntity
  8
0
  6
Continuous
 62
     7
370
    25
100
AcDbLine
 10
149.3902129118
 20
85.2845611728
 30
0.0
 11
626.5763519073
 21
85.2845611728
 31
0.0
  0
LINE
  5
1D5
330
1F
100
AcDbEntity
  8
0
  6
Continuous
 62
     7
370
    25
100
AcDbLine
 10
626.5763519073
 20
83.7902691257
 30
0.0
 11
626.5763519073
 21
85.2845611728
 31
0.0
  0
SPLINE
  5
1D6
330
1F
100
AcDbEntity
  8
0
  6
Continuous
 62
     7
370
    25
100
AcDbSpline
210
0.0
220
0.0
230
1.0
 70
     8
 71
     3
 72
    10
 73
     6
 74
     0
 42
0.000000001
 43
0.00000001
 40
0.0
 40
0.0
 40
0.0
 40
0.0
 40
0.3263598320581532
 40
0.6583665086481981
 40
1.0
 40
1.0
 40
1.0
 40
1.0
 10
634.5092372568295
 20
85.81716908332665
 30
0.0
 10
633.699303319955
 20
85.42390496686369
 30
0.0
 10
632.0654215554835
 20
84.6305722772998
 30
0.0
 10
629.3741878090456
 20
83.93256520898292
 30
0.0
 10
627.517806891937
 20
83.83815090346047
 30
0.0
 10
626.5763519072553
 20
83.79026912567439
 30
0.0
  0
SPLINE
  5
1D7
330
1F
100
AcDbEntity
  8
0
  6
Continuous
 62
     7
370
    25
100
AcDbSpline
210
0.0
220
0.0
230
1.0
 70
     8
 71
     3
 72
    10
 73
     6
 74
     0
 42
0.000000001
 43
0.00000001
 40
0.0
 40
0.0
 40
0.0
 40
0.0
 40
0.3279080017883613
 40
0.6591480445661486
 40
1.0
 40
1.0
 40
1.0
 40
1.0
 10
626.5763519072553
 20
447.8838977943139
 30
0.0
 10
627.4798791215808
 20
447.8396162997636
 30
0.0
 10
629.296114752571
 20
447.7506033437393
 30
0.0
 10
631.9924439706501
 20
447.0729240543631
 30
0.0
 10
633.6623454718201
 20
446.2661525855254
 30
0.0
 10
634.5092372568291
 20
445.8569978366617
 30
0.0
  0
LINE
  5
1D8
330
1F
100
AcDbEntity
  8
0
  6
Continuous
 62
     7
370
    25
100
AcDbLine
 10
149.3902129118
 20
447.8838977943
 30
0.0
 11
626.5763519073
 21
447.8838977943
 31
0.0
  0
SPLINE
  5
1D9
330
1F
100
AcDbEntity
  8
0
  6
Continuous
 62
     7
370
    25
100
AcDbSpline
210
0.0
220
0.0
230
1.0
 70
     8
 71
     3
 72
    10
 73
     6
 74
     0
 42
0.000000001
 43
0.00000001
 40
0.0
 40
0.0
 40
0.0
 40
0.0
 40
0.3263598320563926
 40
0.6583665086472781
 40
1.0
 40
1.0
 40
1.0
 40
1.0
 10
141.4573275622147
 20
445.8569978366619
 30
0.0
 10
142.2672614990848
 20
446.2502619531228
 30
0.0
 10
143.9011432635536
 20
447.0435946426857
 30
0.0
 10
146.592377009991
 20
447.7416017110045
 30
0.0
 10
148.4487579271043
 20
447.8360160165274
 30
0.0
 10
149.3902129117884
 20
447.8838977943139
 30
0.0
  0
SPLINE
  5
1DA
330
1F
100
AcDbEntity
  8
0
  6
Continuous
 62
     7
370
    25
100
AcDbSpline
210
0.0
220
0.0
230
1.0
 70
     8
 71
     3
 72
    10
 73
     6
 74
     0
 42
0.000000001
 43
0.00000001
 40
0.0
 40
0.0
 40
0.0
 40
0.0
 40
0.3279080017869708
 40
0.6591480445654265
 40
1.0
 40
1.0
 40
1.0
 40
1.0
 10
149.3902129117884
 20
83.79026912567436
 30
0.0
 10
148.4866856974668
 20
83.83455062022414
 30
0.0
 10
146.6704500664783
 20
83.92356357624803
 30
0.0
 10
143.9741208483988
 20
84.60124286562274
 30
0.0
 10
142.3042193472252
 20
85.408014334462
 30
0.0
 10
141.4573275622144
 20
85.81716908332649
 30
0.0
  0
LINE
  5
1DB
330
1F
100
AcDbEntity
  8
0
  6
Continuous
 62
     7
370
    25
100
AcDbLine
 10
626.5763519073
 20
446.3896057472
 30
0.0
 11
149.3902129118
 21
446.3896057472
 31
0.0
  0
LINE
  5
1DC
330
1F
100
AcDbEntity
  8
0
  6
Continuous
 62
     7
370
    25
100
AcDbLine
 10
149.3902129118
 20
446.3896057472
 30
0.0
 11
149.3902129118
 21
447.8838977943
 31
0.0
  0
LINE
  5
1DD
330
1F
100
AcDbEntity
  8
0
  6
Continuous
 62
     7
370
    25
100
AcDbLine
 10
626.5763519073
 20
446.3896057472
 30
0.0
 11
626.5763519073
 21
447.8838977943
 31
0.0
  0
LINE
  5
1DE
330
1F
100
AcDbEntity
  8
0
  6
Continuous
 62
     7
370
    25
100
AcDbLine
 10
613.5022625819
 20
434.9355659013
 30
0.0
 11
612.170255213
 21
433.7686115461
 31
0.0
  0
SPLINE
  5
1DF
330
1F
100
AcDbEntity
  8
0
  6
Continuous
 62
     7
370
    25
100
AcDbSpline
210
0.0
220
0.0
230
1.0
 70
     8
 71
     3
 72
    10
 73
     6
 74
     0
 42
0.000000001
 43
0.00000001
 40
0.0
 40
0.0
 40
0.0
 40
0.0
 40
0.4245082937381274
 40
0.8490202849832365
 40
1.0
 40
1.0
 40
1.0
 40
1.0
 10
612.1702581249584
 20
433.7686140972431
 30
0.0
 10
580.4476583344817
 20
433.7471161569237
 30
0.0
 10
517.0021824467144
 20
433.7041200890355
 30
0.0
 10
442.2725764495403
 20
433.6733992935528
 30
0.0
 10
399.2660141213609
 20
433.6699645737587
 30
0.0
 10
387.9832824094905
 20
433.6690634782085
 30
0.0
  0
SPLINE
  5
1E0
330
1F
100
AcDbEntity
  8
0
  6
Continuous
 62
     7
370
    25
100
AcDbSpline
210
0.0
220
0.0
230
1.0
 70
     8
 71
     3
 72
    10
 73
     6
 74
     0
 42
0.000000001
 43
0.00000001
 40
0.0
 40
0.0
 40
0.0
 40
0.0
 40
0.4245082937381273
 40
0.8490202849832363
 40
0.9999999999999999
 40
0.9999999999999999
 40
0.9999999999999999
 40
0.9999999999999999
 10
163.7963066940854
 20
433.7686140972431
 30
0.0
 10
195.5189064845621
 20
433.7471161569237
 30
0.0
 10
258.9643823723295
 20
433.7041200890355
 30
0.0
 10
333.6939883695034
 20
433.6733992935528
 30
0.0
 10
376.7005506976828
 20
433.6699645737587
 30
0.0
 10
387.9832824095532
 20
433.6690634782085
 30
0.0
  0
LINE
  5
1E1
330
1F
100
AcDbEntity
  8
0
  6
Continuous
 62
     7
370
    25
100
AcDbLine
 10
302.0888086437
 20
97.9429729593
 30
0.0
 11
163.7904528186
 21
97.9004243185
 31
0.0
  0
LINE
  5
1E2
330
1F
100
AcDbEntity
  8
0
  6
Continuous
 62
     7
370
    25
100
AcDbLine
 10
345.0763318967
 20
97.9492826809
 30
0.0
 11
302.0888086437
 21
97.9429729593
 31
0.0
  0
LINE
  5
1E3
330
1F
100
AcDbEntity
  8
0
  6
Continuous
 62
     7
370
    25
100
AcDbLine
 10
387.9832824095
 20
97.9515361351
 30
0.0
 11
345.0763318967
 21
97.9492826809
 31
0.0
  0
LINE
  5
1E4
330
1F
100
AcDbEntity
  8
0
  6
Continuous
 62
     7
370
    25
100
AcDbLine
 10
387.9832824095
 20
97.9515361351
 30
0.0
 11
430.8902329224
 21
97.9492826809
 31
0.0
  0
LINE
  5
1E5
330
1F
100
AcDbEntity
  8
0
  6
Continuous
 62
     7
370
    25
100
AcDbLine
 10
430.8902329224
 20
97.9492826809
 30
0.0
 11
473.8777561754
 21
97.9429729593
 31
0.0
  0
LINE
  5
1E6
330
1F
100
AcDbEntity
  8
0
  6
Continuous
 62
     7
370
    25
100
AcDbLine
 10
473.8777561754
 20
97.9429729593
 30
0.0
 11
612.1761120004
 21
97.9004243185
 31
0.0
  0
LINE
  5
1E7
330
1F
100
AcDbEntity
  8
0
  6
Continuous
 62
     7
370
    25
100
AcDbLine
 10
612.1761122105
 20
97.9004241344
 30
0.0
 11
613.5022625819
 21
96.7386010187
 31
0.0
  0
LINE
  5
1E8
330
1F
100
AcDbEntity
  8
0
  6
Continuous
 62
     7
370
    25
100
AcDbLine
 10
631.0338961465
 20
468.5456096314
 30
0.0
 11
640.8470011415
 21
468.5456096314
 31
0.0
  0
ARC
  5
1E9
330
1F
100
AcDbEntity
  8
0
  6
Continuous
 62
     7
370
    25
100
AcDbCircle
 10
427.7086216234
 20
466.6014180812
 30
0.0
 40
203.3345694679466
100
AcDbArc
 50
357.7401645186
 51
0.547844216
  0
LINE
  5
1EA
330
1F
100
AcDbEntity
  8
0
  6
Continuous
 62
     7
370
    25
100
AcDbLine
 10
616.1588679924
 20
468.5649820189
 30
0.0
 11
631.0338961465
 21
468.5456096314
 31
0.0
  0
ARC
  5
1EB
330
1F
100
AcDbEntity
  8
0
  6
Continuous
 62
     7
370
    25
100
AcDbCircle
 10
412.8335934684
 20
466.6207904687
 30
0.0
 40
203.3345694686593
100
AcDbArc
 50
357.7401645186
 51
0.547844216
  0
ARC
  5
1EC
330
1F
100
AcDbEntity
  8
0
  6
Continuous
 62
     7
370
    25
100
AcDbCircle
 10
661.2560121218
 20
466.6014180813
 30
0.0
 40
203.3345694683007
100
AcDbArc
 50
179.452155784
 51
182.2598354814
  0
LINE
  5
1ED
330
1F
100
AcDbEntity
  8
0
  6
Continuous
 62
     7
370
    25
100
AcDbLine
 10
457.9307375983
 20
468.5456096314
 30
0.0
 11
472.8057657525
 21
468.5649820189
 31
0.0
  0
ARC
  5
1EE
330
1F
100
AcDbEntity
  8
0
  6
Continuous
 62
     7
370
    25
100
AcDbCircle
 10
676.131040276
 20
466.6207904687
 30
0.0
 40
203.3345694682943
100
AcDbArc
 50
179.452155784
 51
182.2598354814
  0
ARC
  5
1EF
330
1F
100
AcDbEntity
  8
0
  6
Continuous
 62
     7
370
    25
100
AcDbCircle
 10
676.1310402759
 20
517.7159033706
 30
0.0
 40
203.3345694681854
100
AcDbArc
 50
177.7401645186
 51
180.547844216
  0
LINE
  5
1F0
330
1F
100
AcDbEntity
  8
0
  6
Continuous
 62
     7
370
    25
100
AcDbLine
 10
472.8057657525
 20
515.7717118204
 30
0.0
 11
457.9307375983
 21
515.7910842079
 31
0.0
  0
ARC
  5
1F1
330
1F
100
AcDbEntity
  8
0
  6
Continuous
 62
     7
370
    25
100
AcDbCircle
 10
661.2560121218
 20
517.735275758
 30
0.0
 40
203.3345694682918
100
AcDbArc
 50
177.7401645186
 51
180.547844216
  0
LINE
  5
1F2
330
1F
100
AcDbEntity
  8
0
  6
Continuous
 62
     7
370
    25
100
AcDbLine
 10
448.1176326033
 20
515.7910842079
 30
0.0
 11
457.9307375983
 21
515.7910842079
 31
0.0
  0
LINE
  5
1F3
330
1F
100
AcDbEntity
  8
0
  6
Continuous
 62
     7
370
    25
100
AcDbLine
 10
631.0338961465
 20
515.7910842079
 30
0.0
 11
616.1588679924
 21
515.7717118204
 31
0.0
  0
ARC
  5
1F4
330
1F
100
AcDbEntity
  8
0
  6
Continuous
 62
     7
370
    25
100
AcDbCircle
 10
412.8335934689
 20
517.7159033706
 30
0.0
 40
203.3345694682553
100
AcDbArc
 50
359.452155784
 51
2.2598354814
  0
ARC
  5
1F5
330
1F
100
AcDbEntity
  8
0
  6
Continuous
 62
     7
370
    25
100
AcDbCircle
 10
427.7086216234
 20
517.7352757581
 30
0.0
 40
203.3345694679477
100
AcDbArc
 50
359.452155784
 51
2.2598354814
  0
LINE
  5
1F6
330
1F
100
AcDbEntity
  8
0
  6
Continuous
 62
     7
370
    25
100
AcDbLine
 10
631.0338961465
 20
515.7910842079
 30
0.0
 11
640.8470011415
 21
515.7910842079
 31
0.0
  0
LINE
  5
1F7
330
1F
100
AcDbEntity
  8
0
  6
Continuous
 62
     7
370
    25
100
AcDbLine
 10
448.1176326033
 20
468.5456096314
 30
0.0
 11
457.9307375983
 21
468.5456096314
 31
0.0
  0
LINE
  5
1F8
330
1F
100
AcDbEntity
  8
0
  6
Continuous
 62
     7
370
    25
100
AcDbLine
 10
631.0338961465
 20
468.5456096314
 30
0.0
 11
631.0338961465
 21
515.7910842079
 31
0.0
  0
LINE
  5
1F9
330
1F
100
AcDbEntity
  8
0
  6
Continuous
 62
     7
370
    25
100
AcDbLine
 10
457.9307375983
 20
515.7910842079
 30
0.0
 11
457.9307375983
 21
468.5456096314
 31
0.0
  0
ELLIPSE
  5
1FA
330
1F
100
AcDbEntity
  8
0
  6
Continuous
 62
     7
370
    25
100
AcDbEllipse
 10
645.7630998893
 20
460.6513812535
 30
0.0
 11
370.4099378820515
 21
8.556141330736864
 31
0.0
210
0.0
220
0.0
230
1.0
 40
0.0232716581
 41
1.650266980683377
 42
1.710551460649273
  0
LINE
  5
1FB
330
1F
100
AcDbEntity
  8
0
  6
Continuous
 62
     7
370
    25
100
AcDbLine
 10
593.9675842015
 20
467.9955143677
 30
0.0
 11
593.9675842015
 21
458.6174367223
 31
0.0
  0
ELLIPSE
  5
1FC
330
1F
100
AcDbEntity
  8
0
  6
Continuous
 62
     7
370
    25
100
AcDbEllipse
 10
443.2015338555
 20
460.6513812535
 30
0.0
 11
370.4099378820515
 21
-8.556141330736921
 31
0.0
210
0.0
220
0.0
230
1.0
 40
0.0232716581
 41
1.431041192940513
 42
1.491325672906412
  0
LINE
  5
1FD
330
1F
100
AcDbEntity
  8
0
  6
Continuous
 62
     7
370
    25
100
AcDbLine
 10
494.9970495434
 20
467.9955143677
 30
0.0
 11
494.9970495434
 21
458.6174367223
 31
0.0
  0
ELLIPSE
  5
1FE
330
1F
100
AcDbEntity
  8
0
  6
Continuous
 62
     7
370
    25
100
AcDbEllipse
 10
645.7630998893
 20
523.6853125858
 30
0.0
 11
370.4099378820538
 21
-8.55614133073675
 31
0.0
210
0.0
220
0.0
230
1.0
 40
0.0232716581
 41
4.572633846530316
 42
4.632918326496205
  0
LINE
  5
1FF
330
1F
100
AcDbEntity
  8
0
  6
Continuous
 62
     7
370
    25
100
AcDbLine
 10
593.9675842015
 20
525.719257117
 30
0.0
 11
593.9675842015
 21
516.3411794717
 31
0.0
  0
LINE
  5
200
330
1F
100
AcDbEntity
  8
0
  6
Continuous
 62
     7
370
    25
100
AcDbLine
 10
494.9970495434
 20
525.719257117
 30
0.0
 11
494.9970495434
 21
516.3411794717
 31
0.0
  0
ELLIPSE
  5
201
330
1F
100
AcDbEntity
  8
0
  6
Continuous
 62
     7
370
    25
100
AcDbEllipse
 10
443.2015338555
 20
523.6853125858
 30
0.0
 11
370.409937882052
 21
8.556141330736637
 31
0.0
210
0.0
220
0.0
230
1.0
 40
0.0232716581
 41
4.791859634273181
 42
4.852144114239087
  0
LINE
  5
202
330
1F
100
AcDbEntity
  8
0
  6
Continuous
 62
     7
370
    25
100
AcDbLine
 10
494.9970495434
 20
467.9955143677
 30
0.0
 11
593.9675842015
 21
467.9955143677
 31
0.0
  0
LINE
  5
203
330
1F
100
AcDbEntity
  8
0
  6
Continuous
 62
     7
370
    25
100
AcDbLine
 10
593.9675842015
 20
516.3411794717
 30
0.0
 11
494.9970495434
 21
516.3411794717
 31
0.0
  0
ARC
  5
204
330
1F
100
AcDbEntity
  8
0
  6
Continuous
 62
     7
370
    25
100
AcDbCircle
 10
519.1046431703
 20
479.4683469197
 30
0.0
 40
4.5
100
AcDbArc
 50
180.0
 51
183.3491795409
  0
LINE
  5
205
330
1F
100
AcDbEntity
  8
0
  6
Continuous
 62
     7
370
    25
100
AcDbLine
 10
472.8057657525
 20
468.5649820189
 30
0.0
 11
514.6123289945
 21
479.2054527469
 31
0.0
  0
LINE
  5
206
330
1F
100
AcDbEntity
  8
0
  6
Continuous
 62
     7
370
    25
100
AcDbLine
 10
514.6123289945
 20
505.1312410924
 30
0.0
 11
472.8057657525
 21
515.7717118204
 31
0.0
  0
ARC
  5
207
330
1F
100
AcDbEntity
  8
0
  6
Continuous
 62
     7
370
    25
100
AcDbCircle
 10
519.1046431703
 20
504.8683469197
 30
0.0
 40
4.5
100
AcDbArc
 50
176.6508204591
 51
180.0
  0
LINE
  5
208
330
1F
100
AcDbEntity
  8
0
  6
Continuous
 62
     7
370
    25
100
AcDbLine
 10
514.6046431703
 20
479.4683469197
 30
0.0
 11
514.6046431703
 21
504.8683469197
 31
0.0
  0
ARC
  5
209
330
1F
100
AcDbEntity
  8
0
  6
Continuous
 62
     7
370
    25
100
AcDbCircle
 10
569.8599905745
 20
504.8683469197
 30
0.0
 40
4.500000000000075
100
AcDbArc
 50
0.0
 51
3.3491795409
  0
LINE
  5
20A
330
1F
100
AcDbEntity
  8
0
  6
Continuous
 62
     7
370
    25
100
AcDbLine
 10
616.1588679924
 20
515.7717118204
 30
0.0
 11
574.3523047503
 21
505.1312410924
 31
0.0
  0
LINE
  5
20B
330
1F
100
AcDbEntity
  8
0
  6
Continuous
 62
     7
370
    25
100
AcDbLine
 10
574.3523047503
 20
479.2054527469
 30
0.0
 11
616.1588679924
 21
468.5649820189
 31
0.0
  0
ARC
  5
20C
330
1F
100
AcDbEntity
  8
0
  6
Continuous
 62
     7
370
    25
100
AcDbCircle
 10
569.8599905745
 20
479.4683469197
 30
0.0
 40
4.500000000000078
100
AcDbArc
 50
356.6508204591
 51
0.0
  0
LINE
  5
20D
330
1F
100
AcDbEntity
  8
0
  6
Continuous
 62
     7
370
    25
100
AcDbLine
 10
574.3599905745
 20
504.8683469197
 30
0.0
 11
574.3599905745
 21
479.4683469197
 31
0.0
  0
LINE
  5
20E
330
1F
100
AcDbEntity
  8
0
  6
Continuous
 62
     7
370
    25
100
AcDbLine
 10
593.9675842015
 20
467.9955143677
 30
0.0
 11
566.2271196909
 21
475.05592732
 31
0.0
  0
ELLIPSE
  5
20F
330
1F
100
AcDbEntity
  8
0
  6
Continuous
 62
     7
370
    25
100
AcDbEllipse
 10
589.5115349113
 20
474.9683469197
 30
0.0
 11
411.1390430844244
 21
-1.453656004852803
 31
0.0
210
0.0
220
0.0
230
1.0
 40
0.0000127999
 41
1.618566057540377
 42
1.627460609336322
  0
SPLINE
  5
210
330
1F
100
AcDbEntity
  8
0
  6
Continuous
 62
     7
370
    25
100
AcDbSpline
210
0.0
220
0.0
230
1.0
 70
     8
 71
     3
 72
    12
 73
     8
 74
     0
 42
0.000000001
 43
0.00000001
 40
0.0
 40
0.0
 40
0.0
 40
0.0
 40
0.2217190500911173
 40
0.4437556007424842
 40
0.6667622150179979
 40
0.8909336893699485
 40
1.0
 40
1.0
 40
1.0
 40
1.0
 10
574.3523047502979
 20
479.2054527469385
 30
0.0
 10
574.2749367091817
 20
478.7106112314843
 30
0.0
 10
574.1200898363053
 20
477.720219590024
 30
0.0
 10
573.2707737196843
 20
476.4394615217012
 30
0.0
 10
572.0750027098474
 20
475.5070809855438
 30
0.0
 10
570.8690669072301
 20
475.0876305115086
 30
0.0
 10
570.1231530333635
 20
475.0540187091911
 30
0.0
 10
569.8790208312638
 20
475.0430178100205
 30
0.0
  0
LINE
  5
211
330
1F
100
AcDbEntity
  8
0
  6
Continuous
 62
     7
370
    25
100
AcDbLine
 10
566.2271196909
 20
509.2807665193
 30
0.0
 11
593.9675842015
 21
516.3411794717
 31
0.0
  0
SPLINE
  5
212
330
1F
100
AcDbEntity
  8
0
  6
Continuous
 62
     7
370
    25
100
AcDbSpline
210
0.0
220
0.0
230
1.0
 70
     8
 71
     3
 72
    12
 73
     8
 74
     0
 42
0.000000001
 43
0.00000001
 40
0.0
 40
0.0
 40
0.0
 40
0.0
 40
0.2244559936083384
 40
0.4478943198015688
 40
0.6704008821877856
 40
0.8922923021114655
 40
1.0
 40
1.0
 40
1.0
 40
1.0
 10
569.8790208312638
 20
509.2936760292826
 30
0.0
 10
570.3836338724869
 20
509.2466718880311
 30
0.0
 10
571.3905720755092
 20
509.1528767189417
 30
0.0
 10
572.7351736848218
 20
508.3948516418042
 30
0.0
 10
573.7509368969029
 20
507.2726182061303
 30
0.0
 10
574.2490075446467
 20
506.1057786598337
 30
0.0
 10
574.3268628778652
 20
505.3712675317645
 30
0.0
 10
574.3523047502979
 20
505.1312410923645
 30
0.0
  0
ELLIPSE
  5
213
330
1F
100
AcDbEntity
  8
0
  6
Continuous
 62
     7
370
    25
100
AcDbEllipse
 10
589.5115349113
 20
509.3683469197
 30
0.0
 11
411.1390430826917
 21
1.453656004846778
 31
0.0
210
0.0
220
0.0
230
1.0
 40
0.0000127999
 41
4.65572469784035
 42
4.664619249640348
  0
LINE
  5
214
330
1F
100
AcDbEntity
  8
0
  6
Continuous
 62
     7
370
    25
100
AcDbLine
 10
494.9970495434
 20
516.3411794717
 30
0.0
 11
522.7375140539
 21
509.2807665193
 31
0.0
  0
ELLIPSE
  5
215
330
1F
100
AcDbEntity
  8
0
  6
Continuous
 62
     7
370
    25
100
AcDbEllipse
 10
499.4530988335
 20
509.3683469197
 30
0.0
 11
411.1390430809512
 21
-1.453656004840525
 31
0.0
210
0.0
220
0.0
230
1.0
 40
0.0000127999
 41
4.76015871113407
 42
4.769053262936295
  0
SPLINE
  5
216
330
1F
100
AcDbEntity
  8
0
  6
Continuous
 62
     7
370
    25
100
AcDbSpline
210
0.0
220
0.0
230
1.0
 70
     8
 71
     3
 72
    12
 73
     8
 74
     0
 42
0.000000001
 43
0.00000001
 40
0.0
 40
0.0
 40
0.0
 40
0.0
 40
0.2217190500911378
 40
0.4437556007425083
 40
0.6667622150179376
 40
0.8909336893699499
 40
1.0
 40
1.0
 40
1.0
 40
1.0
 10
514.6123289945083
 20
505.131241092365
 30
0.0
 10
514.6896970356245
 20
505.6260826078193
 30
0.0
 10
514.8445439085015
 20
506.6164742492793
 30
0.0
 10
515.6938600251217
 20
507.8972323176022
 30
0.0
 10
516.889631034959
 20
508.8296128537592
 30
0.0
 10
518.0955668375757
 20
509.2490633277952
 30
0.0
 10
518.8414807114427
 20
509.2826751301122
 30
0.0
 10
519.0856129135423
 20
509.2936760292826
 30
0.0
  0
LINE
  5
217
330
1F
100
AcDbEntity
  8
0
  6
Continuous
 62
     7
370
    25
100
AcDbLine
 10
522.7375140539
 20
475.05592732
 30
0.0
 11
494.9970495434
 21
467.9955143677
 31
0.0
  0
SPLINE
  5
218
330
1F
100
AcDbEntity
  8
0
  6
Continuous
 62
     7
370
    25
100
AcDbSpline
210
0.0
220
0.0
230
1.0
 70
     8
 71
     3
 72
    12
 73
     8
 74
     0
 42
0.000000001
 43
0.00000001
 40
0.0
 40
0.0
 40
0.0
 40
0.0
 40
0.2244559936083556
 40
0.447894319801632
 40
0.6704008821878655
 40
0.8922923021115294
 40
0.9999999999999999
 40
0.9999999999999999
 40
0.9999999999999999
 40
0.9999999999999999
 10
519.0856129135423
 20
475.0430178100205
 30
0.0
 10
518.5809998723195
 20
475.0900219512721
 30
0.0
 10
517.5740616692972
 20
475.1838171203622
 30
0.0
 10
516.2294600599841
 20
475.9418421974991
 30
0.0
 10
515.2136968479035
 20
477.0640756331731
 30
0.0
 10
514.7156262001591
 20
478.2309151794693
 30
0.0
 10
514.637770866941
 20
478.9654263075382
 30
0.0
 10
514.6123289945084
 20
479.205452746938
 30
0.0
  0
ELLIPSE
  5
219
330
1F
100
AcDbEntity
  8
0
  6
Continuous
 62
     7
370
    25
100
AcDbEllipse
 10
499.4530988335
 20
474.9683469197
 30
0.0
 11
411.1390430809443
 21
1.453656004840525
 31
0.0
210
0.0
220
0.0
230
1.0
 40
0.0000127999
 41
1.514132044252967
 42
1.523026596048991
  0
LINE
  5
21A
330
1F
100
AcDbEntity
  8
0
  6
Continuous
 62
     7
370
    25
100
AcDbLine
 10
522.7375140539
 20
509.2807665193
 30
0.0
 11
566.2271196909
 21
509.2807665193
 31
0.0
  0
LINE
  5
21B
330
1F
100
AcDbEntity
  8
0
  6
Continuous
 62
     7
370
    25
100
AcDbLine
 10
566.2271196909
 20
475.05592732
 30
0.0
 11
522.7375140539
 21
475.05592732
 31
0.0
  0
ARC
  5
21C
330
1F
100
AcDbEntity
  8
0
  6
Continuous
 62
     7
370
    25
100
AcDbCircle
 10
490.2877824551
 20
901.1232298824
 30
0.0
 40
422.6183789510796
100
AcDbArc
 50
273.2995832046
 51
273.4999216938
  0
SPLINE
  5
21D
330
1F
100
AcDbEntity
  8
0
  6
Continuous
 62
     7
370
    25
100
AcDbSpline
210
0.0
220
0.0
230
1.0
 70
     8
 71
     3
 72
    12
 73
     8
 74
     0
 42
0.000000001
 43
0.00000001
 40
0.0
 40
0.0
 40
0.0
 40
0.0
 40
0.1082585583917322
 40
0.3312686297357272
 40
0.5542738071673514
 40
0.7771471332165647
 40
1.0
 40
1.0
 40
1.0
 40
1.0
 10
516.0874407552134
 20
479.2930841378425
 30
0.0
 10
516.1049988740784
 20
479.1307420931115
 30
0.0
 10
516.1587263027785
 20
478.6339792735666
 30
0.0
 10
516.4931371048583
 20
477.8452606764264
 30
0.0
 10
517.1724082378155
 20
477.0845004018252
 30
0.0
 10
518.0708963254192
 20
476.5677674455824
 30
0.0
 10
518.7451870069411
 20
476.5014860808354
 30
0.0
 10
519.082316872403
 20
476.4683469196515
 30
0.0
  0
ARC
  5
21E
330
1F
100
AcDbEntity
  8
0
  6
Continuous
 62
     7
370
    25
100
AcDbCircle
 10
359.9868218944
 20
475.3877738412
 30
0.0
 40
159.0991645498995
100
AcDbArc
 50
359.8758442192
 51
0.3891456817
  0
SPLINE
  5
21F
330
1F
100
AcDbEntity
  8
0
  6
Continuous
 62
     7
370
    25
100
AcDbSpline
210
0.0
220
0.0
230
1.0
 70
     8
 71
     3
 72
    12
 73
     8
 74
     0
 42
0.000000001
 43
0.00000001
 40
0.0
 40
0.0
 40
0.0
 40
0.0
 40
0.1082585583917227
 40
0.3312686297358168
 40
0.5542738071673105
 40
0.7771471332165419
 40
1.0
 40
1.0
 40
1.0
 40
1.0
 10
572.8771929895929
 20
505.0436097014606
 30
0.0
 10
572.8596348707279
 20
505.2059517461915
 30
0.0
 10
572.8059074420278
 20
505.7027145657366
 30
0.0
 10
572.471496639948
 20
506.4914331628769
 30
0.0
 10
571.7922255069907
 20
507.2521934374781
 30
0.0
 10
570.8937374193868
 20
507.7689263937206
 30
0.0
 10
570.2194467378648
 20
507.8352077584676
 30
0.0
 10
569.8823168724028
 20
507.8683469196516
 30
0.0
  0
ARC
  5
220
330
1F
100
AcDbEntity
  8
0
  6
Continuous
 62
     7
370
    25
100
AcDbCircle
 10
728.9778118571
 20
508.9489199981
 30
0.0
 40
159.0991645565923
100
AcDbArc
 50
179.8758442192
 51
180.3891456817
  0
ARC
  5
221
330
1F
100
AcDbEntity
  8
0
  6
Continuous
 62
     7
370
    25
100
AcDbCircle
 10
598.6768512938
 20
83.2134638845
 30
0.0
 40
422.6183790236361
100
AcDbArc
 50
93.2995832046
 51
93.4999216938
  0
SPLINE
  5
222
330
1F
100
AcDbEntity
  8
0
  6
Continuous
 62
     7
370
    25
100
AcDbSpline
210
0.0
220
0.0
230
1.0
 70
     8
 71
     3
 72
    12
 73
     8
 74
     0
 42
0.000000001
 43
0.00000001
 40
0.0
 40
0.0
 40
0.0
 40
0.0
 40
0.1081895785061679
 40
0.3312187815952071
 40
0.554201583963171
 40
0.7771102739449818
 40
1.0
 40
1.0
 40
1.0
 40
1.0
 10
569.8823168724028
 20
476.4683469196515
 30
0.0
 10
570.045304442372
 20
476.4763812542512
 30
0.0
 10
570.5442854448468
 20
476.5009781013209
 30
0.0
 10
571.3510689735975
 20
476.7886133364163
 30
0.0
 10
572.1502937866585
 20
477.4221784700199
 30
0.0
 10
572.7188196190947
 20
478.2890387523086
 30
0.0
 10
572.8244033632444
 20
478.9584118342061
 30
0.0
 10
572.8771929895929
 20
479.2930841378431
 30
0.0
  0
ARC
  5
223
330
1F
100
AcDbEntity
  8
0
  6
Continuous
 62
     7
370
    25
100
AcDbCircle
 10
598.6768512894
 20
901.123229877
 30
0.0
 40
422.6183789457619
100
AcDbArc
 50
266.5000783062
 51
266.7004167954
  0
ARC
  5
224
330
1F
100
AcDbEntity
  8
0
  6
Continuous
 62
     7
370
    25
100
AcDbCircle
 10
728.9778118571
 20
475.3877738412
 30
0.0
 40
159.0991645565629
100
AcDbArc
 50
179.6108543183
 51
180.1241557808
  0
ARC
  5
225
330
1F
100
AcDbEntity
  8
0
  6
Continuous
 62
     7
370
    25
100
AcDbCircle
 10
359.9868218944
 20
508.9489199981
 30
0.0
 40
159.099164549915
100
AcDbArc
 50
359.6108543183
 51
0.1241557808
  0
SPLINE
  5
226
330
1F
100
AcDbEntity
  8
0
  6
Continuous
 62
     7
370
    25
100
AcDbSpline
210
0.0
220
0.0
230
1.0
 70
     8
 71
     3
 72
    12
 73
     8
 74
     0
 42
0.000000001
 43
0.00000001
 40
0.0
 40
0.0
 40
0.0
 40
0.0
 40
0.1081895785061422
 40
0.3312187815952204
 40
0.5542015839631741
 40
0.7771102739449645
 40
1.0
 40
1.0
 40
1.0
 40
1.0
 10
519.082316872403
 20
507.8683469196516
 30
0.0
 10
518.919329302434
 20
507.860312585052
 30
0.0
 10
518.4203482999592
 20
507.8357157379829
 30
0.0
 10
517.6135647712083
 20
507.5480805028872
 30
0.0
 10
516.8143399581477
 20
506.9145153692837
 30
0.0
 10
516.2458141257118
 20
506.0476550869949
 30
0.0
 10
516.1402303815621
 20
505.3782820050975
 30
0.0
 10
516.0874407552134
 20
505.0436097014606
 30
0.0
  0
ARC
  5
227
330
1F
100
AcDbEntity
  8
0
  6
Continuous
 62
     7
370
    25
100
AcDbCircle
 10
490.2877824549
 20
83.2134639524
 30
0.0
 40
422.618378955647
100
AcDbArc
 50
86.5000783062
 51
86.7004167954
  0
LINE
  5
228
330
1F
100
AcDbEntity
  8
0
  6
Continuous
 62
     7
370
    25
100
AcDbLine
 10
519.0823168724
 20
476.4683469197
 30
0.0
 11
522.7375140539
 21
476.4683469197
 31
0.0
  0
LINE
  5
229
330
1F
100
AcDbEntity
  8
0
  6
Continuous
 62
     7
370
    25
100
AcDbLine
 10
522.7375140539
 20
475.05592732
 30
0.0
 11
522.7375140539
 21
476.4683469197
 31
0.0
  0
LINE
  5
22A
330
1F
100
AcDbEntity
  8
0
  6
Continuous
 62
     7
370
    25
100
AcDbLine
 10
522.7375140539
 20
507.8683469197
 30
0.0
 11
519.0823168724
 21
507.8683469197
 31
0.0
  0
LINE
  5
22B
330
1F
100
AcDbEntity
  8
0
  6
Continuous
 62
     7
370
    25
100
AcDbLine
 10
522.7375140539
 20
507.8683469197
 30
0.0
 11
522.7375140539
 21
509.2807665193
 31
0.0
  0
LINE
  5
22C
330
1F
100
AcDbEntity
  8
0
  6
Continuous
 62
     7
370
    25
100
AcDbLine
 10
569.8823168724
 20
507.8683469197
 30
0.0
 11
566.2271196909
 21
507.8683469197
 31
0.0
  0
LINE
  5
22D
330
1F
100
AcDbEntity
  8
0
  6
Continuous
 62
     7
370
    25
100
AcDbLine
 10
566.2271196909
 20
507.8683469197
 30
0.0
 11
566.2271196909
 21
509.2807665193
 31
0.0
  0
LINE
  5
22E
330
1F
100
AcDbEntity
  8
0
  6
Continuous
 62
     7
370
    25
100
AcDbLine
 10
566.2271196909
 20
476.4683469197
 30
0.0
 11
569.8823168724
 21
476.4683469197
 31
0.0
  0
LINE
  5
22F
330
1F
100
AcDbEntity
  8
0
  6
Continuous
 62
     7
370
    25
100
AcDbLine
 10
566.2271196909
 20
475.05592732
 30
0.0
 11
566.2271196909
 21
476.4683469197
 31
0.0
  0
LINE
  5
230
330
1F
100
AcDbEntity
  8
0
  6
Continuous
 62
     7
370
    25
100
AcDbLine
 10
522.7375140539
 20
476.4683469197
 30
0.0
 11
566.2271196909
 21
476.4683469197
 31
0.0
  0
LINE
  5
231
330
1F
100
AcDbEntity
  8
0
  6
Continuous
 62
     7
370
    25
100
AcDbLine
 10
566.2271196909
 20
507.8683469197
 30
0.0
 11
522.7375140539
 21
507.8683469197
 31
0.0
  0
LINE
  5
232
330
1F
100
AcDbEntity
  8
0
  6
Continuous
 62
     7
370
    25
100
AcDbLine
 10
514.6046431703
 20
504.8683469197
 30
0.0
 11
516.0823168724
 21
504.8683469197
 31
0.0
  0
LINE
  5
233
330
1F
100
AcDbEntity
  8
0
  6
Continuous
 62
     7
370
    25
100
AcDbLine
 10
516.0823168724
 20
504.8683469197
 30
0.0
 11
516.0823168724
 21
479.4683469197
 31
0.0
  0
LINE
  5
234
330
1F
100
AcDbEntity
  8
0
  6
Continuous
 62
     7
370
    25
100
AcDbLine
 10
514.6046431703
 20
479.4683469197
 30
0.0
 11
516.0823168724
 21
479.4683469197
 31
0.0
  0
LINE
  5
235
330
1F
100
AcDbEntity
  8
0
  6
Continuous
 62
     7
370
    25
100
AcDbLine
 10
572.8823168724
 20
479.4683469197
 30
0.0
 11
572.8823168724
 21
504.8683469197
 31
0.0
  0
LINE
  5
236
330
1F
100
AcDbEntity
  8
0
  6
Continuous
 62
     7
370
    25
100
AcDbLine
 10
572.8823168724
 20
504.8683469197
 30
0.0
 11
574.3599905745
 21
504.8683469197
 31
0.0
  0
LINE
  5
237
330
1F
100
AcDbEntity
  8
0
  6
Continuous
 62
     7
370
    25
100
AcDbLine
 10
572.8823168724
 20
479.4683469197
 30
0.0
 11
574.3599905745
 21
479.4683469197
 31
0.0
  0
ARC
  5
238
330
1F
100
AcDbEntity
  8
0
  6
Continuous
 62
     7
370
    25
100
AcDbCircle
 10
569.8823168724
 20
479.4683469197
 30
0.0
 40
3.000000000000345
100
AcDbArc
 50
356.6508204591
 51
0.0
  0
ARC
  5
239
330
1F
100
AcDbEntity
  8
0
  6
Continuous
 62
     7
370
    25
100
AcDbCircle
 10
519.0823168724
 20
504.8683469197
 30
0.0
 40
3.000000000000034
100
AcDbArc
 50
176.6508204591
 51
180.0
  0
ARC
  5
23A
330
1F
100
AcDbEntity
  8
0
  6
Continuous
 62
     7
370
    25
100
AcDbCircle
 10
519.0823168724
 20
479.4683469197
 30
0.0
 40
3.000000000000034
100
AcDbArc
 50
180.0
 51
183.3491795409
  0
ARC
  5
23B
330
1F
100
AcDbEntity
  8
0
  6
Continuous
 62
     7
370
    25
100
AcDbCircle
 10
569.8823168724
 20
504.8683469197
 30
0.0
 40
3.000000000000374
100
AcDbArc
 50
0.0
 51
3.3491795409
  0
SPLINE
  5
23C
330
1F
100
AcDbEntity
  8
0
  6
Continuous
 62
     7
370
    25
100
AcDbSpline
210
0.0
220
0.0
230
1.0
 70
     8
 71
     3
 72
    15
 73
    11
 74
     0
 42
0.000000001
 43
0.00000001
 40
0.0
 40
0.0
 40
0.0
 40
0.0
 40
0.1250002139240018
 40
0.2499976778287605
 40
0.3749996883603718
 40
0.500000616659383
 40
0.6249968412610613
 40
0.7499999065911527
 40
0.8750024188528758
 40
1.0
 40
1.0
 40
1.0
 40
1.0
 10
628.9152193680134
 20
417.0236419280535
 30
0.0
 10
628.8452175706467
 20
418.114325308752
 30
0.0
 10
628.7052155159606
 20
420.2956680749879
 30
0.0
 10
627.6951329094896
 20
423.4431185817471
 30
0.0
 10
626.1399304263042
 20
426.3464880397884
 30
0.0
 10
624.0407840922342
 20
428.8941383066598
 30
0.0
 10
621.4931333568974
 20
430.9932951252005
 30
0.0
 10
618.5897613241407
 20
432.5485186206954
 30
0.0
 10
615.4422809275626
 20
433.5586125235437
 30
0.0
 10
613.2609180504313
 20
433.6986144931639
 30
0.0
 10
612.1702581249584
 20
433.7686140972431
 30
0.0
  0
SPLINE
  5
23D
330
1F
100
AcDbEntity
  8
0
  6
Continuous
 62
     7
370
    25
100
AcDbSpline
210
0.0
220
0.0
230
1.0
 70
     8
 71
     3
 72
    15
 73
    11
 74
     0
 42
0.000000001
 43
0.00000001
 40
0.0
 40
0.0
 40
0.0
 40
0.0
 40
0.1250002139127522
 40
0.2499976777989143
 40
0.3749996883148833
 40
0.5000006165979841
 40
0.6249968411775573
 40
0.7499999065342888
 40
0.8750024188060986
 40
1.0
 40
1.0
 40
1.0
 40
1.0
 10
612.1761120003979
 20
97.90042431850505
 30
0.0
 10
613.2667481137707
 20
97.97042308043028
 30
0.0
 10
615.447996346331
 20
98.11041906429571
 30
0.0
 10
618.5953101969726
 20
99.12045816306566
 30
0.0
 10
621.4985533854457
 20
100.6755937092537
 30
0.0
 10
624.0460925976607
 20
102.7746497206132
 30
0.0
 10
626.1451576265216
 20
105.3221908394009
 30
0.0
 10
627.7003127764957
 20
108.2254379401905
 30
0.0
 10
628.7103618832024
 20
111.3727828850473
 30
0.0
 10
628.8503571099649
 20
113.5540518845682
 30
0.0
 10
628.9203533426919
 20
114.644664872322
 30
0.0
  0
SPLINE
  5
23E
330
1F
100
AcDbEntity
  8
0
  6
Continuous
 62
     7
370
    25
100
AcDbSpline
210
0.0
220
0.0
230
1.0
 70
     8
 71
     3
 72
    15
 73
    11
 74
     0
 42
0.000000001
 43
0.00000001
 40
0.0
 40
0.0
 40
0.0
 40
0.0
 40
0.1248635891114376
 40
0.2499748580924271
 40
0.3746007503340054
 40
0.4998580693561855
 40
0.6243681126282061
 40
0.7496712218323719
 40
0.8741864130230784
 40
1.0
 40
1.0
 40
1.0
 40
1.0
 10
163.8395295755939
 20
416.9751646262635
 30
0.0
 10
163.8291299583814
 20
418.0184099665067
 30
0.0
 10
163.8083100952379
 20
420.1069700322449
 30
0.0
 10
163.7844895036931
 20
423.124709233406
 30
0.0
 10
163.767136107116
 20
425.9329057818734
 30
0.0
 10
163.7573459219149
 20
428.4281063966198
 30
0.0
 10
163.7552534169834
 20
430.5377296515767
 30
0.0
 10
163.7611276733329
 20
432.1688475046425
 30
0.0
 10
163.7742134969697
 20
433.3263457667326
 30
0.0
 10
163.7889168740744
 20
433.6206824356595
 30
0.0
 10
163.7963066940854
 20
433.7686140972431
 30
0.0
  0
LINE
  5
23F
330
1F
100
AcDbEntity
  8
0
  6
Continuous
 62
     7
370
    25
100
AcDbLine
 10
387.9832824096
 20
418.075128323
 30
0.0
 11
387.9832824096
 21
433.6690634782
 31
0.0
  0
SPLINE
  5
240
330
1F
100
AcDbEntity
  8
0
  6
Continuous
 62
     7
370
    25
100
AcDbSpline
210
0.0
220
0.0
230
1.0
 70
     8
 71
     3
 72
    10
 73
     6
 74
     0
 42
0.000000001
 43
0.00000001
 40
0.0
 40
0.0
 40
0.0
 40
0.0
 40
0.1511822339366644
 40
0.5755870074269127
 40
0.9999999999999999
 40
0.9999999999999999
 40
0.9999999999999999
 40
0.9999999999999999
 10
387.9832824095538
 20
418.07512832303
 30
0.0
 10
376.6874517924086
 20
418.0655910991059
 30
0.0
 10
333.6815166899568
 20
418.029280601274
 30
0.0
 10
258.9657647375095
 20
417.681142829542
 30
0.0
 10
195.5484793189361
 20
417.2104922131227
 30
0.0
 10
163.8395295755939
 20
416.9751646262635
 30
0.0
  0
SPLINE
  5
241
330
1F
100
AcDbEntity
  8
0
  6
Continuous
 62
     7
370
    25
100
AcDbSpline
210
0.0
220
0.0
230
1.0
 70
     8
 71
     3
 72
    15
 73
    11
 74
     0
 42
0.000000001
 43
0.00000001
 40
0.0
 40
0.0
 40
0.0
 40
0.0
 40
0.1248635891114376
 40
0.2499748580924271
 40
0.3746007503340054
 40
0.4998580693561855
 40
0.6243681126282061
 40
0.7496712218323719
 40
0.8741864130230784
 40
1.0
 40
1.0
 40
1.0
 40
1.0
 10
612.1270352434499
 20
416.9751646262635
 30
0.0
 10
612.1374348606623
 20
418.0184099665067
 30
0.0
 10
612.1582547238058
 20
420.1069700322449
 30
0.0
 10
612.1820753153506
 20
423.1247092334059
 30
0.0
 10
612.1994287119277
 20
425.9329057818734
 30
0.0
 10
612.2092188971288
 20
428.4281063966198
 30
0.0
 10
612.2113114020605
 20
430.5377296515766
 30
0.0
 10
612.2054371457109
 20
432.1688475046425
 30
0.0
 10
612.1923513220742
 20
433.3263457667326
 30
0.0
 10
612.1776479449694
 20
433.6206824356595
 30
0.0
 10
612.1702581249584
 20
433.7686140972431
 30
0.0
  0
SPLINE
  5
242
330
1F
100
AcDbEntity
  8
0
  6
Continuous
 62
     7
370
    25
100
AcDbSpline
210
0.0
220
0.0
230
1.0
 70
     8
 71
     3
 72
    10
 73
     6
 74
     0
 42
0.000000001
 43
0.00000001
 40
0.0
 40
0.0
 40
0.0
 40
0.0
 40
0.1511822339366645
 40
0.5755870074269125
 40
0.9999999999999999
 40
0.9999999999999999
 40
0.9999999999999999
 40
0.9999999999999999
 10
387.98328240949
 20
418.07512832303
 30
0.0
 10
399.2791130266351
 20
418.0655910991059
 30
0.0
 10
442.2850481290869
 20
418.029280601274
 30
0.0
 10
517.0008000815343
 20
417.6811428295416
 30
0.0
 10
580.4180855001076
 20
417.2104922131226
 30
0.0
 10
612.1270352434499
 20
416.9751646262635
 30
0.0
  0
SPLINE
  5
243
330
1F
100
AcDbEntity
  8
0
  6
Continuous
 62
     7
370
    25
100
AcDbSpline
210
0.0
220
0.0
230
1.0
 70
     8
 71
     3
 72
    10
 73
     6
 74
     0
 42
0.000000001
 43
0.00000001
 40
0.0
 40
0.0
 40
0.0
 40
0.0
 40
0.3425976582224023
 40
0.6856383884543065
 40
1.0
 40
1.0
 40
1.0
 40
1.0
 10
612.1270352434499
 20
416.9751646262635
 30
0.0
 10
612.3407171356582
 20
382.4620466776122
 30
0.0
 10
612.7683572689147
 20
313.3911759261106
 30
0.0
 10
612.4948743775548
 20
212.647891408436
 30
0.0
 10
612.2061960221832
 20
146.4210795464626
 30
0.0
 10
612.0681536282854
 20
114.7522430038835
 30
0.0
  0
SPLINE
  5
244
330
1F
100
AcDbEntity
  8
0
  6
Continuous
 62
     7
370
    25
100
AcDbSpline
210
0.0
220
0.0
230
1.0
 70
     8
 71
     3
 72
    15
 73
    11
 74
     0
 42
0.000000001
 43
0.00000001
 40
0.0
 40
0.0
 40
0.0
 40
0.0
 40
0.1258129455540946
 40
0.2503276687695916
 40
0.3756310620631281
 40
0.5001414687502773
 40
0.6253986090286958
 40
0.750025100579501
 40
0.8751361732720458
 40
1.0
 40
1.0
 40
1.0
 40
1.0
 10
628.9152193680134
 20
417.0236419280535
 30
0.0
 10
628.7673314770115
 20
417.0307000585033
 30
0.0
 10
628.473081701436
 20
417.0447434888798
 30
0.0
 10
627.316013083353
 20
417.0568770466261
 30
0.0
 10
625.6855014529291
 20
417.0618711080256
 30
0.0
 10
623.5766418457141
 20
417.0589961984218
 30
0.0
 10
621.0822997256176
 20
417.0485493457173
 30
0.0
 10
618.2749972953558
 20
417.0306894829881
 30
0.0
 10
615.2581251643787
 20
417.0065143190683
 30
0.0
 10
613.1700434549379
 20
416.9856076310474
 30
0.0
 10
612.1270352434499
 20
416.9751646262635
 30
0.0
  0
SPLINE
  5
245
330
1F
100
AcDbEntity
  8
0
  6
Continuous
 62
     7
370
    25
100
AcDbSpline
210
0.0
220
0.0
230
1.0
 70
     8
 71
     3
 72
    15
 73
    11
 74
     0
 42
0.000000001
 43
0.00000001
 40
0.0
 40
0.0
 40
0.0
 40
0.0
 40
0.1258201202751352
 40
0.2503411047363633
 40
0.375640771284463
 40
0.5001470497283423
 40
0.625406251535901
 40
0.7500255702226585
 40
0.8751390217548435
 40
0.9999999999999999
 40
0.9999999999999999
 40
0.9999999999999999
 40
0.9999999999999999
 10
628.9203533426919
 20
114.644664872322
 30
0.0
 10
628.7719295415284
 20
114.6411935342733
 30
0.0
 10
628.4766144657585
 20
114.6342867009296
 30
0.0
 10
627.3143097096184
 20
114.6325691123963
 30
0.0
 10
625.6764129385424
 20
114.6372958242524
 30
0.0
 10
623.5582610763859
 20
114.6489191433506
 30
0.0
 10
621.0534770172947
 20
114.6668248411903
 30
0.0
 10
618.2353100482533
 20
114.6905746691143
 30
0.0
 10
615.2079107438383
 20
114.7190311736828
 30
0.0
 10
613.1140343975765
 20
114.7411798505113
 30
0.0
 10
612.0681536282854
 20
114.752243003883
 30
0.0
  0
SPLINE
  5
246
330
1F
100
AcDbEntity
  8
0
  6
Continuous
 62
     7
370
    25
100
AcDbSpline
210
0.0
220
0.0
230
1.0
 70
     8
 71
     3
 72
    15
 73
    11
 74
     0
 42
0.000000001
 43
0.00000001
 40
0.0
 40
0.0
 40
0.0
 40
0.0
 40
0.1258129455540941
 40
0.2503276687695914
 40
0.3756310620631278
 40
0.5001414687502775
 40
0.625398609028695
 40
0.7500251005795011
 40
0.8751361732720446
 40
1.0
 40
1.0
 40
1.0
 40
1.0
 10
147.0513454510304
 20
417.0236419280535
 30
0.0
 10
147.1992333420324
 20
417.0307000585032
 30
0.0
 10
147.4934831176078
 20
417.0447434888798
 30
0.0
 10
148.6505517356906
 20
417.0568770466261
 30
0.0
 10
150.2810633661146
 20
417.0618711080256
 30
0.0
 10
152.3899229733296
 20
417.0589961984218
 30
0.0
 10
154.8842650934261
 20
417.0485493457173
 30
0.0
 10
157.6915675236879
 20
417.0306894829881
 30
0.0
 10
160.7084396546652
 20
417.0065143190683
 30
0.0
 10
162.796521364106
 20
416.9856076310474
 30
0.0
 10
163.8395295755939
 20
416.9751646262635
 30
0.0
  0
SPLINE
  5
247
330
1F
100
AcDbEntity
  8
0
  6
Continuous
 62
     7
370
    25
100
AcDbSpline
210
0.0
220
0.0
230
1.0
 70
     8
 71
     3
 72
    10
 73
     6
 74
     0
 42
0.000000001
 43
0.00000001
 40
0.0
 40
0.0
 40
0.0
 40
0.0
 40
0.3425976582224023
 40
0.6856383884543065
 40
1.0
 40
1.0
 40
1.0
 40
1.0
 10
163.8395295755939
 20
416.9751646262635
 30
0.0
 10
163.6258476833856
 20
382.4620466776122
 30
0.0
 10
163.1982075501292
 20
313.3911759261106
 30
0.0
 10
163.471690441489
 20
212.647891408436
 30
0.0
 10
163.7603687968606
 20
146.4210795464626
 30
0.0
 10
163.8984111907584
 20
114.7522430038835
 30
0.0
  0
SPLINE
  5
248
330
1F
100
AcDbEntity
  8
0
  6
Continuous
 62
     7
370
    25
100
AcDbSpline
210
0.0
220
0.0
230
1.0
 70
     8
 71
     3
 72
    15
 73
    11
 74
     0
 42
0.000000001
 43
0.00000001
 40
0.0
 40
0.0
 40
0.0
 40
0.0
 40
0.1258201202751353
 40
0.2503411047363623
 40
0.3756407712844638
 40
0.5001470497283423
 40
0.6254062515359019
 40
0.7500255702226555
 40
0.8751390217548446
 40
1.0
 40
1.0
 40
1.0
 40
1.0
 10
147.0462114763519
 20
114.644664872322
 30
0.0
 10
147.1946352775153
 20
114.6411935342733
 30
0.0
 10
147.4899503532854
 20
114.6342867009297
 30
0.0
 10
148.6522551094252
 20
114.6325691123961
 30
0.0
 10
150.2901518805015
 20
114.6372958242525
 30
0.0
 10
152.4083037426578
 20
114.6489191433506
 30
0.0
 10
154.9130878017492
 20
114.6668248411903
 30
0.0
 10
157.7312547707905
 20
114.6905746691143
 30
0.0
 10
160.7586540752054
 20
114.7190311736827
 30
0.0
 10
162.8525304214673
 20
114.7411798505113
 30
0.0
 10
163.8984111907584
 20
114.752243003883
 30
0.0
  0
SPLINE
  5
249
330
1F
100
AcDbEntity
  8
0
  6
Continuous
 62
     7
370
    25
100
AcDbSpline
210
0.0
220
0.0
230
1.0
 70
     8
 71
     3
 72
    15
 73
    11
 74
     0
 42
0.000000001
 43
0.00000001
 40
0.0
 40
0.0
 40
0.0
 40
0.0
 40
0.1258200816804645
 40
0.250341025227685
 40
0.3756407156656522
 40
0.50014701677835
 40
0.6254062070615382
 40
0.7500255676467188
 40
0.8751390050943976
 40
1.0
 40
1.0
 40
1.0
 40
1.0
 10
163.7904528186459
 20
97.90042431850505
 30
0.0
 10
163.7870054855439
 20
98.04884495348928
 30
0.0
 10
163.7801464143088
 20
98.34415372638664
 30
0.0
 10
163.778497742099
 20
99.50642734450018
 30
0.0
 10
163.7832881528236
 20
101.144280135584
 30
0.0
 10
163.794968092009
 20
103.2623766673472
 30
0.0
 10
163.8129213086219
 20
105.7670985302548
 30
0.0
 10
163.8367077842127
 20
108.5852008085834
 30
0.0
 10
163.865189943061
 20
111.6125374413237
 30
0.0
 10
163.8873448994266
 20
113.7063793214701
 30
0.0
 10
163.8984111907584
 20
114.752243003883
 30
0.0
  0
LINE
  5
24A
330
1F
100
AcDbEntity
  8
0
  6
Continuous
 62
     7
370
    25
100
AcDbLine
 10
163.8984111908
 20
114.7522430039
 30
0.0
 11
302.0531097862
 21
114.2712034694
 31
0.0
  0
LWPOLYLINE
  5
24B
330
1F
100
AcDbEntity
  8
0
  6
Continuous
 62
     7
370
    25
100
AcDbPolyline
 90
       11
 70
   128
 43
0.0
 10
302.0888086437
 20
97.9429729593
 10
302.0836189604
 20
98.3339242529
 10
302.0785378713
 20
99.0710663032
 10
302.0736716981
 20
100.1389744103
 10
302.0691222655
 20
101.5153025938
 10
302.0649847705
 20
103.1712511819
 10
302.06134579
 20
105.072169445
 10
302.0582814699
 20
107.1782806624
 10
302.055855931
 20
109.44551445
 10
302.0541199278
 20
111.8264289334
 10
302.0531097862
 20
114.2712034694
  0
LINE
  5
24C
330
1F
100
AcDbEntity
  8
0
  6
Continuous
 62
     7
370
    25
100
AcDbLine
 10
612.0681536283
 20
114.7522430039
 30
0.0
 11
473.9134550329
 21
114.2712034694
 31
0.0
  0
SPLINE
  5
24D
330
1F
100
AcDbEntity
  8
0
  6
Continuous
 62
     7
370
    25
100
AcDbSpline
210
0.0
220
0.0
230
1.0
 70
     8
 71
     3
 72
    15
 73
    11
 74
     0
 42
0.000000001
 43
0.00000001
 40
0.0
 40
0.0
 40
0.0
 40
0.0
 40
0.1258200816804645
 40
0.250341025227685
 40
0.3756407156656522
 40
0.50014701677835
 40
0.6254062070615382
 40
0.7500255676467188
 40
0.8751390050943976
 40
1.0
 40
1.0
 40
1.0
 40
1.0
 10
612.1761120003979
 20
97.90042431850505
 30
0.0
 10
612.1795593334999
 20
98.04884495348928
 30
0.0
 10
612.1864184047349
 20
98.34415372638664
 30
0.0
 10
612.1880670769448
 20
99.50642734450018
 30
0.0
 10
612.1832766662201
 20
101.144280135584
 30
0.0
 10
612.1715967270347
 20
103.2623766673472
 30
0.0
 10
612.1536435104218
 20
105.7670985302548
 30
0.0
 10
612.1298570348312
 20
108.5852008085834
 30
0.0
 10
612.1013748759827
 20
111.6125374413237
 30
0.0
 10
612.0792199196171
 20
113.7063793214701
 30
0.0
 10
612.0681536282854
 20
114.752243003883
 30
0.0
  0
LWPOLYLINE
  5
24E
330
1F
100
AcDbEntity
  8
0
  6
Continuous
 62
     7
370
    25
100
AcDbPolyline
 90
       11
 70
   128
 43
0.0
 10
473.8777561754
 20
97.9429729593
 10
473.8829458586
 20
98.3339242529
 10
473.8880269478
 20
99.0710663032
 10
473.892893121
 20
100.1389744103
 10
473.8974425536
 20
101.5153025938
 10
473.9015800486
 20
103.1712511819
 10
473.905219029
 20
105.072169445
 10
473.9082833491
 20
107.1782806624
 10
473.910708888
 20
109.44551445
 10
473.9124448913
 20
111.8264289334
 10
473.9134550329
 20
114.2712034694
  0
SPLINE
  5
24F
330
1F
100
AcDbEntity
  8
0
  6
Continuous
 62
     7
370
    25
100
AcDbSpline
210
0.0
220
0.0
230
1.0
 70
     8
 71
     3
 72
     9
 73
     5
 74
     0
 42
0.000000001
 43
0.00000001
 40
0.0
 40
0.0
 40
0.0
 40
0.0
 40
0.7906176755453465
 40
1.0
 40
1.0
 40
1.0
 40
1.0
 10
302.0531097861592
 20
114.271203469427
 30
0.0
 10
313.3863844515417
 20
114.2369431328381
 30
0.0
 10
327.7210939020547
 20
114.1936094993404
 30
0.0
 10
342.055872095204
 20
114.1807886928954
 30
0.0
 10
345.0573212738275
 20
114.1781042426405
 30
0.0
  0
LWPOLYLINE
  5
250
330
1F
100
AcDbEntity
  8
0
  6
Continuous
 62
     7
370
    25
100
AcDbPolyline
 90
       11
 70
   128
 43
0.0
 10
345.0763318967
 20
97.9492826809
 10
345.073577301
 20
98.3379492699
 10
345.0708798811
 20
99.0700659073
 10
345.0682956258
 20
100.1304364298
 10
345.0658781751
 20
101.4970512792
 10
345.063677707
 20
103.1415443435
 10
345.0617398952
 20
105.0297817375
 10
345.0601049621
 20
107.122570302
 10
345.0588068429
 20
109.3764711158
 10
345.0578724821
 20
111.7447011346
 10
345.0573212738
 20
114.1781042426
  0
SPLINE
  5
251
330
1F
100
AcDbEntity
  8
0
  6
Continuous
 62
     7
370
    25
100
AcDbSpline
210
0.0
220
0.0
230
1.0
 70
     8
 71
     3
 72
     9
 73
     5
 74
     0
 42
0.000000001
 43
0.00000001
 40
0.0
 40
0.0
 40
0.0
 40
0.0
 40
0.7906176755453462
 40
1.0
 40
1.0
 40
1.0
 40
1.0
 10
473.9134550328845
 20
114.271203469427
 30
0.0
 10
462.580180367502
 20
114.2369431328381
 30
0.0
 10
448.2454709169889
 20
114.1936094993403
 30
0.0
 10
433.9106927238398
 20
114.1807886928954
 30
0.0
 10
430.9092435452163
 20
114.1781042426405
 30
0.0
  0
LWPOLYLINE
  5
252
330
1F
100
AcDbEntity
  8
0
  6
Continuous
 62
     7
370
    25
100
AcDbPolyline
 90
       11
 70
   128
 43
0.0
 10
430.8902329224
 20
97.9492826809
 10
430.892987518
 20
98.3379492699
 10
430.895684938
 20
99.0700659073
 10
430.8982691933
 20
100.1304364298
 10
430.9006866439
 20
101.4970512792
 10
430.9028871121
 20
103.1415443435
 10
430.9048249238
 20
105.0297817375
 10
430.906459857
 20
107.122570302
 10
430.9077579762
 20
109.3764711158
 10
430.9086923369
 20
111.7447011346
 10
430.9092435452
 20
114.1781042426
  0
SPLINE
  5
253
330
1F
100
AcDbEntity
  8
0
  6
Continuous
 62
     7
370
    25
100
AcDbSpline
210
0.0
220
0.0
230
1.0
 70
     8
 71
     3
 72
     9
 73
     5
 74
     0
 42
0.000000001
 43
0.00000001
 40
0.0
 40
0.0
 40
0.0
 40
0.0
 40
0.7920613516553358
 40
1.0
 40
1.0
 40
1.0
 40
1.0
 10
345.0573212738275
 20
114.1781042426405
 30
0.0
 10
356.3906506426106
 20
114.1716683646484
 30
0.0
 10
370.6993015382736
 20
114.1635428855063
 30
0.0
 10
385.0079594282528
 20
114.1630397497484
 30
0.0
 10
387.9832824095212
 20
114.162935128379
 30
0.0
  0
LINE
  5
254
330
1F
100
AcDbEntity
  8
0
  6
Continuous
 62
     7
370
    25
100
AcDbLine
 10
387.9832824095
 20
97.9515361351
 30
0.0
 11
387.9832824095
 21
114.1629351284
 31
0.0
  0
SPLINE
  5
255
330
1F
100
AcDbEntity
  8
0
  6
Continuous
 62
     7
370
    25
100
AcDbSpline
210
0.0
220
0.0
230
1.0
 70
     8
 71
     3
 72
     9
 73
     5
 74
     0
 42
0.000000001
 43
0.00000001
 40
0.0
 40
0.0
 40
0.0
 40
0.0
 40
0.7920613516553124
 40
1.0
 40
1.0
 40
1.0
 40
1.0
 10
430.9092435452163
 20
114.1781042426405
 30
0.0
 10
419.5759141764331
 20
114.1716683646485
 30
0.0
 10
405.2672632807698
 20
114.1635428855064
 30
0.0
 10
390.9586053907901
 20
114.1630397497484
 30
0.0
 10
387.9832824095212
 20
114.162935128379
 30
0.0
  0
LWPOLYLINE
  5
256
330
1F
100
AcDbEntity
  8
0
  6
Continuous
 62
     7
370
    25
100
AcDbPolyline
 90
        9
 70
   128
 43
0.0
 10
427.0840869883
 20
159.8572887282
 10
427.5620749006
 20
154.1510674734
 10
428.0401172905
 20
148.44367966
 10
428.5182092995
 20
142.7351832957
 10
428.9963460684
 20
137.0256363998
 10
429.4745227377
 20
131.3150970019
 10
429.9527344472
 20
125.603623142
 10
430.4309763366
 20
119.8912728695
 10
430.9092435452
 20
114.1781042426
  0
SPLINE
  5
257
330
1F
100
AcDbEntity
  8
0
  6
Continuous
 62
     7
370
    25
100
AcDbSpline
210
0.0
220
0.0
230
1.0
 70
     8
 71
     3
 72
    25
 73
    21
 74
     0
 42
0.000000001
 43
0.00000001
 40
0.0
 40
0.0
 40
0.0
 40
0.0
 40
0.049461805005501
 40
0.0990973770197605
 40
0.1487571370307297
 40
0.1982520385366559
 40
0.248606921593503
 40
0.2990969824575264
 40
0.3496006991108136
 40
0.3999742527516759
 40
0.4584521411966287
 40
0.5171132115757683
 40
0.575774676088448
 40
0.6342531036711314
 40
0.6969235307576898
 40
0.7598677426413277
 40
0.8227484954234645
 40
0.8853319928527292
 40
0.9426724351492813
 40
1.0
 40
1.0
 40
1.0
 40
1.0
 10
427.0840869883286
 20
159.8572887282181
 30
0.0
 10
430.4073960878138
 20
160.0445624085752
 30
0.0
 10
437.0656895881875
 20
160.4197676908361
 30
0.0
 10
446.9507368901902
 20
162.074756572565
 30
0.0
 10
456.6763633121701
 20
164.4619572050328
 30
0.0
 10
466.227260789522
 20
167.6412889640444
 30
0.0
 10
475.5533393620523
 20
171.570869568736
 30
0.0
 10
484.6227468534418
 20
176.2110318330492
 30
0.0
 10
493.337204452885
 20
181.4892265534024
 30
0.0
 10
502.0996060161397
 20
187.674393997921
 30
0.0
 10
510.7986059857739
 20
194.8520493720621
 30
0.0
 10
519.3074298893372
 20
203.0780719215643
 30
0.0
 10
527.1497835299781
 20
211.9421122860817
 30
0.0
 10
534.4348245653537
 20
221.6099369486919
 30
0.0
 10
541.0447661051895
 20
232.0975835844699
 30
0.0
 10
546.8369178591723
 20
243.392459704852
 30
0.0
 10
551.5582077956915
 20
255.1743269650987
 30
0.0
 10
554.946263004299
 20
267.0103761515922
 30
0.0
 10
557.1023506995466
 20
278.7684916811074
 30
0.0
 10
557.4497464300912
 20
286.4800998221351
 30
0.0
 10
557.6234247887468
 20
290.3354708781638
 30
0.0
  0
LWPOLYLINE
  5
258
330
1F
100
AcDbEntity
  8
0
  6
Continuous
 62
     7
370
    25
100
AcDbPolyline
 90
        9
 70
   128
 43
0.0
 10
557.6234247887
 20
290.3354708782
 10
563.5267042971
 20
290.0989887901
 10
569.4311873659
 20
289.8624744092
 10
575.3368101287
 20
289.6259302937
 10
581.2435087066
 20
289.3893590023
 10
587.1512192092
 20
289.1527630938
 10
593.0598777349
 20
288.9161451274
 10
598.9694203722
 20
288.6795076626
 10
604.8797831997
 20
288.4428532589
  0
SPLINE
  5
259
330
1F
100
AcDbEntity
  8
0
  6
Continuous
 62
     7
370
    25
100
AcDbSpline
210
0.0
220
0.0
230
1.0
 70
     8
 71
     3
 72
    27
 73
    23
 74
     0
 42
0.000000001
 43
0.00000001
 40
0.0
 40
0.0
 40
0.0
 40
0.0
 40
0.0878004994860293
 40
0.1399638882676
 40
0.1921918328826119
 40
0.2443841608597369
 40
0.2964989153011663
 40
0.3422362292260716
 40
0.3880936170937319
 40
0.433903749877131
 40
0.4795764435189886
 40
0.5270616408335373
 40
0.5746549395330144
 40
0.6221283157100004
 40
0.6644920912198894
 40
0.7070363049264536
 40
0.7496900455966905
 40
0.7923241814375187
 40
0.8347637090536204
 40
0.8838219020448366
 40
0.9328867918615819
 40
1.0
 40
1.0
 40
1.0
 40
1.0
 10
604.8797831997264
 20
288.4428532588663
 30
0.0
 10
604.8272211643739
 20
281.3059524272852
 30
0.0
 10
604.7434313580947
 20
269.9289284192691
 30
0.0
 10
603.6277383283843
 20
254.3441907958537
 30
0.0
 10
602.1949728856675
 20
241.6968011565385
 30
0.0
 10
600.1066837396352
 20
229.1423994421757
 30
0.0
 10
597.4087150889388
 20
217.2434124363667
 30
0.0
 10
594.1054358229763
 20
206.0342450922076
 30
0.0
 10
590.2385952714878
 20
195.5496196029453
 30
0.0
 10
585.613335287158
 20
185.380535804933
 30
0.0
 10
580.1085647106491
 20
175.5038887479492
 30
0.0
 10
573.6209250649807
 20
166.0623123344944
 30
0.0
 10
566.1653197111548
 20
157.1734511197409
 30
0.0
 10
558.1737600327097
 20
149.3445121045153
 30
0.0
 10
549.7818622716567
 20
142.5914632505602
 30
0.0
 10
541.1760254096383
 20
136.7927368838901
 30
0.0
 10
532.1267056839944
 20
131.672306541054
 30
0.0
 10
522.7391416676007
 20
127.2250657810348
 30
0.0
 10
512.584791011973
 20
123.2404943896218
 30
0.0
 10
501.6798006136429
 20
119.8168456809887
 30
0.0
 10
488.6377230734587
 20
116.5692136424847
 30
0.0
 10
479.304833853593
 20
115.1126336405333
 30
0.0
 10
473.9134550328845
 20
114.271203469427
 30
0.0
  0
SPLINE
  5
25A
330
1F
100
AcDbEntity
  8
0
  6
Continuous
 62
     7
370
    25
100
AcDbSpline
210
0.0
220
0.0
230
1.0
 70
     8
 71
     3
 72
    24
 73
    20
 74
     0
 42
0.000000001
 43
0.00000001
 40
0.0
 40
0.0
 40
0.0
 40
0.0
 40
0.0678954334202125
 40
0.1360938899151284
 40
0.20422158840345
 40
0.2720200840745493
 40
0.3243204855996024
 40
0.3767204820780259
 40
0.4289892392502828
 40
0.4836847844181728
 40
0.5385427005128145
 40
0.5932402660328863
 40
0.6421252222912581
 40
0.6911151109128048
 40
0.7400299529182918
 40
0.8048608977682625
 40
0.8699291048907394
 40
0.9350698281916222
 40
1.0
 40
1.0
 40
1.0
 40
1.0
 10
428.2849826206534
 20
197.9081921313999
 30
0.0
 10
431.5843758737445
 20
197.9415942063907
 30
0.0
 10
438.1978878516978
 20
198.0085474326643
 30
0.0
 10
448.0620969635017
 20
199.2251538414411
 30
0.0
 10
457.7685216308438
 20
201.3018953919906
 30
0.0
 10
466.4823766331566
 20
204.1282422842581
 30
0.0
 10
474.1683464122254
 20
207.4874525361139
 30
0.0
 10
480.8595851683979
 20
211.16330851878
 30
0.0
 10
487.2693174630627
 20
215.5246336319818
 30
0.0
 10
493.2684627661388
 20
220.6264424989002
 30
0.0
 10
498.7665369025872
 20
226.4268254311708
 30
0.0
 10
503.4421841488164
 20
232.5579293564896
 30
0.0
 10
507.3111887173267
 20
238.8897921455363
 30
0.0
 10
510.4870670196199
 20
245.2819686103344
 30
0.0
 10
513.4132474063158
 20
252.6322027908392
 30
0.0
 10
515.9087017487923
 20
260.9653195295443
 30
0.0
 10
517.7966658452964
 20
270.2570941338353
 30
0.0
 10
518.9706704455239
 20
279.6752924610919
 30
0.0
 10
519.1658202676625
 20
285.992128525747
 30
0.0
 10
519.2632372299213
 20
289.1454338875567
 30
0.0
  0
LWPOLYLINE
  5
25B
330
1F
100
AcDbEntity
  8
0
  6
Continuous
 62
     7
370
    25
100
AcDbPolyline
 90
        9
 70
   128
 43
0.0
 10
557.6234247887
 20
290.3354708782
 10
552.8328067016
 20
290.1865112127
 10
548.0406569706
 20
290.0376016554
 10
543.247112035
 20
289.8887464458
 10
538.4523083741
 20
289.7399498221
 10
533.6563825026
 20
289.5912160207
 10
528.8594709675
 20
289.4425492763
 10
524.0617103435
 20
289.2939538217
 10
519.2632372299
 20
289.1454338876
  0
LWPOLYLINE
  5
25C
330
1F
100
AcDbEntity
  8
0
  6
Continuous
 62
     7
370
    25
100
AcDbPolyline
 90
        9
 70
   128
 43
0.0
 10
427.0840869883
 20
159.8572887282
 10
427.2345294324
 20
164.6091424047
 10
427.3848858702
 20
169.3625509108
 10
427.5351520887
 20
174.1173810563
 10
427.6853238774
 20
178.8734996108
 10
427.8353970285
 20
183.6307733082
 10
427.9853673371
 20
188.3890688498
 10
428.1352306008
 20
193.1482529082
 10
428.2849826207
 20
197.9081921314
  0
LWPOLYLINE
  5
25D
330
1F
100
AcDbEntity
  8
0
  6
Continuous
 62
     7
370
    25
100
AcDbPolyline
 90
        9
 70
   128
 43
0.0
 10
218.3431400303
 20
290.3354708782
 10
212.4398605219
 20
290.0989887901
 10
206.5353774531
 20
289.8624744092
 10
200.6297546903
 20
289.6259302937
 10
194.7230561124
 20
289.3893590023
 10
188.8153456099
 20
289.1527630938
 10
182.9066870841
 20
288.9161451274
 10
176.9971444468
 20
288.6795076626
 10
171.0867816193
 20
288.4428532589
  0
SPLINE
  5
25E
330
1F
100
AcDbEntity
  8
0
  6
Continuous
 62
     7
370
    25
100
AcDbSpline
210
0.0
220
0.0
230
1.0
 70
     8
 71
     3
 72
    25
 73
    21
 74
     0
 42
0.000000001
 43
0.00000001
 40
0.0
 40
0.0
 40
0.0
 40
0.0
 40
0.0494618050055009
 40
0.0990973770197603
 40
0.1487571370307295
 40
0.1982520385366558
 40
0.248606921593503
 40
0.2990969824575267
 40
0.3496006991108138
 40
0.3999742527516763
 40
0.4584521411966296
 40
0.5171132115757696
 40
0.5757746760884493
 40
0.6342531036711325
 40
0.6969235307576911
 40
0.7598677426413291
 40
0.8227484954234653
 40
0.8853319928527295
 40
0.9426724351492811
 40
1.0
 40
1.0
 40
1.0
 40
1.0
 10
348.8824778307151
 20
159.8572887282181
 30
0.0
 10
345.5591687312299
 20
160.0445624085752
 30
0.0
 10
338.9008752308562
 20
160.4197676908361
 30
0.0
 10
329.0158279288536
 20
162.0747565725651
 30
0.0
 10
319.2902015068738
 20
164.461957205033
 30
0.0
 10
309.7393040295217
 20
167.6412889640445
 30
0.0
 10
300.4132254569913
 20
171.5708695687356
 30
0.0
 10
291.3438179656018
 20
176.2110318330489
 30
0.0
 10
282.6293603661586
 20
181.4892265534021
 30
0.0
 10
273.8669588029042
 20
187.6743939979211
 30
0.0
 10
265.1679588332698
 20
194.8520493720621
 30
0.0
 10
256.6591349297059
 20
203.0780719215639
 30
0.0
 10
248.8167812890646
 20
211.9421122860809
 30
0.0
 10
241.5317402536902
 20
221.609936948692
 30
0.0
 10
234.9217987138554
 20
232.0975835844707
 30
0.0
 10
229.1296469598723
 20
243.3924597048525
 30
0.0
 10
224.4083570233527
 20
255.1743269650989
 30
0.0
 10
221.0203018147445
 20
267.0103761515922
 30
0.0
 10
218.8642141194978
 20
278.7684916811075
 30
0.0
 10
218.5168183889528
 20
286.4800998221351
 30
0.0
 10
218.3431400302969
 20
290.3354708781638
 30
0.0
  0
LWPOLYLINE
  5
25F
330
1F
100
AcDbEntity
  8
0
  6
Continuous
 62
     7
370
    25
100
AcDbPolyline
 90
        9
 70
   128
 43
0.0
 10
348.8824778307
 20
159.8572887282
 10
348.4044899185
 20
154.1510674734
 10
347.9264475285
 20
148.44367966
 10
347.4483555195
 20
142.7351832957
 10
346.9702187506
 20
137.0256363998
 10
346.4920420814
 20
131.3150970019
 10
346.0138303719
 20
125.603623142
 10
345.5355884825
 20
119.8912728695
 10
345.0573212738
 20
114.1781042426
  0
SPLINE
  5
260
330
1F
100
AcDbEntity
  8
0
  6
Continuous
 62
     7
370
    25
100
AcDbSpline
210
0.0
220
0.0
230
1.0
 70
     8
 71
     3
 72
    27
 73
    23
 74
     0
 42
0.000000001
 43
0.00000001
 40
0.0
 40
0.0
 40
0.0
 40
0.0
 40
0.0878004994860294
 40
0.1399638882676004
 40
0.1921918328826127
 40
0.2443841608597376
 40
0.2964989153011668
 40
0.3422362292260721
 40
0.388093617093732
 40
0.4339037498771307
 40
0.4795764435189884
 40
0.5270616408335376
 40
0.5746549395330149
 40
0.6221283157100013
 40
0.6644920912198906
 40
0.707036304926455
 40
0.7496900455966915
 40
0.7923241814375189
 40
0.8347637090536203
 40
0.8838219020448365
 40
0.9328867918615817
 40
1.0
 40
1.0
 40
1.0
 40
1.0
 10
171.0867816193174
 20
288.4428532588663
 30
0.0
 10
171.1393436546695
 20
281.3059524272852
 30
0.0
 10
171.2231334609488
 20
269.9289284192691
 30
0.0
 10
172.3388264906602
 20
254.3441907958537
 30
0.0
 10
173.7715919333759
 20
241.6968011565384
 30
0.0
 10
175.8598810794076
 20
229.1423994421754
 30
0.0
 10
178.5578497301048
 20
217.2434124363666
 30
0.0
 10
181.8611289960686
 20
206.034245092208
 30
0.0
 10
185.7279695475573
 20
195.5496196029459
 30
0.0
 10
190.3532295318868
 20
185.3805358049335
 30
0.0
 10
195.8580001083946
 20
175.5038887479492
 30
0.0
 10
202.3456397540619
 20
166.0623123344937
 30
0.0
 10
209.8012451078879
 20
157.1734511197398
 30
0.0
 10
217.792804786334
 20
149.3445121045152
 30
0.0
 10
226.1847025473881
 20
142.5914632505614
 30
0.0
 10
234.7905394094065
 20
136.7927368838914
 30
0.0
 10
243.8398591350501
 20
131.672306541055
 30
0.0
 10
253.2274231514432
 20
127.2250657810351
 30
0.0
 10
263.3817738070707
 20
123.2404943896218
 30
0.0
 10
274.2867642054007
 20
119.8168456809886
 30
0.0
 10
287.3288417455851
 20
116.5692136424847
 30
0.0
 10
296.6617309654508
 20
115.1126336405333
 30
0.0
 10
302.0531097861592
 20
114.271203469427
 30
0.0
  0
LWPOLYLINE
  5
261
330
1F
100
AcDbEntity
  8
0
  6
Continuous
 62
     7
370
    25
100
AcDbPolyline
 90
        9
 70
   128
 43
0.0
 10
218.3431400303
 20
290.3354708782
 10
223.1337581175
 20
290.1865112127
 10
227.9259078485
 20
290.0376016554
 10
232.719452784
 20
289.8887464458
 10
237.5142564449
 20
289.7399498221
 10
242.3101823164
 20
289.5912160207
 10
247.1070938516
 20
289.4425492763
 10
251.9048544755
 20
289.2939538217
 10
256.7033275891
 20
289.1454338876
  0
SPLINE
  5
262
330
1F
100
AcDbEntity
  8
0
  6
Continuous
 62
     7
370
    25
100
AcDbSpline
210
0.0
220
0.0
230
1.0
 70
     8
 71
     3
 72
    24
 73
    20
 74
     0
 42
0.000000001
 43
0.00000001
 40
0.0
 40
0.0
 40
0.0
 40
0.0
 40
0.0678954334202094
 40
0.1360938899151247
 40
0.2042215884034515
 40
0.2720200840745554
 40
0.3243204855996081
 40
0.3767204820780315
 40
0.4289892392502882
 40
0.4836847844181782
 40
0.5385427005128195
 40
0.5932402660328905
 40
0.6421252222912607
 40
0.6911151109128063
 40
0.7400299529182931
 40
0.804860897768261
 40
0.8699291048907357
 40
0.9350698281916203
 40
1.0
 40
1.0
 40
1.0
 40
1.0
 10
347.6815821983903
 20
197.9081921313999
 30
0.0
 10
344.3821889452993
 20
197.9415942063879
 30
0.0
 10
337.768676967346
 20
198.0085474326561
 30
0.0
 10
327.9044678555419
 20
199.2251538414355
 30
0.0
 10
318.1980431882004
 20
201.3018953919895
 30
0.0
 10
309.4841881858876
 20
204.1282422842584
 30
0.0
 10
301.798218406818
 20
207.4874525361133
 30
0.0
 10
295.1069796506457
 20
211.1633085187797
 30
0.0
 10
288.6972473559811
 20
215.5246336319818
 30
0.0
 10
282.6981020529051
 20
220.6264424989004
 30
0.0
 10
277.2000279164561
 20
226.4268254311705
 30
0.0
 10
272.5243806702272
 20
232.5579293564894
 30
0.0
 10
268.655376101718
 20
238.8897921455368
 30
0.0
 10
265.4794977994262
 20
245.2819686103353
 30
0.0
 10
262.5533174127277
 20
252.6322027908389
 30
0.0
 10
260.0578630702486
 20
260.9653195295431
 30
0.0
 10
258.1698989737471
 20
270.2570941338348
 30
0.0
 10
256.9958943735221
 20
279.6752924610916
 30
0.0
 10
256.800744551382
 20
285.992128525747
 30
0.0
 10
256.7033275891225
 20
289.1454338875567
 30
0.0
  0
LWPOLYLINE
  5
263
330
1F
100
AcDbEntity
  8
0
  6
Continuous
 62
     7
370
    25
100
AcDbPolyline
 90
        9
 70
   128
 43
0.0
 10
348.8824778307
 20
159.8572887282
 10
348.7320353866
 20
164.6091424047
 10
348.5816789489
 20
169.3625509108
 10
348.4314127304
 20
174.1173810563
 10
348.2812409417
 20
178.8734996108
 10
348.1311677905
 20
183.6307733082
 10
347.981197482
 20
188.3890688498
 10
347.8313342182
 20
193.1482529082
 10
347.6815821984
 20
197.9081921314
  0
SPLINE
  5
264
330
1F
100
AcDbEntity
  8
0
  6
Continuous
 62
     7
370
    25
100
AcDbSpline
210
0.0
220
0.0
230
1.0
 70
     8
 71
     3
 72
    10
 73
     6
 74
     0
 42
0.000000001
 43
0.00000001
 40
0.0
 40
0.0
 40
0.0
 40
0.0
 40
0.0650659694537737
 40
0.8130139885682965
 40
1.0
 40
1.0
 40
1.0
 40
1.0
 10
466.391978977167
 20
321.8389520133193
 30
0.0
 10
467.5521817660136
 20
321.8388836939465
 30
0.0
 10
482.0491777352881
 20
321.8380300279485
 30
0.0
 10
499.8795249425701
 20
321.8377509298876
 30
0.0
 10
516.5479053010545
 20
321.8383580997743
 30
0.0
 10
519.8815672049201
 20
321.8384795332356
 30
0.0
  0
SPLINE
  5
265
330
1F
100
AcDbEntity
  8
0
  6
Continuous
 62
     7
370
    25
100
AcDbSpline
210
0.0
220
0.0
230
1.0
 70
     8
 71
     3
 72
     9
 73
     5
 74
     0
 42
0.000000001
 43
0.00000001
 40
0.0
 40
0.0
 40
0.0
 40
0.0
 40
0.4637044805722081
 40
1.0
 40
1.0
 40
1.0
 40
1.0
 10
519.2632372299213
 20
289.1454338875567
 30
0.0
 10
519.3348085839491
 20
294.1992334964418
 30
0.0
 10
519.4891554945924
 20
305.097984361753
 30
0.0
 10
519.7445827254638
 20
315.9946477704426
 30
0.0
 10
519.8815672049201
 20
321.8384795332356
 30
0.0
  0
SPLINE
  5
266
330
1F
100
AcDbEntity
  8
0
  6
Continuous
 62
     7
370
    25
100
AcDbSpline
210
0.0
220
0.0
230
1.0
 70
     8
 71
     3
 72
     9
 73
     5
 74
     0
 42
0.000000001
 43
0.00000001
 40
0.0
 40
0.0
 40
0.0
 40
0.0
 40
0.4999346863918233
 40
1.0
 40
1.0
 40
1.0
 40
1.0
 10
428.2849826206534
 20
197.9081921313999
 30
0.0
 10
414.8528375618656
 20
198.0663632505072
 30
0.0
 10
387.9850377783948
 20
198.3827468170265
 30
0.0
 10
361.1172372803881
 20
198.0663908015107
 30
0.0
 10
347.6815821983903
 20
197.9081921313999
 30
0.0
  0
SPLINE
  5
267
330
1F
100
AcDbEntity
  8
0
  6
Continuous
 62
     7
370
    25
100
AcDbSpline
210
0.0
220
0.0
230
1.0
 70
     8
 71
     3
 72
     9
 73
     5
 74
     0
 42
0.000000001
 43
0.00000001
 40
0.0
 40
0.0
 40
0.0
 40
0.0
 40
0.4637044805722081
 40
1.0
 40
1.0
 40
1.0
 40
1.0
 10
256.7033275891225
 20
289.1454338875567
 30
0.0
 10
256.6317562350947
 20
294.1992334964418
 30
0.0
 10
256.4774093244513
 20
305.097984361753
 30
0.0
 10
256.2219820935799
 20
315.9946477704426
 30
0.0
 10
256.0849976141237
 20
321.8384795332356
 30
0.0
  0
SPLINE
  5
268
330
1F
100
AcDbEntity
  8
0
  6
Continuous
 62
     7
370
    25
100
AcDbSpline
210
0.0
220
0.0
230
1.0
 70
     8
 71
     3
 72
    10
 73
     6
 74
     0
 42
0.000000001
 43
0.00000001
 40
0.0
 40
0.0
 40
0.0
 40
0.0
 40
0.0650659694537737
 40
0.8130139885682968
 40
1.0
 40
1.0
 40
1.0
 40
1.0
 10
309.5745858418768
 20
321.8389520133193
 30
0.0
 10
308.4143830530301
 20
321.8388836939465
 30
0.0
 10
293.9173870837557
 20
321.8380300279485
 30
0.0
 10
276.0870398764736
 20
321.8377509298877
 30
0.0
 10
259.4186595179894
 20
321.8383580997743
 30
0.0
 10
256.0849976141237
 20
321.8384795332356
 30
0.0
  0
SPLINE
  5
269
330
1F
100
AcDbEntity
  8
0
  6
Continuous
 62
     7
370
    25
100
AcDbSpline
210
0.0
220
0.0
230
1.0
 70
     8
 71
     3
 72
    35
 73
    31
 74
     0
 42
0.000000001
 43
0.00000001
 40
0.0
 40
0.0
 40
0.0
 40
0.0
 40
0.0319682469241252
 40
0.068052077746205
 40
0.1042473547534579
 40
0.1403293995098237
 40
0.176115585983515
 40
0.2120128258003736
 40
0.2477974815343812
 40
0.2836406183239731
 40
0.319597301206387
 40
0.3554395129898843
 40
0.3911482654956743
 40
0.4269703493372028
 40
0.4626788312916679
 40
0.4999997218772891
 40
0.53507611457696
 40
0.5701525246708828
 40
0.6062136411551684
 40
0.6423917186040563
 40
0.6784532741286317
 40
0.7144731079466592
 40
0.7506088189156468
 40
0.786629831713203
 40
0.8221473745612028
 40
0.8577743953765872
 40
0.8932935823028317
 40
0.9288261157151185
 40
0.9644659956058769
 40
1.0
 40
1.0
 40
1.0
 40
1.0
 10
466.391978977167
 20
321.8389520133193
 30
0.0
 10
466.2796721379871
 20
319.2289370121679
 30
0.0
 10
466.0406001059973
 20
313.6728943490004
 30
0.0
 10
464.5576944588095
 20
305.2645098352746
 30
0.0
 10
462.1322453329008
 20
296.7407070174259
 30
0.0
 10
458.7776949279584
 20
288.5574571541205
 30
0.0
 10
454.5313303800559
 20
280.8295479636642
 30
0.0
 10
449.476704346819
 20
273.6346878936135
 30
0.0
 10
443.6580496621585
 20
267.0346946184272
 30
0.0
 10
437.1191488638383
 20
261.1398717856662
 30
0.0
 10
429.9652910398646
 20
256.0027532044783
 30
0.0
 10
422.2945274687264
 20
251.6948860159998
 30
0.0
 10
414.1901090815354
 20
248.3009155287467
 30
0.0
 10
405.7715264138631
 20
245.8269990953428
 30
0.0
 10
396.9997424874553
 20
244.2809724989417
 30
0.0
 10
388.1662804634815
 20
243.7640601873067
 30
0.0
 10
379.3867158454213
 20
244.2516431484995
 30
0.0
 10
370.8134893414966
 20
245.6762700439228
 30
0.0
 10
362.369273583404
 20
248.0889357810548
 30
0.0
 10
354.1749379247769
 20
251.4623606257231
 30
0.0
 10
346.4100951237249
 20
255.7279113472846
 30
0.0
 10
339.1933021998531
 20
260.8604465467721
 30
0.0
 10
332.5953884165449
 20
266.76041847995
 30
0.0
 10
326.7196295486907
 20
273.3264193166621
 30
0.0
 10
321.6539220909114
 20
280.4842828501357
 30
0.0
 10
317.4191526561386
 20
288.1139671118599
 30
0.0
 10
314.0314526832091
 20
296.1602339218063
 30
0.0
 10
311.5835071253687
 20
304.5356968684767
 30
0.0
 10
309.9830261368291
 20
313.126759541427
 30
0.0
 10
309.7105975221306
 20
318.9377692665598
 30
0.0
 10
309.5745858418768
 20
321.8389520133193
 30
0.0
  0
SPLINE
  5
26A
330
1F
100
AcDbEntity
  8
0
  6
Continuous
 62
     7
370
    25
100
AcDbSpline
210
0.0
220
0.0
230
1.0
 70
     8
 71
     3
 72
    25
 73
    21
 74
     0
 42
0.000000001
 43
0.00000001
 40
0.0
 40
0.0
 40
0.0
 40
0.0
 40
0.058351959570547
 40
0.1171758312278965
 40
0.1713112970171583
 40
0.2262187597386006
 40
0.2815181879501403
 40
0.3376228300703491
 40
0.3917882902199387
 40
0.4463293261537142
 40
0.5020545887854635
 40
0.5581889835602847
 40
0.612394292184039
 40
0.6669759917599323
 40
0.7227450604774528
 40
0.7789245376499662
 40
0.833209502352482
 40
0.8878728781796211
 40
0.9437301177136792
 40
1.0
 40
1.0
 40
1.0
 40
1.0
 10
387.9832824095219
 20
390.92285131898
 30
0.0
 10
390.0205805923258
 20
390.8703355817693
 30
0.0
 10
394.1116532792768
 20
390.7648793947708
 30
0.0
 10
400.0451086434256
 20
389.9330887700032
 30
0.0
 10
405.7682671275383
 20
388.6575466092155
 30
0.0
 10
411.247328856012
 20
386.9371330078037
 30
0.0
 10
416.6258189350111
 20
384.7383880025619
 30
0.0
 10
421.7747254634809
 20
382.1012445932437
 30
0.0
 10
426.660192369406
 20
379.0546221518675
 30
0.0
 10
431.2653450070592
 20
375.6209347812373
 30
0.0
 10
435.6167697372023
 20
371.7660221778956
 30
0.0
 10
439.6151379931973
 20
367.5619716785952
 30
0.0
 10
443.2198748915134
 20
363.0676041075155
 30
0.0
 10
446.4318648621086
 20
358.2997395860318
 30
0.0
 10
449.2647436303083
 20
353.2175705560566
 30
0.0
 10
451.648075177655
 20
347.9209959796476
 30
0.0
 10
453.56575848993
 20
342.4791400090735
 30
0.0
 10
455.0119745130816
 20
336.9069934916565
 30
0.0
 10
456.0303990222554
 20
331.1647549073301
 30
0.0
 10
456.2917853629215
 20
327.2576959304325
 30
0.0
 10
456.4229595015398
 20
325.2969771931058
 30
0.0
  0
LINE
  5
26B
330
1F
100
AcDbEntity
  8
0
  6
Continuous
 62
     7
370
    25
100
AcDbLine
 10
387.9832824095
 20
393.7464051564
 30
0.0
 11
387.9832824095
 21
390.922851319
 31
0.0
  0
SPLINE
  5
26C
330
1F
100
AcDbEntity
  8
0
  6
Continuous
 62
     7
370
    25
100
AcDbSpline
210
0.0
220
0.0
230
1.0
 70
     8
 71
     3
 72
    25
 73
    21
 74
     0
 42
0.000000001
 43
0.00000001
 40
0.0
 40
0.0
 40
0.0
 40
0.0
 40
0.0542649915292281
 40
0.1089088731913049
 40
0.1647483909050571
 40
0.2210012541008657
 40
0.2751800672992076
 40
0.3297361511573256
 40
0.3854819671900288
 40
0.4416387454257473
 40
0.495797266517282
 40
0.5503318295537448
 40
0.6060514318764232
 40
0.6621800856337186
 40
0.7163443889527259
 40
0.7708835118813272
 40
0.8266038674470572
 40
0.882732063512837
 40
0.9411311061321855
 40
1.0
 40
1.0
 40
1.0
 40
1.0
 10
459.3825229687538
 20
325.3980623101555
 30
0.0
 10
459.2519211427701
 20
327.3691523729531
 30
0.0
 10
458.9898056000643
 20
331.3250950838673
 30
0.0
 10
457.9638999960229
 20
337.2411298597396
 30
0.0
 10
456.4596299859245
 20
343.1235781858651
 30
0.0
 10
454.4525373384277
 20
348.8383814419937
 30
0.0
 10
451.9921129136506
 20
354.3201699506989
 30
0.0
 10
449.0926537443589
 20
359.5621266249681
 30
0.0
 10
445.7214330825193
 20
364.6008566420062
 30
0.0
 10
441.9404660714305
 20
369.3213933616018
 30
0.0
 10
437.8058080001052
 20
373.6738120104549
 30
0.0
 10
433.3357512330616
 20
377.65728990806
 30
0.0
 10
428.4884564610892
 20
381.2934921845808
 30
0.0
 10
423.359618291194
 20
384.4955339013947
 30
0.0
 10
418.0181806472468
 20
387.2350724927973
 30
0.0
 10
412.4815063499436
 20
389.5162702157073
 30
0.0
 10
406.7039590550307
 20
391.3487307323192
 30
0.0
 10
400.6540824893001
 20
392.7029641363593
 30
0.0
 10
394.3938852802434
 20
393.5804017506628
 30
0.0
 10
390.1258502033481
 20
393.690923081186
 30
0.0
 10
387.9832824095218
 20
393.7464051564368
 30
0.0
  0
ARC
  5
26D
330
1F
100
AcDbEntity
  8
0
  6
Continuous
 62
     7
370
    25
100
AcDbCircle
 10
454.6469794905
 20
420.6694998661
 30
0.0
 40
95.38905695101465
100
AcDbArc
 50
271.0668104088
 51
272.8455908719
  0
SPLINE
  5
26E
330
1F
100
AcDbEntity
  8
0
  6
Continuous
 62
     7
370
    25
100
AcDbSpline
210
0.0
220
0.0
230
1.0
 70
     8
 71
     3
 72
    21
 73
    17
 74
     0
 42
0.000000001
 43
0.00000001
 40
0.0
 40
0.0
 40
0.0
 40
0.0
 40
0.073585924573414
 40
0.1474078537295256
 40
0.2209936118263279
 40
0.2944585459037059
 40
0.3681584905743192
 40
0.4416237045984979
 40
0.5150568204106141
 40
0.5887241797278899
 40
0.6621579440274047
 40
0.7355950559705813
 40
0.8092655791928427
 40
0.8827031088046915
 40
0.9413515507335056
 40
1.0
 40
1.0
 40
1.0
 40
1.0
 10
316.5840418502899
 20
325.3980623101555
 30
0.0
 10
316.7862240876796
 20
328.0697894578827
 30
0.0
 10
317.191237000796
 20
333.4218125095802
 30
0.0
 10
318.9331760997287
 20
341.2946702052023
 30
0.0
 10
321.4723684857959
 20
348.9303705160318
 30
0.0
 10
324.8897926049405
 20
356.2160183875654
 30
0.0
 10
329.0871876343784
 20
363.0728386836883
 30
0.0
 10
334.0209377632983
 20
369.4209340422546
 30
0.0
 10
339.6506880096984
 20
375.1585974340365
 30
0.0
 10
345.8802071670447
 20
380.2351471337657
 30
0.0
 10
352.6350579245122
 20
384.5912856773578
 30
0.0
 10
359.8455531534204
 20
388.1425922259897
 30
0.0
 10
367.4039575825049
 20
390.8788139841251
 30
0.0
 10
374.6965663031287
 20
392.6203220728253
 30
0.0
 10
381.581323215803
 20
393.579715653428
 30
0.0
 10
385.8492959226191
 20
393.69084198645
 30
0.0
 10
387.9832824095218
 20
393.7464051564368
 30
0.0
  0
SPLINE
  5
26F
330
1F
100
AcDbEntity
  8
0
  6
Continuous
 62
     7
370
    25
100
AcDbSpline
210
0.0
220
0.0
230
1.0
 70
     8
 71
     3
 72
    25
 73
    21
 74
     0
 42
0.000000001
 43
0.00000001
 40
0.0
 40
0.0
 40
0.0
 40
0.0
 40
0.0583519601500889
 40
0.1171758323916672
 40
0.1713112987185933
 40
0.2258225237712116
 40
0.2815181808142996
 40
0.3376228234917302
 40
0.3917882841792821
 40
0.44632932065475
 40
0.5020545838399532
 40
0.5581889791722918
 40
0.6123942883344045
 40
0.6669759884523938
 40
0.7227450577238034
 40
0.7789245354542819
 40
0.8332095006959468
 40
0.8878728770659934
 40
0.9437301171548161
 40
1.0
 40
1.0
 40
1.0
 40
1.0
 10
387.9832824095219
 20
390.92285131898
 30
0.0
 10
385.9459839754022
 20
390.8703355975762
 30
0.0
 10
381.854910783787
 20
390.7648794423195
 30
0.0
 10
375.9214591266393
 20
389.9330885843938
 30
0.0
 10
370.2117967062849
 20
388.6605580761608
 30
0.0
 10
364.7323335678878
 20
386.9418554014641
 30
0.0
 10
359.3530565331508
 20
384.7446955206917
 30
0.0
 10
354.1918422800334
 20
382.1012454952187
 30
0.0
 10
349.3063716723011
 20
379.0546219121188
 30
0.0
 10
344.701220025899
 20
375.6209348472136
 30
0.0
 10
340.3497950234647
 20
371.7660221598908
 30
0.0
 10
336.3514268409334
 20
367.5619716832483
 30
0.0
 10
332.7466899235197
 20
363.0676041062786
 30
0.0
 10
329.5346999580388
 20
358.2997395863722
 30
0.0
 10
326.7018211884343
 20
353.2175705559636
 30
0.0
 10
324.3184896414666
 20
347.9209959796717
 30
0.0
 10
322.4008063290931
 20
342.4791400090671
 30
0.0
 10
320.9545903059677
 20
336.9069934916583
 30
0.0
 10
319.936165796787
 20
331.1647549073296
 30
0.0
 10
319.6747794561218
 20
327.2576959304324
 30
0.0
 10
319.543605317504
 20
325.2969771931058
 30
0.0
  0
ARC
  5
270
330
1F
100
AcDbEntity
  8
0
  6
Continuous
 62
     7
370
    25
100
AcDbCircle
 10
321.3195853285
 20
420.6694998661
 30
0.0
 40
95.38905695102365
100
AcDbArc
 50
267.1544091281
 51
268.9331895912
  0
SPLINE
  5
271
330
1F
100
AcDbEntity
  8
0
  6
Continuous
 62
     7
370
    25
100
AcDbSpline
210
0.0
220
0.0
230
1.0
 70
     8
 71
     3
 72
    11
 73
     7
 74
     0
 42
0.000000001
 43
0.00000001
 40
0.0
 40
0.0
 40
0.0
 40
0.0
 40
0.2052271863845116
 40
0.8255356202828326
 40
0.9951562500872222
 40
1.0
 40
1.0
 40
1.0
 40
1.0
 10
557.2572007366119
 20
322.6214011549069
 30
0.0
 10
560.5756032676227
 20
322.7977411600894
 30
0.0
 10
573.9240272266859
 20
323.5070767901473
 30
0.0
 10
590.0221735717281
 20
324.4651638290302
 30
0.0
 10
602.8830393067863
 20
325.2403265194956
 30
0.0
 10
605.7064860904675
 20
325.4101447193022
 30
0.0
 10
605.7848749864379
 20
325.4148594747831
 30
0.0
  0
LINE
  5
272
330
1F
100
AcDbEntity
  8
0
  6
Continuous
 62
     7
370
    25
100
AcDbLine
 10
605.6107118877
 20
322.422851319
 30
0.0
 11
605.7848749864
 21
325.4148594748
 31
0.0
  0
SPLINE
  5
273
330
1F
100
AcDbEntity
  8
0
  6
Continuous
 62
     7
370
    25
100
AcDbSpline
210
0.0
220
0.0
230
1.0
 70
     8
 71
     3
 72
     9
 73
     5
 74
     0
 42
0.000000001
 43
0.00000001
 40
0.0
 40
0.0
 40
0.0
 40
0.0
 40
0.499742959270674
 40
1.0
 40
1.0
 40
1.0
 40
1.0
 10
605.6107118877309
 20
322.4228513189814
 30
0.0
 10
605.3587660291957
 20
316.7652495489274
 30
0.0
 10
604.8546151375
 20
305.4442260805613
 30
0.0
 10
604.8713909709359
 20
294.1119194423401
 30
0.0
 10
604.8797831997264
 20
288.4428532588663
 30
0.0
  0
SPLINE
  5
274
330
1F
100
AcDbEntity
  8
0
  6
Continuous
 62
     7
370
    25
100
AcDbSpline
210
0.0
220
0.0
230
1.0
 70
     8
 71
     3
 72
     9
 73
     5
 74
     0
 42
0.000000001
 43
0.00000001
 40
0.0
 40
0.0
 40
0.0
 40
0.0
 40
0.9938484059009947
 40
1.0
 40
1.0
 40
1.0
 40
1.0
 10
557.6234247887468
 20
290.3354708781638
 30
0.0
 10
557.5857270705674
 20
301.0328827064488
 30
0.0
 10
557.5477960159361
 20
311.7965079885027
 30
0.0
 10
557.2589774313127
 20
322.555217938267
 30
0.0
 10
557.2572007366119
 20
322.6214011549069
 30
0.0
  0
SPLINE
  5
275
330
1F
100
AcDbEntity
  8
0
  6
Continuous
 62
     7
370
    25
100
AcDbSpline
210
0.0
220
0.0
230
1.0
 70
     8
 71
     3
 72
     9
 73
     5
 74
     0
 42
0.000000001
 43
0.00000001
 40
0.0
 40
0.0
 40
0.0
 40
0.0
 40
0.4997429592706877
 40
1.0
 40
1.0
 40
1.0
 40
1.0
 10
170.3558529313128
 20
322.4228513189814
 30
0.0
 10
170.6077987898451
 20
316.7652495489272
 30
0.0
 10
171.1119496815354
 20
305.444226080561
 30
0.0
 10
171.095173848105
 20
294.11191944234
 30
0.0
 10
171.0867816193174
 20
288.4428532588663
 30
0.0
  0
LINE
  5
276
330
1F
100
AcDbEntity
  8
0
  6
Continuous
 62
     7
370
    25
100
AcDbLine
 10
170.3558529313
 20
322.422851319
 30
0.0
 11
170.1816898326
 21
325.4148594748
 31
0.0
  0
SPLINE
  5
277
330
1F
100
AcDbEntity
  8
0
  6
Continuous
 62
     7
370
    25
100
AcDbSpline
210
0.0
220
0.0
230
1.0
 70
     8
 71
     3
 72
    11
 73
     7
 74
     0
 42
0.000000001
 43
0.00000001
 40
0.0
 40
0.0
 40
0.0
 40
0.0
 40
0.2052271863845116
 40
0.8255356202828326
 40
0.9951562500872227
 40
1.0
 40
1.0
 40
1.0
 40
1.0
 10
218.7093640824319
 20
322.6214011549069
 30
0.0
 10
215.390961551421
 20
322.7977411600894
 30
0.0
 10
202.0425375923578
 20
323.5070767901473
 30
0.0
 10
185.9443912473162
 20
324.4651638290303
 30
0.0
 10
173.0835255122571
 20
325.2403265194956
 30
0.0
 10
170.2600787285763
 20
325.4101447193022
 30
0.0
 10
170.1816898326059
 20
325.4148594747831
 30
0.0
  0
SPLINE
  5
278
330
1F
100
AcDbEntity
  8
0
  6
Continuous
 62
     7
370
    25
100
AcDbSpline
210
0.0
220
0.0
230
1.0
 70
     8
 71
     3
 72
     9
 73
     5
 74
     0
 42
0.000000001
 43
0.00000001
 40
0.0
 40
0.0
 40
0.0
 40
0.0
 40
0.9938484059009947
 40
1.0
 40
1.0
 40
1.0
 40
1.0
 10
218.3431400302969
 20
290.3354708781638
 30
0.0
 10
218.3808377484772
 20
301.0328827064488
 30
0.0
 10
218.4187688031095
 20
311.7965079885027
 30
0.0
 10
218.7075873877311
 20
322.555217938267
 30
0.0
 10
218.7093640824319
 20
322.6214011549069
 30
0.0
  0
SPLINE
  5
279
330
1F
100
AcDbEntity
  8
0
  6
Continuous
 62
     7
370
    25
100
AcDbSpline
210
0.0
220
0.0
230
1.0
 70
     8
 71
     3
 72
    11
 73
     7
 74
     0
 42
0.000000001
 43
0.00000001
 40
0.0
 40
0.0
 40
0.0
 40
0.0
 40
0.1582953257004634
 40
0.4860506798235018
 40
0.8138281653569971
 40
1.0
 40
1.0
 40
1.0
 40
1.0
 10
605.7848749864379
 20
325.4148594747831
 30
0.0
 10
598.0624393106417
 20
325.4123661803625
 30
0.0
 10
574.3504623870995
 20
325.4047104429438
 30
0.0
 10
534.6378768853576
 20
325.3963518864723
 30
0.0
 10
493.5572787524006
 20
325.393890033931
 30
0.0
 10
468.4700600884662
 20
325.3969528445808
 30
0.0
 10
459.3825229687538
 20
325.3980623101555
 30
0.0
  0
SPLINE
  5
27A
330
1F
100
AcDbEntity
  8
0
  6
Continuous
 62
     7
370
    25
100
AcDbSpline
210
0.0
220
0.0
230
1.0
 70
     8
 71
     3
 72
    11
 73
     7
 74
     0
 42
0.000000001
 43
0.00000001
 40
0.0
 40
0.0
 40
0.0
 40
0.0
 40
0.1582953257004634
 40
0.4860506798235025
 40
0.8138281653569971
 40
1.0
 40
1.0
 40
1.0
 40
1.0
 10
170.1816898326059
 20
325.4148594747831
 30
0.0
 10
177.904125508402
 20
325.4123661803625
 30
0.0
 10
201.6161024319443
 20
325.4047104429438
 30
0.0
 10
241.3286879336862
 20
325.396351886472
 30
0.0
 10
282.4092860666431
 20
325.3938900339311
 30
0.0
 10
307.4965047305776
 20
325.3969528445809
 30
0.0
 10
316.5840418502899
 20
325.3980623101555
 30
0.0
  0
ARC
  5
27B
330
1F
100
AcDbEntity
  8
0
  6
Continuous
 62
     7
370
    25
100
AcDbCircle
 10
190.4758030563
 20
325.0695108163
 30
0.0
 40
126.1086667831074
100
AcDbArc
 50
358.9285564848
 51
0.1492731287
  0
SPLINE
  5
27C
330
1F
100
AcDbEntity
  8
0
  6
Continuous
 62
     7
370
    25
100
AcDbSpline
210
0.0
220
0.0
230
1.0
 70
     8
 71
     3
 72
     9
 73
     5
 74
     0
 42
0.000000001
 43
0.00000001
 40
0.0
 40
0.0
 40
0.0
 40
0.0
 40
0.6723476018980565
 40
1.0
 40
1.0
 40
1.0
 40
1.0
 10
309.5826919398945
 20
323.264258815757
 30
0.0
 10
311.1690343883751
 20
323.1908310358665
 30
0.0
 10
313.5284425933011
 20
323.0816199972858
 30
0.0
 10
315.8136626638454
 20
322.8027584646741
 30
0.0
 10
316.56242050015
 20
322.7113888147755
 30
0.0
  0
SPLINE
  5
27D
330
1F
100
AcDbEntity
  8
0
  6
Continuous
 62
     7
370
    25
100
AcDbSpline
210
0.0
220
0.0
230
1.0
 70
     8
 71
     3
 72
     9
 73
     5
 74
     0
 42
0.000000001
 43
0.00000001
 40
0.0
 40
0.0
 40
0.0
 40
0.0
 40
0.1869861127682915
 40
0.9999999999999999
 40
0.9999999999999999
 40
0.9999999999999999
 40
0.9999999999999999
 10
256.0991633642861
 20
323.2631057802332
 30
0.0
 10
259.4324463133024
 20
323.262966079121
 30
0.0
 10
277.2588126656891
 20
323.2622189588664
 30
0.0
 10
295.0876221976231
 20
323.2633440781526
 30
0.0
 10
309.5826919398945
 20
323.264258815757
 30
0.0
  0
SPLINE
  5
27E
330
1F
100
AcDbEntity
  8
0
  6
Continuous
 62
     7
370
    25
100
AcDbSpline
210
0.0
220
0.0
230
1.0
 70
     8
 71
     3
 72
     9
 73
     5
 74
     0
 42
0.000000001
 43
0.00000001
 40
0.0
 40
0.0
 40
0.0
 40
0.0
 40
0.7321163599638263
 40
1.0
 40
1.0
 40
1.0
 40
1.0
 10
218.7896838814869
 20
323.7346310780586
 30
0.0
 10
227.8912368869959
 20
323.5422103496841
 30
0.0
 10
240.3230762819777
 20
323.2793822817742
 30
0.0
 10
252.7659271747129
 20
323.2665447460358
 30
0.0
 10
256.0991633642861
 20
323.2631057802332
 30
0.0
  0
SPLINE
  5
27F
330
1F
100
AcDbEntity
  8
0
  6
Continuous
 62
     7
370
    25
100
AcDbSpline
210
0.0
220
0.0
230
1.0
 70
     8
 71
     3
 72
    11
 73
     7
 74
     0
 42
0.000000001
 43
0.00000001
 40
0.0
 40
0.0
 40
0.0
 40
0.0
 40
0.0048475199571543
 40
0.1744727605783508
 40
0.7947904614416014
 40
1.0
 40
1.0
 40
1.0
 40
1.0
 10
170.1816898326059
 20
325.4148594747831
 30
0.0
 10
170.2602493465851
 20
325.4120226554841
 30
0.0
 10
173.0877766997027
 20
325.309919374067
 30
0.0
 10
185.967629770653
 20
324.8438462030854
 30
0.0
 10
202.0918173957099
 20
324.2677034631306
 30
0.0
 10
215.4653031572722
 20
323.8407605385531
 30
0.0
 10
218.7896838814869
 20
323.7346310780586
 30
0.0
  0
SPLINE
  5
280
330
1F
100
AcDbEntity
  8
0
  6
Continuous
 62
     7
370
    25
100
AcDbSpline
210
0.0
220
0.0
230
1.0
 70
     8
 71
     3
 72
    11
 73
     7
 74
     0
 42
0.000000001
 43
0.00000001
 40
0.0
 40
0.0
 40
0.0
 40
0.0
 40
0.0048475199571537
 40
0.1744727605783508
 40
0.7947904614416014
 40
1.0
 40
1.0
 40
1.0
 40
1.0
 10
605.7848749864379
 20
325.4148594747831
 30
0.0
 10
605.7063154724586
 20
325.4120226554841
 30
0.0
 10
602.8787881193407
 20
325.3099193740669
 30
0.0
 10
589.9989350483914
 20
324.8438462030857
 30
0.0
 10
573.8747474233338
 20
324.2677034631306
 30
0.0
 10
560.5012616617715
 20
323.8407605385531
 30
0.0
 10
557.1768809375568
 20
323.7346310780586
 30
0.0
  0
SPLINE
  5
281
330
1F
100
AcDbEntity
  8
0
  6
Continuous
 62
     7
370
    25
100
AcDbSpline
210
0.0
220
0.0
230
1.0
 70
     8
 71
     3
 72
     9
 73
     5
 74
     0
 42
0.000000001
 43
0.00000001
 40
0.0
 40
0.0
 40
0.0
 40
0.0
 40
0.7321163599638263
 40
1.0
 40
1.0
 40
1.0
 40
1.0
 10
557.1768809375568
 20
323.7346310780586
 30
0.0
 10
548.0753279320478
 20
323.5422103496841
 30
0.0
 10
535.643488537066
 20
323.2793822817742
 30
0.0
 10
523.2006376443308
 20
323.2665447460358
 30
0.0
 10
519.8674014547577
 20
323.2631057802332
 30
0.0
  0
SPLINE
  5
282
330
1F
100
AcDbEntity
  8
0
  6
Continuous
 62
     7
370
    25
100
AcDbSpline
210
0.0
220
0.0
230
1.0
 70
     8
 71
     3
 72
     9
 73
     5
 74
     0
 42
0.000000001
 43
0.00000001
 40
0.0
 40
0.0
 40
0.0
 40
0.0
 40
0.1869861127682915
 40
0.9999999999999999
 40
0.9999999999999999
 40
0.9999999999999999
 40
0.9999999999999999
 10
519.8674014547577
 20
323.2631057802332
 30
0.0
 10
516.5341185057414
 20
323.262966079121
 30
0.0
 10
498.7077521533546
 20
323.2622189588664
 30
0.0
 10
480.8789426214207
 20
323.2633440781526
 30
0.0
 10
466.3838728791493
 20
323.264258815757
 30
0.0
  0
SPLINE
  5
283
330
1F
100
AcDbEntity
  8
0
  6
Continuous
 62
     7
370
    25
100
AcDbSpline
210
0.0
220
0.0
230
1.0
 70
     8
 71
     3
 72
     9
 73
     5
 74
     0
 42
0.000000001
 43
0.00000001
 40
0.0
 40
0.0
 40
0.0
 40
0.0
 40
0.6723476018980565
 40
1.0
 40
1.0
 40
1.0
 40
1.0
 10
466.3838728791493
 20
323.264258815757
 30
0.0
 10
464.7975304306687
 20
323.1908310358665
 30
0.0
 10
462.4381222257427
 20
323.0816199972858
 30
0.0
 10
460.1529021551983
 20
322.8027584646741
 30
0.0
 10
459.4041443188938
 20
322.7113888147755
 30
0.0
  0
ARC
  5
284
330
1F
100
AcDbEntity
  8
0
  6
Continuous
 62
     7
370
    25
100
AcDbCircle
 10
585.4907617637
 20
325.0695108164
 30
0.0
 40
126.108666784074
100
AcDbArc
 50
179.8507268713
 51
181.0714435152
  0
LINE
  5
285
330
1F
100
AcDbEntity
  8
0
  6
Continuous
 62
     7
370
    25
100
AcDbLine
 10
387.9832824094
 20
159.6045237706
 30
0.0
 11
348.8824778307
 21
159.8572887282
 31
0.0
  0
LINE
  5
286
330
1F
100
AcDbEntity
  8
0
  6
Continuous
 62
     7
370
    25
100
AcDbLine
 10
387.9832824094
 20
159.6045237706
 30
0.0
 11
387.9832824095
 21
114.1629351284
 31
0.0
  0
LINE
  5
287
330
1F
100
AcDbEntity
  8
0
  6
Continuous
 62
     7
370
    25
100
AcDbLine
 10
387.9832824094
 20
159.6045237706
 30
0.0
 11
427.0840869883
 21
159.8572887282
 31
0.0
  0
ARC
  5
288
330
1F
100
AcDbEntity
  8
0
  6
Continuous
 62
     7
370
    25
100
AcDbCircle
 10
530.981390861
 20
321.2851078409
 30
0.0
 40
26.30976747217549
100
AcDbArc
 50
2.9113493361
 51
5.34215661
  0
ARC
  5
289
330
1F
100
AcDbEntity
  8
0
  6
Continuous
 62
     7
370
    25
100
AcDbCircle
 10
244.985173958
 20
321.2851078409
 30
0.0
 40
26.30976747213835
100
AcDbArc
 50
174.65784339
 51
177.0886506639
  0
SPLINE
  5
28A
330
1F
100
AcDbEntity
  8
0
  6
Continuous
 62
     7
370
    25
100
AcDbSpline
210
0.0
220
0.0
230
1.0
 70
     8
 71
     3
 72
    10
 73
     6
 74
     0
 42
0.000000001
 43
0.00000001
 40
0.0
 40
0.0
 40
0.0
 40
0.0
 40
0.3786816202761256
 40
0.765259339012144
 40
1.0
 40
1.0
 40
1.0
 40
1.0
 10
315.814841648658
 20
320.8937702090608
 30
0.0
 10
315.0612894084693
 20
321.062086451215
 30
0.0
 10
313.5384721964342
 20
321.4022285899383
 30
0.0
 10
311.4238199454769
 20
321.7810676145955
 30
0.0
 10
310.0816658622448
 20
321.82307948424
 30
0.0
 10
309.5745858418768
 20
321.8389520133193
 30
0.0
  0
SPLINE
  5
28B
330
1F
100
AcDbEntity
  8
0
  6
Continuous
 62
     7
370
    25
100
AcDbSpline
210
0.0
220
0.0
230
1.0
 70
     8
 71
     3
 72
    10
 73
     6
 74
     0
 42
0.000000001
 43
0.00000001
 40
0.0
 40
0.0
 40
0.0
 40
0.0
 40
0.3094935196012943
 40
0.643995513456881
 40
1.0
 40
1.0
 40
1.0
 40
1.0
 10
319.1998300048632
 20
322.1860520056887
 30
0.0
 10
318.9318050448344
 20
321.8901362693165
 30
0.0
 10
318.3740974974345
 20
321.274393468529
 30
0.0
 10
317.1805054683871
 20
320.7629101869928
 30
0.0
 10
316.2794162802588
 20
320.8492539484224
 30
0.0
 10
315.814841648658
 20
320.8937702090608
 30
0.0
  0
SPLINE
  5
28C
330
1F
100
AcDbEntity
  8
0
  6
Continuous
 62
     7
370
    25
100
AcDbSpline
210
0.0
220
0.0
230
1.0
 70
     8
 71
     3
 72
    21
 73
    17
 74
     0
 42
0.000000001
 43
0.00000001
 40
0.0
 40
0.0
 40
0.0
 40
0.0
 40
0.0663617740257391
 40
0.1329047789304972
 40
0.199266565870565
 40
0.2656281116628902
 40
0.3321708651895757
 40
0.3985324712416029
 40
0.4701906154353745
 40
0.5420771832025042
 40
0.6137354804085141
 40
0.685416877883275
 40
0.757326707729475
 40
0.8290083303523307
 40
0.9145041094097027
 40
1.0
 40
1.0
 40
1.0
 40
1.0
 10
387.983282409522
 20
253.6342668389857
 30
0.0
 10
385.5988740077663
 20
253.7075054695239
 30
0.0
 10
380.8235454972229
 20
253.8541827418506
 30
0.0
 10
373.7417149549255
 20
255.0126441038416
 30
0.0
 10
366.8114717647851
 20
256.8391535792831
 30
0.0
 10
360.1153122936527
 20
259.405051968036
 30
0.0
 10
353.7189905261666
 20
262.6420089293364
 30
0.0
 10
347.5286505794999
 20
266.6238073135684
 30
0.0
 10
341.6647044034501
 20
271.3877491894153
 30
0.0
 10
336.2325892403875
 20
276.907665146449
 30
0.0
 10
331.444013091032
 20
282.9970839241022
 30
0.0
 10
327.3875619696462
 20
289.5968957971455
 30
0.0
 10
324.0822933377145
 20
296.6055319070485
 30
0.0
 10
321.4338262859501
 20
304.4081812757468
 30
0.0
 10
319.5970554505361
 20
312.9696609968196
 30
0.0
 10
319.3322385443316
 20
319.1139203334914
 30
0.0
 10
319.1998300048632
 20
322.1860520056887
 30
0.0
  0
SPLINE
  5
28D
330
1F
100
AcDbEntity
  8
0
  6
Continuous
 62
     7
370
    25
100
AcDbSpline
210
0.0
220
0.0
230
1.0
 70
     8
 71
     3
 72
    21
 73
    17
 74
     0
 42
0.000000001
 43
0.00000001
 40
0.0
 40
0.0
 40
0.0
 40
0.0
 40
0.0663617740257376
 40
0.1329047789304958
 40
0.1992665658705635
 40
0.2656281116628889
 40
0.3321708651895745
 40
0.3985324712416018
 40
0.4701906154353738
 40
0.5420771832025035
 40
0.6137354804085136
 40
0.6854168778832744
 40
0.7573267077294744
 40
0.8290083303523302
 40
0.9145041094097023
 40
0.9999999999999999
 40
0.9999999999999999
 40
0.9999999999999999
 40
0.9999999999999999
 10
387.983282409522
 20
253.6342668389857
 30
0.0
 10
390.3676908112776
 20
253.707505469524
 30
0.0
 10
395.1430193218209
 20
253.8541827418508
 30
0.0
 10
402.2248498641183
 20
255.0126441038417
 30
0.0
 10
409.1550930542586
 20
256.8391535792831
 30
0.0
 10
415.8512525253911
 20
259.405051968036
 30
0.0
 10
422.2475742928771
 20
262.6420089293364
 30
0.0
 10
428.4379142395438
 20
266.6238073135684
 30
0.0
 10
434.3018604155937
 20
271.3877491894153
 30
0.0
 10
439.7339755786563
 20
276.9076651464489
 30
0.0
 10
444.5225517280117
 20
282.9970839241022
 30
0.0
 10
448.5790028493975
 20
289.5968957971456
 30
0.0
 10
451.8842714813291
 20
296.6055319070485
 30
0.0
 10
454.5327385330937
 20
304.4081812757468
 30
0.0
 10
456.3695093685077
 20
312.9696609968196
 30
0.0
 10
456.6343262747122
 20
319.1139203334914
 30
0.0
 10
456.7667348141806
 20
322.1860520056887
 30
0.0
  0
SPLINE
  5
28E
330
1F
100
AcDbEntity
  8
0
  6
Continuous
 62
     7
370
    25
100
AcDbSpline
210
0.0
220
0.0
230
1.0
 70
     8
 71
     3
 72
    10
 73
     6
 74
     0
 42
0.000000001
 43
0.00000001
 40
0.0
 40
0.0
 40
0.0
 40
0.0
 40
0.3094935196012943
 40
0.643995513456881
 40
1.0
 40
1.0
 40
1.0
 40
1.0
 10
456.7667348141806
 20
322.1860520056887
 30
0.0
 10
457.0347597742094
 20
321.8901362693165
 30
0.0
 10
457.5924673216093
 20
321.274393468529
 30
0.0
 10
458.7860593506566
 20
320.7629101869928
 30
0.0
 10
459.6871485387849
 20
320.8492539484224
 30
0.0
 10
460.1517231703858
 20
320.8937702090608
 30
0.0
  0
SPLINE
  5
28F
330
1F
100
AcDbEntity
  8
0
  6
Continuous
 62
     7
370
    25
100
AcDbSpline
210
0.0
220
0.0
230
1.0
 70
     8
 71
     3
 72
    10
 73
     6
 74
     0
 42
0.000000001
 43
0.00000001
 40
0.0
 40
0.0
 40
0.0
 40
0.0
 40
0.3786816202761241
 40
0.7652593390121437
 40
1.0
 40
1.0
 40
1.0
 40
1.0
 10
460.1517231703858
 20
320.8937702090608
 30
0.0
 10
460.9052754105744
 20
321.0620864512149
 30
0.0
 10
462.4280926226097
 20
321.4022285899382
 30
0.0
 10
464.5427448735669
 20
321.7810676145955
 30
0.0
 10
465.8848989567989
 20
321.82307948424
 30
0.0
 10
466.391978977167
 20
321.8389520133193
 30
0.0
  0
SPLINE
  5
290
330
1F
100
AcDbEntity
  8
0
  6
Continuous
 62
     7
370
    25
100
AcDbSpline
210
0.0
220
0.0
230
1.0
 70
     8
 71
     3
 72
    10
 73
     6
 74
     0
 42
0.000000001
 43
0.00000001
 40
0.0
 40
0.0
 40
0.0
 40
0.0
 40
0.2677991196117115
 40
0.6337921167767611
 40
1.0
 40
1.0
 40
1.0
 40
1.0
 10
256.0849976141237
 20
321.8384795332356
 30
0.0
 10
252.7453620043942
 20
321.8484885103427
 30
0.0
 10
244.8415469155975
 20
321.8721764552348
 30
0.0
 10
232.376342938203
 20
322.0533754657522
 30
0.0
 10
223.2659149427624
 20
322.4320222168167
 30
0.0
 10
218.7093640824319
 20
322.6214011549069
 30
0.0
  0
SPLINE
  5
291
330
1F
100
AcDbEntity
  8
0
  6
Continuous
 62
     7
370
    25
100
AcDbSpline
210
0.0
220
0.0
230
1.0
 70
     8
 71
     3
 72
    10
 73
     6
 74
     0
 42
0.000000001
 43
0.00000001
 40
0.0
 40
0.0
 40
0.0
 40
0.0
 40
0.2677991196117114
 40
0.633792116776761
 40
1.0
 40
1.0
 40
1.0
 40
1.0
 10
519.8815672049201
 20
321.8384795332356
 30
0.0
 10
523.2212028146496
 20
321.8484885103427
 30
0.0
 10
531.1250179034462
 20
321.8721764552348
 30
0.0
 10
543.5902218808408
 20
322.0533754657521
 30
0.0
 10
552.7006498762814
 20
322.4320222168166
 30
0.0
 10
557.2572007366119
 20
322.6214011549069
 30
0.0
  0
ARC
  5
292
330
1F
100
AcDbEntity
  8
0
  6
Continuous
 62
     7
370
    25
100
AcDbCircle
 10
455.8062991317
 20
321.9137315982
 30
0.0
 40
64.07531226242826
100
AcDbArc
 50
359.9327100163
 51
1.2066919167
  0
ARC
  5
293
330
1F
100
AcDbEntity
  8
0
  6
Continuous
 62
     7
370
    25
100
AcDbCircle
 10
320.1602656873
 20
321.9137315982
 30
0.0
 40
64.07531226235379
100
AcDbArc
 50
178.7933080833
 51
180.0672899837
  0
ARC
  5
294
330
1F
100
AcDbEntity
  8
0
  6
Continuous
 62
     7
370
    25
100
AcDbCircle
 10
417.644598963
 20
321.9370056223
 30
0.0
 40
108.0700576038865
100
AcDbArc
 50
179.2963090808
 51
180.0519853404
  0
ARC
  5
295
330
1F
100
AcDbEntity
  8
0
  6
Continuous
 62
     7
370
    25
100
AcDbCircle
 10
358.3219658536
 20
321.9370056222
 30
0.0
 40
108.0700576063355
100
AcDbArc
 50
359.9480146596
 51
0.7036909192
  0
ARC
  5
296
330
1F
100
AcDbEntity
  8
0
  6
Continuous
 62
     7
370
    25
100
AcDbCircle
 10
316.5462471967
 20
325.422851319
 30
0.0
 40
3.000000000000012
100
AcDbArc
 50
322.8222201531
 51
357.5952753497
  0
LINE
  5
297
330
1F
100
AcDbEntity
  8
0
  6
Continuous
 62
     7
370
    25
100
AcDbLine
 10
318.8343813752
 20
323.4828283394
 30
0.0
 11
318.9365401886
 21
323.6099808291
 31
0.0
  0
SPLINE
  5
298
330
1F
100
AcDbEntity
  8
0
  6
Continuous
 62
     7
370
    25
100
AcDbSpline
210
0.0
220
0.0
230
1.0
 70
     8
 71
     3
 72
    10
 73
     6
 74
     0
 42
0.000000001
 43
0.00000001
 40
0.0
 40
0.0
 40
0.0
 40
0.0
 40
0.3557202324789806
 40
0.711475263453236
 40
1.0
 40
1.0
 40
1.0
 40
1.0
 10
316.56242050015
 20
322.7113888147755
 30
0.0
 10
316.8678042778735
 20
322.6863258231357
 30
0.0
 10
317.478601707629
 20
322.6361973880574
 30
0.0
 10
318.2732970322439
 20
322.9367676667118
 30
0.0
 10
318.6608329933838
 20
323.3139269125399
 30
0.0
 10
318.8343813752001
 20
323.4828283394114
 30
0.0
  0
LINE
  5
299
330
1F
100
AcDbEntity
  8
0
  6
Continuous
 62
     7
370
    25
100
AcDbLine
 10
457.1321834438
 20
323.4828283394
 30
0.0
 11
457.0300246305
 21
323.6099808291
 31
0.0
  0
ARC
  5
29A
330
1F
100
AcDbEntity
  8
0
  6
Continuous
 62
     7
370
    25
100
AcDbCircle
 10
459.4203176224
 20
325.422851319
 30
0.0
 40
3.000000000000012
100
AcDbArc
 50
182.4047246503
 51
217.1777798469
  0
SPLINE
  5
29B
330
1F
100
AcDbEntity
  8
0
  6
Continuous
 62
     7
370
    25
100
AcDbSpline
210
0.0
220
0.0
230
1.0
 70
     8
 71
     3
 72
    10
 73
     6
 74
     0
 42
0.000000001
 43
0.00000001
 40
0.0
 40
0.0
 40
0.0
 40
0.0
 40
0.3557202324789806
 40
0.711475263453236
 40
1.0
 40
1.0
 40
1.0
 40
1.0
 10
459.4041443188938
 20
322.7113888147755
 30
0.0
 10
459.0987605411703
 20
322.6863258231357
 30
0.0
 10
458.4879631114147
 20
322.6361973880574
 30
0.0
 10
457.6932677867999
 20
322.9367676667118
 30
0.0
 10
457.30573182566
 20
323.3139269125399
 30
0.0
 10
457.1321834438436
 20
323.4828283394114
 30
0.0
  0
ARC
  5
29C
330
1F
100
AcDbEntity
  8
0
  6
Continuous
 62
     7
370
    25
100
AcDbCircle
 10
319.2674063324
 20
320.5362922589
 30
0.0
 40
3.471021950387719
100
AcDbArc
 50
141.1970140476
 51
174.0886689791
  0
ARC
  5
29D
330
1F
100
AcDbEntity
  8
0
  6
Continuous
 62
     7
370
    25
100
AcDbCircle
 10
456.6991584867
 20
320.5362922589
 30
0.0
 40
3.471021950387122
100
AcDbArc
 50
5.9113310209
 51
38.8029859524
  0
SPLINE
  5
29E
330
1F
100
AcDbEntity
  8
0
  6
Continuous
 62
     7
370
    25
100
AcDbSpline
210
0.0
220
0.0
230
1.0
 70
     8
 71
     3
 72
    22
 73
    18
 74
     0
 42
0.000000001
 43
0.00000001
 40
0.0
 40
0.0
 40
0.0
 40
0.0
 40
0.0677482131348126
 40
0.1393883166436412
 40
0.2112576786695461
 40
0.2828981904365528
 40
0.3545356910600286
 40
0.4264018889072809
 40
0.498039701563422
 40
0.558520137681377
 40
0.6191374949787388
 40
0.6796180418574717
 40
0.7513281185819004
 40
0.8232669710902789
 40
0.8949771395072688
 40
0.9474885691202345
 40
0.9999999999999999
 40
0.9999999999999999
 40
0.9999999999999999
 40
0.9999999999999999
 10
319.8421691531287
 20
322.1876933049503
 30
0.0
 10
319.9225564589328
 20
319.7760308626802
 30
0.0
 10
320.0879490311806
 20
314.8141646733563
 30
0.0
 10
321.3830334888003
 20
307.3850214839022
 30
0.0
 10
323.4765893209433
 20
300.0085583515145
 30
0.0
 10
326.3916432377748
 20
292.9104113665852
 30
0.0
 10
330.0994895061717
 20
286.1943248689518
 30
0.0
 10
334.5295172673659
 20
279.931932963617
 30
0.0
 10
339.3636118467992
 20
274.4961124120088
 30
0.0
 10
344.4444046091683
 20
269.8744969422446
 30
0.0
 10
349.618415352677
 20
265.9888525542593
 30
0.0
 10
355.4752880967834
 20
262.3962016886293
 30
0.0
 10
362.0479413822011
 20
259.2675719718908
 30
0.0
 10
369.3040230528679
 20
256.7531890137288
 30
0.0
 10
376.1282325637536
 20
255.224057643275
 30
0.0
 10
382.376151746982
 20
254.4238102702487
 30
0.0
 10
386.1142388403122
 20
254.3342658504815
 30
0.0
 10
387.9832824095219
 20
254.2894936400579
 30
0.0
  0
LINE
  5
29F
330
1F
100
AcDbEntity
  8
0
  6
Continuous
 62
     7
370
    25
100
AcDbLine
 10
387.9832824095
 20
254.2894936401
 30
0.0
 11
387.9832824095
 21
253.634266839
 31
0.0
  0
LWPOLYLINE
  5
2A0
330
1F
100
AcDbEntity
  8
0
  6
Continuous
 62
     7
370
    25
100
AcDbPolyline
 90
        9
 70
   128
 43
0.0
 10
319.1998300049
 20
322.1860520057
 10
319.2736481139
 20
322.1862373559
 10
319.3496278148
 20
322.1864291588
 10
319.4276178982
 20
322.1866270327
 10
319.5074631536
 20
322.1868305837
 10
319.5890046786
 20
322.1870394067
 10
319.6720801948
 20
322.1872530863
 10
319.7565243713
 20
322.187471197
 10
319.8421691531
 20
322.187693305
  0
SPLINE
  5
2A1
330
1F
100
AcDbEntity
  8
0
  6
Continuous
 62
     7
370
    25
100
AcDbSpline
210
0.0
220
0.0
230
1.0
 70
     8
 71
     3
 72
    22
 73
    18
 74
     0
 42
0.000000001
 43
0.00000001
 40
0.0
 40
0.0
 40
0.0
 40
0.0
 40
0.0677482131348126
 40
0.1393883166436412
 40
0.211257678669546
 40
0.2828981904365528
 40
0.3545356910600286
 40
0.4264018889072809
 40
0.4980397015634222
 40
0.5585201376813773
 40
0.6191374949787393
 40
0.6796180418574719
 40
0.7513281185819005
 40
0.8232669710902788
 40
0.8949771395072688
 40
0.9474885691202345
 40
0.9999999999999999
 40
0.9999999999999999
 40
0.9999999999999999
 40
0.9999999999999999
 10
456.1243956659151
 20
322.1876933049503
 30
0.0
 10
456.0440083601109
 20
319.7760308626802
 30
0.0
 10
455.8786157878632
 20
314.8141646733563
 30
0.0
 10
454.5835313302434
 20
307.3850214839022
 30
0.0
 10
452.4899754981004
 20
300.0085583515145
 30
0.0
 10
449.574921581269
 20
292.9104113665852
 30
0.0
 10
445.8670753128721
 20
286.1943248689517
 30
0.0
 10
441.4370475516779
 20
279.931932963617
 30
0.0
 10
436.6029529722446
 20
274.4961124120088
 30
0.0
 10
431.5221602098754
 20
269.8744969422446
 30
0.0
 10
426.3481494663669
 20
265.9888525542592
 30
0.0
 10
420.4912767222604
 20
262.3962016886293
 30
0.0
 10
413.9186234368426
 20
259.267571971891
 30
0.0
 10
406.6625417661757
 20
256.7531890137289
 30
0.0
 10
399.8383322552902
 20
255.224057643275
 30
0.0
 10
393.5904130720617
 20
254.4238102702487
 30
0.0
 10
389.8523259787316
 20
254.3342658504816
 30
0.0
 10
387.9832824095219
 20
254.2894936400579
 30
0.0
  0
LWPOLYLINE
  5
2A2
330
1F
100
AcDbEntity
  8
0
  6
Continuous
 62
     7
370
    25
100
AcDbPolyline
 90
        9
 70
   128
 43
0.0
 10
456.7667348142
 20
322.1860520057
 10
456.6929167052
 20
322.1862373559
 10
456.6169370042
 20
322.1864291588
 10
456.5389469208
 20
322.1866270327
 10
456.4591016654
 20
322.1868305837
 10
456.3775601405
 20
322.1870394067
 10
456.2944846242
 20
322.1872530863
 10
456.2100404477
 20
322.187471197
 10
456.1243956659
 20
322.187693305
  0
LINE
  5
2A3
330
1F
100
AcDbEntity
  8
0
  6
Continuous
 62
     7
370
    25
100
AcDbLine
 10
455.9541340333
 20
322.4012358883
 30
0.0
 11
456.1243956659
 21
322.187693305
 31
0.0
  0
LINE
  5
2A4
330
1F
100
AcDbEntity
  8
0
  6
Continuous
 62
     7
370
    25
100
AcDbLine
 10
320.0124307858
 20
322.4012358883
 30
0.0
 11
319.8421691531
 21
322.187693305
 31
0.0
  0
SPLINE
  5
2A5
330
1F
100
AcDbEntity
  8
0
  6
Continuous
 62
     7
370
    25
100
AcDbSpline
210
0.0
220
0.0
230
1.0
 70
     8
 71
     3
 72
    10
 73
     6
 74
     0
 42
0.000000001
 43
0.00000001
 40
0.0
 40
0.0
 40
0.0
 40
0.0
 40
0.0014355500035962
 40
0.4468030126630211
 40
1.0
 40
1.0
 40
1.0
 40
1.0
 10
321.0246619995779
 20
325.2347844595427
 30
0.0
 10
321.0246001944171
 20
325.2333232991235
 30
0.0
 10
321.0053638515824
 20
324.7785492573701
 30
0.0
 10
320.8401178929088
 20
323.7481627922879
 30
0.0
 10
320.3074980577808
 20
322.8814101518985
 30
0.0
 10
320.0124307857687
 20
322.4012358883028
 30
0.0
  0
ARC
  5
2A6
330
1F
100
AcDbEntity
  8
0
  6
Continuous
 62
     7
370
    25
100
AcDbCircle
 10
387.9832824095
 20
322.422851319
 30
0.0
 40
67.01763809020704
100
AcDbArc
 50
2.4047283038
 51
177.5952716962
  0
SPLINE
  5
2A7
330
1F
100
AcDbEntity
  8
0
  6
Continuous
 62
     7
370
    25
100
AcDbSpline
210
0.0
220
0.0
230
1.0
 70
     8
 71
     3
 72
    10
 73
     6
 74
     0
 42
0.000000001
 43
0.00000001
 40
0.0
 40
0.0
 40
0.0
 40
0.0
 40
0.0014355500035962
 40
0.4468030126630211
 40
1.0
 40
1.0
 40
1.0
 40
1.0
 10
454.9419028194659
 20
325.2347844595427
 30
0.0
 10
454.9419646246267
 20
325.2333232991235
 30
0.0
 10
454.9612009674609
 20
324.7785492573701
 30
0.0
 10
455.1264469261353
 20
323.7481627922879
 30
0.0
 10
455.659066761263
 20
322.8814101518985
 30
0.0
 10
455.9541340332751
 20
322.4012358883028
 30
0.0
  0
CIRCLE
  5
2A8
330
1F
100
AcDbEntity
  8
0
  6
Continuous
 62
     7
370
    25
100
AcDbCircle
 10
387.9832824095
 20
322.422851319
 30
0.0
 40
59.41177143234626
  0
LWPOLYLINE
  5
2A9
330
1F
100
AcDbEntity
  8
0
  6
Continuous
 62
     7
370
    25
100
AcDbPolyline
 90
        9
 70
   128
 43
0.0
 10
319.1998300049
 20
322.1860520057
 10
319.0559932321
 20
322.385669669
 10
318.9370132923
 20
322.5815470189
 10
318.8451585086
 20
322.769949702
 10
318.7821800696
 20
322.9472858678
 10
318.7492786437
 20
323.1101746461
 10
318.7470814885
 20
323.2555106028
 10
318.7756304923
 20
323.3805229437
 10
318.8343813752
 20
323.4828283394
  0
LWPOLYLINE
  5
2AA
330
1F
100
AcDbEntity
  8
0
  6
Continuous
 62
     7
370
    25
100
AcDbPolyline
 90
        9
 70
   128
 43
0.0
 10
456.7667348142
 20
322.1860520057
 10
456.9105715869
 20
322.385669669
 10
457.0295515267
 20
322.5815470189
 10
457.1214063105
 20
322.769949702
 10
457.1843847495
 20
322.9472858678
 10
457.2172861753
 20
323.1101746461
 10
457.2194833305
 20
323.2555106028
 10
457.1909343268
 20
323.3805229437
 10
457.1321834438
 20
323.4828283394
  0
LWPOLYLINE
  5
2AB
330
1F
100
AcDbEntity
  8
0
  6
Continuous
 62
     7
370
    25
100
AcDbPolyline
 90
        9
 70
   128
 43
0.0
 10
319.5436053175
 20
325.2969771931
 10
319.5702951289
 20
325.2958563538
 10
319.6496515891
 20
325.2925237774
 10
319.7795548223
 20
325.287068488
 10
319.9565346799
 20
325.2796362147
 10
320.1758634395
 20
325.2704254982
 10
320.4316820983
 20
325.2596823875
 10
320.7171568865
 20
325.2476938669
 10
321.0246619996
 20
325.2347844595
  0
ARC
  5
2AC
330
1F
100
AcDbEntity
  8
0
  6
Continuous
 62
     7
370
    25
100
AcDbCircle
 10
321.2840110901
 20
324.6162472254
 30
0.0
 40
2.554053972413841
100
AcDbArc
 50
203.202867777
 51
240.1409892454
  0
LWPOLYLINE
  5
2AD
330
1F
100
AcDbEntity
  8
0
  6
Continuous
 62
     7
370
    25
100
AcDbPolyline
 90
        9
 70
   128
 43
0.0
 10
456.4229595015
 20
325.2969771931
 10
456.3962696902
 20
325.2958563538
 10
456.31691323
 20
325.2925237774
 10
456.1870099967
 20
325.287068488
 10
456.0100301391
 20
325.2796362147
 10
455.7907013795
 20
325.2704254982
 10
455.5348827207
 20
325.2596823875
 10
455.2494079325
 20
325.2476938669
 10
454.9419028195
 20
325.2347844595
  0
ARC
  5
2AE
330
1F
100
AcDbEntity
  8
0
  6
Continuous
 62
     7
370
    25
100
AcDbCircle
 10
454.6825537289
 20
324.6162472254
 30
0.0
 40
2.554053972412951
100
AcDbArc
 50
299.8590107546
 51
336.797132223
  0
ARC
  5
2AF
330
1F
100
AcDbEntity
  8
0
  6
Continuous
 62
     7
370
    25
100
AcDbCircle
 10
454.7602708405
 20
324.2888285037
 30
0.0
 40
2.505115898086651
100
AcDbArc
 50
302.9929348768
 51
341.2317137487
  0
ARC
  5
2B0
330
1F
100
AcDbEntity
  8
0
  6
Continuous
 62
     7
370
    25
100
AcDbCircle
 10
321.2062939786
 20
324.2888285037
 30
0.0
 40
2.505115898085768
100
AcDbArc
 50
198.7682862513
 51
237.0070651232
  0
CIRCLE
  5
2B1
330
1F
100
AcDbEntity
  8
0
  6
Continuous
 62
     7
370
    25
100
AcDbCircle
 10
387.9832824095
 20
322.422851319
 30
0.0
 40
58.30000000000001
  0
CIRCLE
  5
2B2
330
1F
100
AcDbEntity
  8
0
  6
Continuous
 62
     7
370
    25
100
AcDbCircle
 10
387.9832824095
 20
322.422851319
 30
0.0
 40
58.11743114854949
  0
SPLINE
  5
2B3
330
1F
100
AcDbEntity
  8
0
  6
Continuous
 62
     8
370
    25
100
AcDbSpline
210
0.0
220
0.0
230
1.0
 70
     8
 71
     3
 72
    12
 73
     8
 74
     0
 42
0.000000001
 43
0.00000001
 40
0.0
 40
0.0
 40
0.0
 40
0.0
 40
0.1098856459753366
 40
0.3184550720207364
 40
0.5270244980735312
 40
0.7255819797512054
 40
1.0
 40
1.0
 40
1.0
 40
1.0
 10
373.9881345879246
 20
357.4653717609918
 30
0.0
 10
373.986699252347
 20
357.468965704897
 30
0.0
 10
373.9825395653313
 20
357.4793811659427
 30
0.0
 10
374.0313171519426
 20
357.3572467237962
 30
0.0
 10
374.126268828715
 20
357.1194967455089
 30
0.0
 10
374.2733299648954
 20
356.7512696377232
 30
0.0
 10
374.3976974809343
 20
356.4398651788059
 30
0.0
 10
374.4698548916156
 20
356.259189869483
 30
0.0
  0
SPLINE
  5
2B4
330
1F
100
AcDbEntity
  8
0
  6
Continuous
 62
     8
370
    25
100
AcDbSpline
210
0.0
220
0.0
230
1.0
 70
     8
 71
     3
 72
    12
 73
     8
 74
     0
 42
0.000000001
 43
0.00000001
 40
0.0
 40
0.0
 40
0.0
 40
0.0
 40
0.274418027787976
 40
0.4729755149206916
 40
0.6815449467036109
 40
0.8901143784790833
 40
0.9999999999999999
 40
0.9999999999999999
 40
0.9999999999999999
 40
0.9999999999999999
 10
401.4967099174499
 20
288.5865127644916
 30
0.0
 10
401.5688673324663
 20
288.4058374569348
 30
0.0
 10
401.6932348559772
 20
288.0944330010615
 30
0.0
 10
401.8402959899656
 20
287.7262058920407
 30
0.0
 10
401.9352476668616
 20
287.4884559151299
 30
0.0
 10
401.9840252522463
 20
287.3663214756447
 30
0.0
 10
401.979865566202
 20
287.3767369342906
 30
0.0
 10
401.9784302311945
 20
287.3803308767792
 30
0.0
  0
LINE
  5
2B5
330
1F
100
AcDbEntity
  8
0
  6
Continuous
 62
     8
370
    25
100
AcDbLine
 10
566.9480160083
 20
483.2024193265
 30
0.0
 11
566.9480160083
 21
485.3252396414
 31
0.0
  0
LINE
  5
2B6
330
1F
100
AcDbEntity
  8
0
  6
Continuous
 62
     8
370
    25
100
AcDbLine
 10
566.9480160083
 20
499.0114541979
 30
0.0
 11
566.9480160083
 21
501.1342745128
 31
0.0
  0
LINE
  5
2B7
330
1F
100
AcDbEntity
  8
0
  6
Continuous
 62
     8
370
    25
100
AcDbLine
 10
522.0166177365
 20
501.1342745128
 30
0.0
 11
522.0166177365
 21
499.0114541979
 31
0.0
  0
LINE
  5
2B8
330
1F
100
AcDbEntity
  8
0
  6
Continuous
 62
     8
370
    25
100
AcDbLine
 10
522.0166177365
 20
485.3252396414
 30
0.0
 11
522.0166177365
 21
483.2024193265
 31
0.0
  0
LINE
  5
2B9
330
1F
100
AcDbEntity
  8
0
  6
Continuous
 62
     8
370
    25
100
AcDbLine
 10
566.9209195123
 20
501.1071780168
 30
0.0
 11
566.9209195123
 21
499.0967907323
 31
0.0
  0
LINE
  5
2BA
330
1F
100
AcDbEntity
  8
0
  6
Continuous
 62
     8
370
    25
100
AcDbLine
 10
566.9209195123
 20
485.239903107
 30
0.0
 11
566.9209195123
 21
483.2295158225
 31
0.0
  0
LINE
  5
2BB
330
1F
100
AcDbEntity
  8
0
  6
Continuous
 62
     8
370
    25
100
AcDbLine
 10
522.0437142325
 20
483.2295158225
 30
0.0
 11
522.0437142325
 21
485.239903107
 31
0.0
  0
LINE
  5
2BC
330
1F
100
AcDbEntity
  8
0
  6
Continuous
 62
     8
370
    25
100
AcDbLine
 10
522.0437142325
 20
499.0967907323
 30
0.0
 11
522.0437142325
 21
501.1071780168
 31
0.0
  0
ENDSEC
  0
SECTION
  2
OBJECTS
  0
DICTIONARY
  5
C
330
0
100
AcDbDictionary
281
     1
  3
ACAD_GROUP
350
D
  3
ACAD_LAYOUT
350
1A
  3
ACAD_MLINESTYLE
350
17
  3
ACAD_PLOTSETTINGS
350
19
  3
ACAD_PLOTSTYLENAME
350
E
  3
ACAD_SCALELIST
350
47
  0
DICTIONARY
  5
D
102
{ACAD_REACTORS
330
C
102
}
330
C
100
AcDbDictionary
281
     1
  0
DICTIONARY
  5
1A
102
{ACAD_REACTORS
330
C
102
}
330
C
100
AcDbDictionary
281
     1
  3
Layout1
350
1E
  3
Layout2
350
26
  3
Model
350
22
  0
DICTIONARY
  5
17
102
{ACAD_REACTORS
330
C
102
}
330
C
100
AcDbDictionary
281
     1
  3
Standard
350
18
  0
DICTIONARY
  5
19
102
{ACAD_REACTORS
330
C
102
}
330
C
100
AcDbDictionary
281
     1
  0
ACDBDICTIONARYWDFLT
  5
E
102
{ACAD_REACTORS
330
C
102
}
330
C
100
AcDbDictionary
281
     1
  3
Normal
350
F
100
AcDbDictionaryWithDefault
340
F
  0
DICTIONARY
  5
47
102
{ACAD_REACTORS
330
C
102
}
330
C
100
AcDbDictionary
281
     1
  3
A0
350
48
  3
A1
350
49
  3
A2
350
4A
  3
A3
350
4B
  3
A4
350
4C
  3
A5
350
4D
  3
A6
350
4E
  3
A7
350
4F
  3
A8
350
50
  3
A9
350
51
  3
B0
350
52
  3
B1
350
53
  3
B2
350
54
  3
B3
350
55
  3
B4
350
56
  3
B5
350
57
  3
B6
350
58
  3
B7
350
59
  3
B8
350
5A
  3
B9
350
5B
  3
C0
350
5C
  3
C1
350
5D
  3
C2
350
5E
  3
C3
350
5F
  3
C4
350
60
  3
C5
350
61
  3
C6
350
62
  3
C7
350
63
  3
C8
350
64
  3
C9
350
65
  3
D0
350
66
  3
D1
350
67
  3
D2
350
68
  0
LAYOUT
  5
1E
102
{ACAD_REACTORS
330
1A
102
}
330
1A
100
AcDbPlotSettings
  1

  2
none_device
  4

  6

 40
0.0
 41
0.0
 42
0.0
 43
0.0
 44
0.0
 45
0.0
 46
0.0
 47
0.0
 48
0.0
 49
0.0
140
0.0
141
0.0
142
1.0
143
1.0
 70
   688
 72
     1
 73
     0
 74
     5
  7

 75
    16
147
1.0
148
0.0
149
0.0
100
AcDbLayout
  1
Layout1
 70
     1
 71
     1
 10
0.0
 20
0.0
 11
420.0
 21
297.0
 12
0.0
 22
0.0
 32
0.0
 14
1.0000000000E+20
 24
1.0000000000E+20
 34
1.0000000000E+20
 15
-1.0000000000E+20
 25
-1.0000000000E+20
 35
-1.0000000000E+20
146
0.0
 13
0.0
 23
0.0
 33
0.0
 16
1.0
 26
0.0
 36
0.0
 17
0.0
 27
1.0
 37
0.0
 76
     0
330
1B
  0
LAYOUT
  5
26
102
{ACAD_REACTORS
330
1A
102
}
330
1A
100
AcDbPlotSettings
  1

  2
none_device
  4

  6

 40
0.0
 41
0.0
 42
0.0
 43
0.0
 44
0.0
 45
0.0
 46
0.0
 47
0.0
 48
0.0
 49
0.0
140
0.0
141
0.0
142
1.0
143
1.0
 70
   688
 72
     1
 73
     0
 74
     5
  7

 75
    16
147
1.0
148
0.0
149
0.0
100
AcDbLayout
  1
Layout2
 70
     1
 71
     2
 10
0.0
 20
0.0
 11
0.0
 21
0.0
 12
0.0
 22
0.0
 32
0.0
 14
0.0
 24
0.0
 34
0.0
 15
0.0
 25
0.0
 35
0.0
146
0.0
 13
0.0
 23
0.0
 33
0.0
 16
1.0
 26
0.0
 36
0.0
 17
0.0
 27
1.0
 37
0.0
 76
     0
330
23
  0
LAYOUT
  5
22
102
{ACAD_REACTORS
330
1A
102
}
330
1A
100
AcDbPlotSettings
  1

  2
none_device
  4
Letter_(8.50_x_11.00_Inches)
  6

 40
6.35
 41
6.35
 42
6.35000508
 43
6.35000508
 44
215.9
 45
279.4
 46
0.0
 47
0.0
 48
0.0
 49
0.0
140
0.0
141
0.0
142
1.0
143
1.0
 70
  1712
 72
     1
 73
     0
 74
     0
  7

 75
     0
147
1.0
148
0.0
149
0.0
100
AcDbLayout
  1
Model
 70
     1
 71
     0
 10
0.0
 20
0.0
 11
800.0
 21
600.0
 12
0.0
 22
0.0
 32
0.0
 14
0.0
 24
0.0
 34
0.0
 15
800.0
 25
600.0
 35
0.0
146
0.0
 13
0.0
 23
0.0
 33
0.0
 16
1.0
 26
0.0
 36
0.0
 17
0.0
 27
1.0
 37
0.0
 76
     0
330
1F
331
29
  0
MLINESTYLE
  5
18
102
{ACAD_REACTORS
330
17
102
}
330
17
100
AcDbMlineStyle
  2
Standard
 70
     0
  3

 62
   256
 51
90.0
 52
90.0
 71
     2
 49
0.5
 62
   256
  6
BYLAYER
 49
-0.5
 62
   256
  6
BYLAYER
  0
ACDBPLACEHOLDER
  5
F
102
{ACAD_REACTORS
330
E
102
}
330
E
  0
SCALE
  5
48
102
{ACAD_REACTORS
330
47
102
}
330
47
100
AcDbScale
 70
     0
300
1:1
140
1.0
141
1.0
290
     1
  0
SCALE
  5
49
102
{ACAD_REACTORS
330
47
102
}
330
47
100
AcDbScale
 70
     0
300
1:2
140
1.0
141
2.0
290
     0
  0
SCALE
  5
4A
102
{ACAD_REACTORS
330
47
102
}
330
47
100
AcDbScale
 70
     0
300
1:4
140
1.0
141
4.0
290
     0
  0
SCALE
  5
4B
102
{ACAD_REACTORS
330
47
102
}
330
47
100
AcDbScale
 70
     0
300
1:5
140
1.0
141
5.0
290
     0
  0
SCALE
  5
4C
102
{ACAD_REACTORS
330
47
102
}
330
47
100
AcDbScale
 70
     0
300
1:8
140
1.0
141
8.0
290
     0
  0
SCALE
  5
4D
102
{ACAD_REACTORS
330
47
102
}
330
47
100
AcDbScale
 70
     0
300
1:10
140
1.0
141
10.0
290
     0
  0
SCALE
  5
4E
102
{ACAD_REACTORS
330
47
102
}
330
47
100
AcDbScale
 70
     0
300
1:16
140
1.0
141
16.0
290
     0
  0
SCALE
  5
4F
102
{ACAD_REACTORS
330
47
102
}
330
47
100
AcDbScale
 70
     0
300
1:20
140
1.0
141
20.0
290
     0
  0
SCALE
  5
50
102
{ACAD_REACTORS
330
47
102
}
330
47
100
AcDbScale
 70
     0
300
1:30
140
1.0
141
30.0
290
     0
  0
SCALE
  5
51
102
{ACAD_REACTORS
330
47
102
}
330
47
100
AcDbScale
 70
     0
300
1:40
140
1.0
141
40.0
290
     0
  0
SCALE
  5
52
102
{ACAD_REACTORS
330
47
102
}
330
47
100
AcDbScale
 70
     0
300
1:50
140
1.0
141
50.0
290
     0
  0
SCALE
  5
53
102
{ACAD_REACTORS
330
47
102
}
330
47
100
AcDbScale
 70
     0
300
1:100
140
1.0
141
100.0
290
     0
  0
SCALE
  5
54
102
{ACAD_REACTORS
330
47
102
}
330
47
100
AcDbScale
 70
     0
300
2:1
140
2.0
141
1.0
290
     0
  0
SCALE
  5
55
102
{ACAD_REACTORS
330
47
102
}
330
47
100
AcDbScale
 70
     0
300
4:1
140
4.0
141
1.0
290
     0
  0
SCALE
  5
56
102
{ACAD_REACTORS
330
47
102
}
330
47
100
AcDbScale
 70
     0
300
8:1
140
8.0
141
1.0
290
     0
  0
SCALE
  5
57
102
{ACAD_REACTORS
330
47
102
}
330
47
100
AcDbScale
 70
     0
300
10:1
140
10.0
141
1.0
290
     0
  0
SCALE
  5
58
102
{ACAD_REACTORS
330
47
102
}
330
47
100
AcDbScale
 70
     0
300
100:1
140
100.0
141
1.0
290
     0
  0
SCALE
  5
59
102
{ACAD_REACTORS
330
47
102
}
330
47
100
AcDbScale
 70
     0
300
1/128" = 1'-0"
140
0.0078125
141
12.0
290
     0
  0
SCALE
  5
5A
102
{ACAD_REACTORS
330
47
102
}
330
47
100
AcDbScale
 70
     0
300
1/64" = 1'-0"
140
0.015625
141
12.0
290
     0
  0
SCALE
  5
5B
102
{ACAD_REACTORS
330
47
102
}
330
47
100
AcDbScale
 70
     0
300
1/32" = 1'-0"
140
0.03125
141
12.0
290
     0
  0
SCALE
  5
5C
102
{ACAD_REACTORS
330
47
102
}
330
47
100
AcDbScale
 70
     0
300
1/16" = 1'-0"
140
0.0625
141
12.0
290
     0
  0
SCALE
  5
5D
102
{ACAD_REACTORS
330
47
102
}
330
47
100
AcDbScale
 70
     0
300
3/32" = 1'-0"
140
0.09375
141
12.0
290
     0
  0
SCALE
  5
5E
102
{ACAD_REACTORS
330
47
102
}
330
47
100
AcDbScale
 70
     0
300
1/8" = 1'-0"
140
0.125
141
12.0
290
     0
  0
SCALE
  5
5F
102
{ACAD_REACTORS
330
47
102
}
330
47
100
AcDbScale
 70
     0
300
3/16" = 1'-0"
140
0.1875
141
12.0
290
     0
  0
SCALE
  5
60
102
{ACAD_REACTORS
330
47
102
}
330
47
100
AcDbScale
 70
     0
300
1/4" = 1'-0"
140
0.25
141
12.0
290
     0
  0
SCALE
  5
61
102
{ACAD_REACTORS
330
47
102
}
330
47
100
AcDbScale
 70
     0
300
3/8" = 1'-0"
140
0.375
141
12.0
290
     0
  0
SCALE
  5
62
102
{ACAD_REACTORS
330
47
102
}
330
47
100
AcDbScale
 70
     0
300
1/2" = 1'-0"
140
0.5
141
12.0
290
     0
  0
SCALE
  5
63
102
{ACAD_REACTORS
330
47
102
}
330
47
100
AcDbScale
 70
     0
300
3/4" = 1'-0"
140
0.75
141
12.0
290
     0
  0
SCALE
  5
64
102
{ACAD_REACTORS
330
47
102
}
330
47
100
AcDbScale
 70
     0
300
1" = 1'-0"
140
1.0
141
12.0
290
     0
  0
SCALE
  5
65
102
{ACAD_REACTORS
330
47
102
}
330
47
100
AcDbScale
 70
     0
300
1-1/2" = 1'-0"
140
1.5
141
12.0
290
     0
  0
SCALE
  5
66
102
{ACAD_REACTORS
330
47
102
}
330
47
100
AcDbScale
 70
     0
300
3" = 1'-0"
140
3.0
141
12.0
290
     0
  0
SCALE
  5
67
102
{ACAD_REACTORS
330
47
102
}
330
47
100
AcDbScale
 70
     0
300
6" = 1'-0"
140
6.0
141
12.0
290
     0
  0
SCALE
  5
68
102
{ACAD_REACTORS
330
47
102
}
330
47
100
AcDbScale
 70
     0
300
1'-0" = 1'-0"
140
12.0
141
12.0
290
     0
  0
ENDSEC
  0
EOF
