  0
SECTION
  2
HEADER
  9
$ACADVER
  1
AC1015
  9
$ACADMAINTVER
 70
     6
  9
$DWGCODEPAGE
  3
ANSI_1252
  9
$INSBASE
 10
0.0
 20
0.0
 30
0.0
  9
$EXTMIN
 10
0.0
 20
0.0
 30
0.0
  9
$EXTMAX
 10
420.0
 20
600.0
 30
0.0
  9
$LIMMIN
 10
0.0
 20
0.0
  9
$LIMMAX
 10
420.0
 20
600.0
  9
$ORTHOMODE
 70
     0
  9
$REGENMODE
 70
     1
  9
$FILLMODE
 70
     1
  9
$QTEXTMODE
 70
     0
  9
$MIRRTEXT
 70
     1
  9
$LTSCALE
 40
1.0
  9
$ATTMODE
 70
     1
  9
$TEXTSIZE
 40
5.0
  9
$TRACEWID
 40
1.0
  9
$TEXTSTYLE
  7
Standard
  9
$CLAYER
  8
0
  9
$CELTYPE
  6
ByLayer
  9
$CECOLOR
 62
   256
  9
$CELTSCALE
 40
1.0
  9
$DISPSILH
 70
     0
  9
$DIMSCALE
 40
1.0
  9
$DIMASZ
 40
6.0
  9
$DIMEXO
 40
1.0
  9
$DIMDLI
 40
3.75
  9
$DIMRND
 40
0.0
  9
$DIMDLE
 40
0.0
  9
$DIMEXE
 40
1.0
  9
$DIMTP
 40
0.0
  9
$DIMTM
 40
0.0
  9
$DIMTXT
 40
5.0
  9
$DIMCEN
 40
2.5
  9
$DIMTSZ
 40
0.0
  9
$DIMTOL
 70
     0
  9
$DIMLIM
 70
     0
  9
$DIMTIH
 70
     1
  9
$DIMTOH
 70
     1
  9
$DIMSE1
 70
     0
  9
$DIMSE2
 70
     0
  9
$DIMTAD
 70
     1
  9
$DIMZIN
 70
     0
  9
$DIMBLK
  1

  9
$DIMASO
 70
     1
  9
$DIMSHO
 70
     1
  9
$DIMPOST
  1

  9
$DIMAPOST
  1

  9
$DIMALT
 70
     0
  9
$DIMALTD
 70
     3
  9
$DIMALTF
 40
0.0393700787
  9
$DIMLFAC
 40
1.0
  9
$DIMTOFL
 70
     1
  9
$DIMTVP
 40
0.0
  9
$DIMTIX
 70
     0
  9
$DIMSOXD
 70
     0
  9
$DIMSAH
 70
     0
  9
$DIMBLK1
  1

  9
$DIMBLK2
  1

  9
$DIMSTYLE
  2
ISO-25
  9
$DIMCLRD
 70
     0
  9
$DIMCLRE
 70
     0
  9
$DIMCLRT
 70
     0
  9
$DIMTFAC
 40
1.0
  9
$DIMGAP
 40
1.524
  9
$DIMJUST
 70
     0
  9
$DIMSD1
 70
     0
  9
$DIMSD2
 70
     0
  9
$DIMTOLJ
 70
     0
  9
$DIMTZIN
 70
     0
  9
$DIMALTZ
 70
     0
  9
$DIMALTTZ
 70
     0
  9
$DIMUPT
 70
     0
  9
$DIMDEC
 70
     2
  9
$DIMTDEC
 70
     2
  9
$DIMALTU
 70
     2
  9
$DIMALTTD
 70
     3
  9
$DIMTXSTY
  7
Standard
  9
$DIMAUNIT
 70
     0
  9
$DIMADEC
 70
     2
  9
$DIMALTRND
 40
0.0
  9
$DIMAZIN
 70
     0
  9
$DIMDSEP
 70
    44
  9
$DIMATFIT
 70
     3
  9
$DIMFRAC
 70
     0
  9
$DIMLDRBLK
  1

  9
$DIMLUNIT
 70
     2
  9
$DIMLWD
 70
    -2
  9
$DIMLWE
 70
    -2
  9
$DIMTMOVE
 70
     0
  9
$LUNITS
 70
     2
  9
$LUPREC
 70
     2
  9
$SKETCHINC
 40
1.0
  9
$FILLETRAD
 40
10.0
  9
$AUNITS
 70
     0
  9
$AUPREC
 70
     2
  9
$MENU
  1
.
  9
$ELEVATION
 40
0.0
  9
$PELEVATION
 40
0.0
  9
$THICKNESS
 40
0.0
  9
$LIMCHECK
 70
     0
  9
$CHAMFERA
 40
0.0
  9
$CHAMFERB
 40
0.0
  9
$CHAMFERC
 40
0.0
  9
$CHAMFERD
 40
0.0
  9
$SKPOLY
 70
     0
  9
$TDCREATE
 40
2457827.587348854
  9
$TDUCREATE
 40
2457827.504015521
  9
$TDUPDATE
 40
2457827.587349028
  9
$TDUUPDATE
 40
2457827.504015694
  9
$TDINDWG
 40
0.0000000116
  9
$TDUSRTIMER
 40
0.0000000116
  9
$USRTIMER
 70
     1
  9
$ANGBASE
 50
0.0
  9
$ANGDIR
 70
     0
  9
$PDMODE
 70
     0
  9
$PDSIZE
 40
-1.0
  9
$PLINEWID
 40
0.0
  9
$SPLFRAME
 70
     0
  9
$SPLINETYPE
 70
     6
  9
$SPLINESEGS
 70
     8
  9
$HANDSEED
  5
C5
  9
$SURFTAB1
 70
     6
  9
$SURFTAB2
 70
     6
  9
$SURFTYPE
 70
     6
  9
$SURFU
 70
     6
  9
$SURFV
 70
     6
  9
$UCSBASE
  2

  9
$UCSNAME
  2

  9
$UCSORG
 10
0.0
 20
0.0
 30
0.0
  9
$UCSXDIR
 10
1.0
 20
0.0
 30
0.0
  9
$UCSYDIR
 10
0.0
 20
1.0
 30
0.0
  9
$UCSORTHOREF
  2

  9
$UCSORTHOVIEW
 70
     0
  9
$UCSORGTOP
 10
0.0
 20
0.0
 30
0.0
  9
$UCSORGBOTTOM
 10
0.0
 20
0.0
 30
0.0
  9
$UCSORGLEFT
 10
0.0
 20
0.0
 30
0.0
  9
$UCSORGRIGHT
 10
0.0
 20
0.0
 30
0.0
  9
$UCSORGFRONT
 10
0.0
 20
0.0
 30
0.0
  9
$UCSORGBACK
 10
0.0
 20
0.0
 30
0.0
  9
$PUCSBASE
  2

  9
$PUCSNAME
  2

  9
$PUCSORG
 10
0.0
 20
0.0
 30
0.0
  9
$PUCSXDIR
 10
1.0
 20
0.0
 30
0.0
  9
$PUCSYDIR
 10
0.0
 20
1.0
 30
0.0
  9
$PUCSORTHOREF
  2

  9
$PUCSORTHOVIEW
 70
     0
  9
$PUCSORGTOP
 10
0.0
 20
0.0
 30
0.0
  9
$PUCSORGBOTTOM
 10
0.0
 20
0.0
 30
0.0
  9
$PUCSORGLEFT
 10
0.0
 20
0.0
 30
0.0
  9
$PUCSORGRIGHT
 10
0.0
 20
0.0
 30
0.0
  9
$PUCSORGFRONT
 10
0.0
 20
0.0
 30
0.0
  9
$PUCSORGBACK
 10
0.0
 20
0.0
 30
0.0
  9
$USERI1
 70
     0
  9
$USERI2
 70
     0
  9
$USERI3
 70
     0
  9
$USERI4
 70
     0
  9
$USERI5
 70
     0
  9
$USERR1
 40
0.0
  9
$USERR2
 40
0.0
  9
$USERR3
 40
0.0
  9
$USERR4
 40
0.0
  9
$USERR5
 40
0.0
  9
$WORLDVIEW
 70
     1
  9
$SHADEDGE
 70
     3
  9
$SHADEDIF
 70
    70
  9
$TILEMODE
 70
     1
  9
$MAXACTVP
 70
    64
  9
$PINSBASE
 10
0.0
 20
0.0
 30
0.0
  9
$PLIMCHECK
 70
     0
  9
$PEXTMIN
 10
1.0000000000E+20
 20
1.0000000000E+20
 30
1.0000000000E+20
  9
$PEXTMAX
 10
-1.0000000000E+20
 20
-1.0000000000E+20
 30
-1.0000000000E+20
  9
$PLIMMIN
 10
0.0
 20
0.0
  9
$PLIMMAX
 10
420.0
 20
297.0
  9
$UNITMODE
 70
     0
  9
$VISRETAIN
 70
     1
  9
$PLINEGEN
 70
     0
  9
$PSLTSCALE
 70
     1
  9
$TREEDEPTH
 70
  3020
  9
$CMLSTYLE
  2
Standard
  9
$CMLJUST
 70
     0
  9
$CMLSCALE
 40
20.0
  9
$PROXYGRAPHICS
 70
     1
  9
$MEASUREMENT
 70
     1
  9
$CELWEIGHT
370
    -1
  9
$ENDCAPS
280
     0
  9
$JOINSTYLE
280
     0
  9
$LWDISPLAY
290
     1
  9
$INSUNITS
 70
     4
  9
$HYPERLINKBASE
  1

  9
$STYLESHEET
  1

  9
$XEDIT
290
     1
  9
$CEPSNTYPE
380
     0
  9
$PSTYLEMODE
290
     1
  9
$FINGERPRINTGUID
  2
{C3FF0221-C827-42BB-A2D9-E15FAC9E6735}
  9
$VERSIONGUID
  2
{FAEB1C32-E019-11D5-929B-00C0DF256EC4}
  9
$EXTNAMES
290
     1
  9
$PSVPSCALE
 40
0.0
  9
$OLESTARTUP
290
     0
  0
ENDSEC
  0
SECTION
  2
CLASSES
  0
CLASS
  1
ACDBDICTIONARYWDFLT
  2
AcDbDictionaryWithDefault
  3
ObjectDBX Classes
 90
        0
280
     0
281
     0
  0
CLASS
  1
VISUALSTYLE
  2
AcDbVisualStyle
  3
ObjectDBX Classes
 90
     4095
280
     0
281
     0
  0
CLASS
  1
MATERIAL
  2
AcDbMaterial
  3
ObjectDBX Classes
 90
     1153
280
     0
281
     0
  0
CLASS
  1
SCALE
  2
AcDbScale
  3
ObjectDBX Classes
 90
     1153
280
     0
281
     0
  0
CLASS
  1
TABLESTYLE
  2
AcDbTableStyle
  3
ObjectDBX Classes
 90
     4095
280
     0
281
     0
  0
CLASS
  1
MLEADERSTYLE
  2
AcDbMLeaderStyle
  3
ACDB_MLEADERSTYLE_CLASS
 90
     4095
280
     0
281
     0
  0
CLASS
  1
SUN
  2
AcDbSun
  3
SCENEOE
 90
     1153
280
     0
281
     0
  0
CLASS
  1
ACDBPLACEHOLDER
  2
AcDbPlaceHolder
  3
ObjectDBX Classes
 90
        0
280
     0
281
     0
  0
CLASS
  1
LAYOUT
  2
AcDbLayout
  3
ObjectDBX Classes
 90
        0
280
     0
281
     0
  0
ENDSEC
  0
SECTION
  2
TABLES
  0
TABLE
  2
VPORT
  5
8
330
0
100
AcDbSymbolTable
 70
     1
  0
VPORT
  5
29
330
8
100
AcDbSymbolTableRecord
100
AcDbViewportTableRecord
  2
*Active
 70
     0
 10
0.0
 20
0.0
 11
1.0
 21
1.0
 12
210.0
 22
300.0
 13
0.0
 23
0.0
 14
10.0
 24
10.0
 15
10.0
 25
10.0
 16
0.0
 26
0.0
 36
1.0
 17
0.0
 27
0.0
 37
0.0
 40
600.0
 41
0.7
 42
50.0
 43
0.0
 44
0.0
 50
0.0
 51
0.0
 71
     0
 72
  2000
 73
     1
 74
     3
 75
     0
 76
     0
 77
     0
 78
     0
281
     0
 65
     1
110
0.0
120
0.0
130
0.0
111
1.0
121
0.0
131
0.0
112
0.0
122
1.0
132
0.0
 79
     0
146
0.0
  0
ENDTAB
  0
TABLE
  2
LTYPE
  5
5
330
0
100
AcDbSymbolTable
 70
     6
  0
LTYPE
  5
14
330
5
100
AcDbSymbolTableRecord
100
AcDbLinetypeTableRecord
  2
ByBlock
 70
     0
  3

 72
    65
 73
     0
 40
0.0
  0
LTYPE
  5
15
330
5
100
AcDbSymbolTableRecord
100
AcDbLinetypeTableRecord
  2
ByLayer
 70
     0
  3

 72
    65
 73
     0
 40
0.0
  0
LTYPE
  5
16
330
5
100
AcDbSymbolTableRecord
100
AcDbLinetypeTableRecord
  2
Continuous
 70
     0
  3
Solid line
 72
    65
 73
     0
 40
0.0
  0
LTYPE
  5
6E
330
5
100
AcDbSymbolTableRecord
100
AcDbLinetypeTableRecord
  2
HIDDEN
 70
     0
  3
Hidden __ __ __ __ __ __ __ __ __ __ __ __ __ __
 72
    65
 73
     2
 40
1.905
 49
1.27
 74
     0
 49
-0.635
 74
     0
  0
LTYPE
  5
6F
330
5
100
AcDbSymbolTableRecord
100
AcDbLinetypeTableRecord
  2
PHANTOM
 70
     0
  3
Phantom ______  __  __  ______  __  __  ______
 72
    65
 73
     6
 40
12.7
 49
6.35
 74
     0
 49
-1.27
 74
     0
 49
1.27
 74
     0
 49
-1.27
 74
     0
 49
1.27
 74
     0
 49
-1.27
 74
     0
  0
LTYPE
  5
70
330
5
100
AcDbSymbolTableRecord
100
AcDbLinetypeTableRecord
  2
CENTER
 70
     0
  3
Center ____ _ ____ _ ____ _ ____ _ ____ _ ____
 72
    65
 73
     4
 40
10.16
 49
6.35
 74
     0
 49
-1.27
 74
     0
 49
1.27
 74
     0
 49
-1.27
 74
     0
  0
LTYPE
  5
71
330
5
100
AcDbSymbolTableRecord
100
AcDbLinetypeTableRecord
  2
CENTERX2
 70
     0
  3
Center (2x) ________  __  ________  __  _____
 72
    65
 73
     4
 40
20.32
 49
12.7
 74
     0
 49
-2.54
 74
     0
 49
2.54
 74
     0
 49
-2.54
 74
     0
  0
LTYPE
  5
72
330
5
100
AcDbSymbolTableRecord
100
AcDbLinetypeTableRecord
  2
DOT2
 70
     0
  3
Dot (.5x) ........................................
 72
    65
 73
     2
 40
0.635
 49
0.0
 74
     0
 49
-0.635
 74
     0
  0
ENDTAB
  0
TABLE
  2
LAYER
  5
2
330
0
100
AcDbSymbolTable
 70
     2
  0
LAYER
  5
10
330
2
100
AcDbSymbolTableRecord
100
AcDbLayerTableRecord
  2
0
 70
     0
 62
     7
  6
Continuous
370
    -3
390
F
  0
LAYER
  5
73
330
2
100
AcDbSymbolTableRecord
100
AcDbLayerTableRecord
  2
TABLE_BL1
 70
     0
 62
   179
  6
Continuous
370
    -3
390
F
  0
ENDTAB
  0
TABLE
  2
STYLE
  5
3
330
0
100
AcDbSymbolTable
 70
     1
  0
STYLE
  5
11
330
3
100
AcDbSymbolTableRecord
100
AcDbTextStyleTableRecord
  2
Standard
 70
     0
 40
0.0
 41
1.0
 50
0.0
 71
     0
 42
5.0
  3
txt
  4

  0
ENDTAB
  0
TABLE
  2
VIEW
  5
6
330
0
100
AcDbSymbolTable
 70
     0
  0
ENDTAB
  0
TABLE
  2
UCS
  5
7
330
0
100
AcDbSymbolTable
 70
     0
  0
ENDTAB
  0
TABLE
  2
APPID
  5
9
330
0
100
AcDbSymbolTable
 70
     1
  0
APPID
  5
12
330
9
100
AcDbSymbolTableRecord
100
AcDbRegAppTableRecord
  2
ACAD
 70
     0
  0
ENDTAB
  0
TABLE
  2
DIMSTYLE
  5
A
330
0
100
AcDbSymbolTable
 70
     1
100
AcDbDimStyleTable
  0
DIMSTYLE
105
27
330
A
100
AcDbSymbolTableRecord
100
AcDbDimStyleTableRecord
  2
ISO-25
 70
     0
 41
2.5
 42
0.625
 43
3.75
 44
1.25
 73
     0
 74
     0
 77
     1
 78
     8
140
2.5
141
2.5
143
0.0393700787
147
0.625
171
     3
172
     1
178
     0
271
     2
272
     2
274
     3
278
    44
283
     0
284
     8
340
11
  0
ENDTAB
  0
TABLE
  2
BLOCK_RECORD
  5
1
330
0
100
AcDbSymbolTable
 70
     1
  0
BLOCK_RECORD
  5
1F
330
1
100
AcDbSymbolTableRecord
100
AcDbBlockTableRecord
  2
*Model_Space
340
22
  0
BLOCK_RECORD
  5
1B
330
1
100
AcDbSymbolTableRecord
100
AcDbBlockTableRecord
  2
*Paper_Space
340
1E
  0
BLOCK_RECORD
  5
23
330
1
100
AcDbSymbolTableRecord
100
AcDbBlockTableRecord
  2
*Paper_Space0
340
26
  0
ENDTAB
  0
ENDSEC
  0
SECTION
  2
BLOCKS
  0
BLOCK
  5
20
330
1F
100
AcDbEntity
  8
0
100
AcDbBlockBegin
  2
*Model_Space
 70
     0
 10
0.0
 20
0.0
 30
0.0
  3
*Model_Space
  1

  0
ENDBLK
  5
21
330
1F
100
AcDbEntity
  8
0
100
AcDbBlockEnd
  0
BLOCK
  5
1C
330
1B
100
AcDbEntity
 67
     1
  8
0
100
AcDbBlockBegin
  2
*Paper_Space
 70
     0
 10
0.0
 20
0.0
 30
0.0
  3
*Paper_Space
  1

  0
ENDBLK
  5
1D
330
1B
100
AcDbEntity
 67
     1
  8
0
100
AcDbBlockEnd
  0
BLOCK
  5
24
330
23
100
AcDbEntity
  8
0
100
AcDbBlockBegin
  2
*Paper_Space0
 70
     0
 10
0.0
 20
0.0
 30
0.0
  3
*Paper_Space0
  1

  0
ENDBLK
  5
25
330
23
100
AcDbEntity
  8
0
100
AcDbBlockEnd
  0
ENDSEC
  0
SECTION
  2
ENTITIES
  0
LINE
  5
74
330
1F
100
AcDbEntity
  8
0
  6
Continuous
 62
     7
370
    15
100
AcDbLine
 10
113.9282579837
 20
496.3122307443
 30
0.0
 11
112.3282579837
 21
496.3122306758
 31
0.0
  0
LINE
  5
75
330
1F
100
AcDbEntity
  8
0
  6
Continuous
 62
     7
370
    15
100
AcDbLine
 10
113.9282579837
 20
120.3122308128
 30
0.0
 11
113.9282579837
 21
496.3122307443
 31
0.0
  0
LINE
  5
76
330
1F
100
AcDbEntity
  8
0
  6
Continuous
 62
     7
370
    15
100
AcDbLine
 10
113.9282579837
 20
120.3122308128
 30
0.0
 11
112.3282579837
 21
120.3122308128
 31
0.0
  0
LINE
  5
77
330
1F
100
AcDbEntity
  8
0
  6
Continuous
 62
     7
370
    15
100
AcDbLine
 10
112.3282579837
 20
496.3122308128
 30
0.0
 11
112.3282579837
 21
120.3122308128
 31
0.0
  0
SPLINE
  5
78
330
1F
100
AcDbEntity
  8
0
  6
Continuous
 62
     7
370
    15
100
AcDbSpline
210
0.0
220
0.0
230
1.0
 70
     8
 71
     3
 72
    15
 73
    11
 74
     0
 42
0.000000001
 43
0.00000001
 40
0.0
 40
0.0
 40
0.0
 40
0.0
 40
0.1165160324218045
 40
0.2400113297291952
 40
0.3686408137627734
 40
0.4999999999999997
 40
0.6313591862372246
 40
0.7599886702708055
 40
0.8834839675781962
 40
1.0
 40
1.0
 40
1.0
 40
1.0
 10
345.5282579836579
 20
496.3122308128404
 30
0.0
 10
345.4841361405536
 20
497.1417192365975
 30
0.0
 10
345.3932495731563
 20
498.8503821170858
 30
0.0
 10
344.6365921889868
 20
501.385042404496
 30
0.0
 10
343.3819130428216
 20
503.8225537749111
 30
0.0
 10
341.6129487501116
 20
505.9969215792941
 30
0.0
 10
339.4385809457285
 20
507.765885872004
 30
0.0
 10
337.0010695753135
 20
509.0205650181693
 30
0.0
 10
334.4664092879033
 20
509.7772224023387
 30
0.0
 10
332.757746407415
 20
509.8681089697361
 30
0.0
 10
331.9282579836579
 20
509.9122308128403
 30
0.0
  0
LINE
  5
79
330
1F
100
AcDbEntity
  8
0
  6
Continuous
 62
     7
370
    15
100
AcDbLine
 10
331.9282579837
 20
509.9122308128
 30
0.0
 11
125.9282579837
 21
509.9122308128
 31
0.0
  0
SPLINE
  5
7A
330
1F
100
AcDbEntity
  8
0
  6
Continuous
 62
     7
370
    15
100
AcDbSpline
210
0.0
220
0.0
230
1.0
 70
     8
 71
     3
 72
    15
 73
    11
 74
     0
 42
0.000000001
 43
0.00000001
 40
0.0
 40
0.0
 40
0.0
 40
0.0
 40
0.1165160324218037
 40
0.2400113297291942
 40
0.3686408137627744
 40
0.5000000000000001
 40
0.6313591862372243
 40
0.7599886702708049
 40
0.8834839675781955
 40
1.0
 40
1.0
 40
1.0
 40
1.0
 10
125.9282579836579
 20
509.9122308128403
 30
0.0
 10
125.0987695599008
 20
509.868108969736
 30
0.0
 10
123.3901066794125
 20
509.7772224023387
 30
0.0
 10
120.8554463920023
 20
509.0205650181692
 30
0.0
 10
118.4179350215873
 20
507.765885872004
 30
0.0
 10
116.2435672172042
 20
505.996921579294
 30
0.0
 10
114.4746029244941
 20
503.8225537749111
 30
0.0
 10
113.2199237783291
 20
501.3850424044959
 30
0.0
 10
112.4632663941595
 20
498.8503821170858
 30
0.0
 10
112.3723798267622
 20
497.1417192365975
 30
0.0
 10
112.3282579836579
 20
496.3122308128404
 30
0.0
  0
SPLINE
  5
7B
330
1F
100
AcDbEntity
  8
0
  6
Continuous
 62
     7
370
    15
100
AcDbSpline
210
0.0
220
0.0
230
1.0
 70
     8
 71
     3
 72
    15
 73
    11
 74
     0
 42
0.000000001
 43
0.00000001
 40
0.0
 40
0.0
 40
0.0
 40
0.0
 40
0.1165160324218046
 40
0.2400113297291918
 40
0.3686408137627734
 40
0.4999999999999998
 40
0.6313591862372248
 40
0.7599886702708063
 40
0.8834839675781961
 40
0.9999999999999999
 40
0.9999999999999999
 40
0.9999999999999999
 40
0.9999999999999999
 10
112.3282579836579
 20
120.3122308128404
 30
0.0
 10
112.3723798267623
 20
119.4827423890833
 30
0.0
 10
112.4632663941596
 20
117.7740795085951
 30
0.0
 10
113.2199237783291
 20
115.2394192211848
 30
0.0
 10
114.4746029244942
 20
112.8019078507698
 30
0.0
 10
116.2435672172042
 20
110.6275400463867
 30
0.0
 10
118.4179350215873
 20
108.8585757536767
 30
0.0
 10
120.8554463920024
 20
107.6038966075116
 30
0.0
 10
123.3901066794126
 20
106.847239223342
 30
0.0
 10
125.0987695599008
 20
106.7563526559447
 30
0.0
 10
125.9282579836579
 20
106.7122308128404
 30
0.0
  0
LINE
  5
7C
330
1F
100
AcDbEntity
  8
0
  6
Continuous
 62
     7
370
    15
100
AcDbLine
 10
125.9282579837
 20
106.7122308128
 30
0.0
 11
331.9282579837
 21
106.7122308128
 31
0.0
  0
SPLINE
  5
7D
330
1F
100
AcDbEntity
  8
0
  6
Continuous
 62
     7
370
    15
100
AcDbSpline
210
0.0
220
0.0
230
1.0
 70
     8
 71
     3
 72
    15
 73
    11
 74
     0
 42
0.000000001
 43
0.00000001
 40
0.0
 40
0.0
 40
0.0
 40
0.0
 40
0.1165160324218038
 40
0.2400113297291935
 40
0.368640813762775
 40
0.5000000000000004
 40
0.6313591862372264
 40
0.7599886702708046
 40
0.8834839675781954
 40
1.0
 40
1.0
 40
1.0
 40
1.0
 10
331.9282579836579
 20
106.7122308128403
 30
0.0
 10
332.757746407415
 20
106.7563526559446
 30
0.0
 10
334.4664092879033
 20
106.8472392233419
 30
0.0
 10
337.0010695753134
 20
107.6038966075117
 30
0.0
 10
339.4385809457285
 20
108.8585757536767
 30
0.0
 10
341.6129487501117
 20
110.6275400463866
 30
0.0
 10
343.3819130428216
 20
112.8019078507698
 30
0.0
 10
344.6365921889868
 20
115.2394192211849
 30
0.0
 10
345.3932495731563
 20
117.774079508595
 30
0.0
 10
345.4841361405536
 20
119.4827423890833
 30
0.0
 10
345.528257983658
 20
120.3122308128404
 30
0.0
  0
LINE
  5
7E
330
1F
100
AcDbEntity
  8
0
  6
Continuous
 62
     7
370
    15
100
AcDbLine
 10
345.5282579837
 20
120.3122308128
 30
0.0
 11
345.5282579837
 21
496.3122308128
 31
0.0
  0
LINE
  5
7F
330
1F
100
AcDbEntity
  8
0
  6
Continuous
 62
     7
370
    15
100
AcDbLine
 10
331.9282579837
 20
527.3122308128
 30
0.0
 11
125.9282579837
 21
527.3122308128
 31
0.0
  0
ARC
  5
80
330
1F
100
AcDbEntity
  8
0
  6
Continuous
 62
     7
370
    15
100
AcDbCircle
 10
331.9282579837
 20
496.3122308128
 30
0.0
 40
31.00000000000006
100
AcDbArc
 50
0.0
 51
90.0
  0
LINE
  5
81
330
1F
100
AcDbEntity
  8
0
  6
Continuous
 62
     7
370
    15
100
AcDbLine
 10
362.9282579837
 20
120.3122308128
 30
0.0
 11
362.9282579837
 21
496.3122308128
 31
0.0
  0
ARC
  5
82
330
1F
100
AcDbEntity
  8
0
  6
Continuous
 62
     7
370
    15
100
AcDbCircle
 10
331.9282579837
 20
120.3122308128
 30
0.0
 40
31.0
100
AcDbArc
 50
270.0
 51
0.0
  0
LINE
  5
83
330
1F
100
AcDbEntity
  8
0
  6
Continuous
 62
     7
370
    15
100
AcDbLine
 10
125.9282579837
 20
89.3122308128
 30
0.0
 11
331.9282579837
 21
89.3122308128
 31
0.0
  0
ARC
  5
84
330
1F
100
AcDbEntity
  8
0
  6
Continuous
 62
     7
370
    15
100
AcDbCircle
 10
125.9282579837
 20
120.3122308128
 30
0.0
 40
31.00000000000003
100
AcDbArc
 50
180.0
 51
270.0
  0
LINE
  5
85
330
1F
100
AcDbEntity
  8
0
  6
Continuous
 62
     7
370
    15
100
AcDbLine
 10
94.9282579837
 20
496.3122308128
 30
0.0
 11
94.9282579837
 21
120.3122308128
 31
0.0
  0
ARC
  5
86
330
1F
100
AcDbEntity
  8
0
  6
Continuous
 62
     7
370
    15
100
AcDbCircle
 10
125.9282579837
 20
496.3122308128
 30
0.0
 40
31.00000000000006
100
AcDbArc
 50
90.0
 51
180.0
  0
LINE
  5
87
330
1F
100
AcDbEntity
  8
0
  6
Continuous
 62
     7
370
    15
100
AcDbLine
 10
343.9282579837
 20
120.3122308128
 30
0.0
 11
345.5282579837
 21
120.3122308128
 31
0.0
  0
LINE
  5
88
330
1F
100
AcDbEntity
  8
0
  6
Continuous
 62
     7
370
    15
100
AcDbLine
 10
343.9282579837
 20
496.3122308128
 30
0.0
 11
343.9282579837
 21
120.3122308128
 31
0.0
  0
LINE
  5
89
330
1F
100
AcDbEntity
  8
0
  6
Continuous
 62
     7
370
    15
100
AcDbLine
 10
345.5282579837
 20
496.3122308128
 30
0.0
 11
343.9282579837
 21
496.3122308128
 31
0.0
  0
LINE
  5
8A
330
1F
100
AcDbEntity
  8
0
  6
Continuous
 62
     7
370
    15
100
AcDbLine
 10
125.9282579837
 20
108.3122308128
 30
0.0
 11
125.9282579837
 21
106.7122308128
 31
0.0
  0
LINE
  5
8B
330
1F
100
AcDbEntity
  8
0
  6
Continuous
 62
     7
370
    15
100
AcDbLine
 10
331.9282610142
 20
108.3122308128
 30
0.0
 11
125.9282579837
 21
108.3122308128
 31
0.0
  0
LINE
  5
8C
330
1F
100
AcDbEntity
  8
0
  6
Continuous
 62
     7
370
    15
100
AcDbLine
 10
331.9282610142
 20
108.3122308128
 30
0.0
 11
331.9282579837
 21
106.7122308128
 31
0.0
  0
LINE
  5
8D
330
1F
100
AcDbEntity
  8
0
  6
Continuous
 62
     7
370
    15
100
AcDbLine
 10
125.9282579837
 20
508.3122308128
 30
0.0
 11
331.9282579152
 21
508.3122308128
 31
0.0
  0
LINE
  5
8E
330
1F
100
AcDbEntity
  8
0
  6
Continuous
 62
     7
370
    15
100
AcDbLine
 10
125.9282579837
 20
509.9122308128
 30
0.0
 11
125.9282579837
 21
508.3122308128
 31
0.0
  0
LWPOLYLINE
  5
8F
330
1F
100
AcDbEntity
  8
0
  6
Continuous
 62
     7
370
    15
100
AcDbPolyline
 90
        9
 70
   128
 43
0.0
 10
331.9282579837
 20
509.9122308128
 10
331.9282579837
 20
509.6000862976
 10
331.9282579837
 20
509.2999373211
 10
331.9282579837
 20
509.02331844
 10
331.9282579837
 20
508.7808599629
 10
331.9282579837
 20
508.5818794332
 10
331.9282579837
 20
508.4340235608
 10
331.9282579837
 20
508.3429743642
 10
331.9282579152
 20
508.3122308128
  0
ARC
  5
90
330
1F
100
AcDbEntity
  8
0
  6
Continuous
 62
     7
370
    15
100
AcDbCircle
 10
125.9282579837
 20
496.3122308128
 30
0.0
 40
12.0
100
AcDbArc
 50
90.0
 51
180.0000003271
  0
ARC
  5
91
330
1F
100
AcDbEntity
  8
0
  6
Continuous
 62
     7
370
    15
100
AcDbCircle
 10
331.9282579837
 20
496.3122308128
 30
0.0
 40
12.0
100
AcDbArc
 50
0.0
 51
90.0000003271
  0
ARC
  5
92
330
1F
100
AcDbEntity
  8
0
  6
Continuous
 62
     7
370
    15
100
AcDbCircle
 10
331.9282579837
 20
120.3122308128
 30
0.0
 40
12.0000000000004
100
AcDbArc
 50
270.0000144696
 51
0.0
  0
ARC
  5
93
330
1F
100
AcDbEntity
  8
0
  6
Continuous
 62
     7
370
    15
100
AcDbCircle
 10
125.9282579837
 20
120.3122308128
 30
0.0
 40
12.00000000000001
100
AcDbArc
 50
180.0
 51
270.0
  0
LINE
  5
94
330
1F
100
AcDbEntity
  8
0
  6
Continuous
 62
     7
370
    15
100
AcDbLine
 10
93.9282579837
 20
120.3122308128
 30
0.0
 11
93.9282579837
 21
496.3122308128
 31
0.0
  0
LINE
  5
95
330
1F
100
AcDbEntity
  8
0
  6
Continuous
 62
     7
370
    15
100
AcDbLine
 10
94.9282579837
 20
496.3122308128
 30
0.0
 11
93.9282579837
 21
496.3122308128
 31
0.0
  0
LINE
  5
96
330
1F
100
AcDbEntity
  8
0
  6
Continuous
 62
     7
370
    15
100
AcDbLine
 10
93.9282579837
 20
120.3122308128
 30
0.0
 11
94.9282579837
 21
120.3122308128
 31
0.0
  0
ARC
  5
97
330
1F
100
AcDbEntity
  8
0
  6
Continuous
 62
     7
370
    15
100
AcDbCircle
 10
125.9282579837
 20
496.3122308128
 30
0.0
 40
32.00000000000006
100
AcDbArc
 50
90.0
 51
180.0
  0
LINE
  5
98
330
1F
100
AcDbEntity
  8
0
  6
Continuous
 62
     7
370
    15
100
AcDbLine
 10
125.9282579837
 20
527.3122308128
 30
0.0
 11
125.9282579837
 21
528.3122308128
 31
0.0
  0
LINE
  5
99
330
1F
100
AcDbEntity
  8
0
  6
Continuous
 62
     7
370
    15
100
AcDbLine
 10
363.9282579837
 20
496.3122308128
 30
0.0
 11
363.9282579837
 21
120.3122308128
 31
0.0
  0
LINE
  5
9A
330
1F
100
AcDbEntity
  8
0
  6
Continuous
 62
     7
370
    15
100
AcDbLine
 10
363.9282579837
 20
120.3122308128
 30
0.0
 11
362.9282579837
 21
120.3122308128
 31
0.0
  0
LINE
  5
9B
330
1F
100
AcDbEntity
  8
0
  6
Continuous
 62
     7
370
    15
100
AcDbLine
 10
362.9282579837
 20
496.3122308128
 30
0.0
 11
363.9282579837
 21
496.3122308128
 31
0.0
  0
ARC
  5
9C
330
1F
100
AcDbEntity
  8
0
  6
Continuous
 62
     7
370
    15
100
AcDbCircle
 10
125.9282579837
 20
120.3122308128
 30
0.0
 40
32.00000000000003
100
AcDbArc
 50
180.0
 51
270.0
  0
LINE
  5
9D
330
1F
100
AcDbEntity
  8
0
  6
Continuous
 62
     7
370
    15
100
AcDbLine
 10
125.9282579837
 20
88.3122308128
 30
0.0
 11
125.9282579837
 21
89.3122308128
 31
0.0
  0
ARC
  5
9E
330
1F
100
AcDbEntity
  8
0
  6
Continuous
 62
     7
370
    15
100
AcDbCircle
 10
331.9282579837
 20
120.3122308128
 30
0.0
 40
32.0
100
AcDbArc
 50
270.0
 51
0.0
  0
LINE
  5
9F
330
1F
100
AcDbEntity
  8
0
  6
Continuous
 62
     7
370
    15
100
AcDbLine
 10
331.9282579837
 20
88.3122308128
 30
0.0
 11
331.9282579837
 21
89.3122308128
 31
0.0
  0
LINE
  5
A0
330
1F
100
AcDbEntity
  8
0
  6
Continuous
 62
     7
370
    15
100
AcDbLine
 10
331.9282579837
 20
527.3122308128
 30
0.0
 11
331.9282579837
 21
528.3122308128
 31
0.0
  0
ARC
  5
A1
330
1F
100
AcDbEntity
  8
0
  6
Continuous
 62
     7
370
    15
100
AcDbCircle
 10
331.9282579837
 20
496.3122308128
 30
0.0
 40
32.00000000000006
100
AcDbArc
 50
0.0
 51
90.0
  0
LINE
  5
A2
330
1F
100
AcDbEntity
  8
0
  6
Continuous
 62
     7
370
    15
100
AcDbLine
 10
125.9282579837
 20
528.3122308128
 30
0.0
 11
331.9282579837
 21
528.3122308128
 31
0.0
  0
LINE
  5
A3
330
1F
100
AcDbEntity
  8
0
  6
Continuous
 62
     7
370
    15
100
AcDbLine
 10
331.9282579837
 20
88.3122308128
 30
0.0
 11
125.9282579837
 21
88.3122308128
 31
0.0
  0
LINE
  5
A4
330
1F
100
AcDbEntity
  8
0
  6
Continuous
 62
     7
370
    15
100
AcDbLine
 10
331.9282579837
 20
108.3122308128
 30
0.0
 11
331.9282579837
 21
120.0430061529
 31
0.0
  0
ARC
  5
A5
330
1F
100
AcDbEntity
  8
0
  6
Continuous
 62
     7
370
    15
100
AcDbCircle
 10
334.803552176
 20
259.4534157554
 30
0.0
 40
139.4400574519757
100
AcDbArc
 50
268.8184607641
 51
273.7520134904
  0
LINE
  5
A6
330
1F
100
AcDbEntity
  8
0
  6
Continuous
 62
     7
370
    15
100
AcDbLine
 10
125.928257979
 20
497.2943821123
 30
0.0
 11
125.9282579837
 21
508.3122308128
 31
0.0
  0
LWPOLYLINE
  5
A7
330
1F
100
AcDbEntity
  8
0
  6
Continuous
 62
     7
370
    15
100
AcDbPolyline
 90
       10
 70
   128
 43
0.0
 10
125.928257979
 20
497.2943821123
 10
123.8444799502
 20
497.2794610286
 10
121.8240164562
 20
497.2351511471
 10
119.9282582517
 20
497.1627988012
 10
118.2148069847
 20
497.0646023799
 10
116.7357249997
 20
496.9435455315
 10
115.53595345
 20
496.8033065068
 10
114.6519467832
 20
496.6481463971
 10
114.110565092
 20
496.4827796633
 10
113.9282579837
 20
496.3122308896
  0
LWPOLYLINE
  5
A8
330
1F
100
AcDbEntity
  8
0
  6
Continuous
 62
     7
370
    15
100
AcDbPolyline
 90
       10
 70
   128
 43
0.0
 10
343.9282579837
 20
496.3122308127
 10
343.7459510766
 20
496.4827795795
 10
343.2045696571
 20
496.6481463099
 10
342.3205633203
 20
496.8033064212
 10
341.1207921432
 20
496.9435454532
 10
339.6417105544
 20
497.0646023152
 10
337.9282596856
 20
497.1627987571
 10
336.0325018581
 20
497.2351511304
 10
334.0120386963
 20
497.2794610456
 10
331.9282609317
 20
497.2943821688
  0
LWPOLYLINE
  5
A9
330
1F
100
AcDbEntity
  8
0
  6
Continuous
 62
     7
370
    15
100
AcDbPolyline
 90
        9
 70
   128
 43
0.0
 10
331.9282609317
 20
497.2943821688
 10
331.9282609826
 20
499.4903912071
 10
331.9282611335
 20
501.5766390218
 10
331.9282613793
 20
503.4810747769
 10
331.9282617115
 20
505.1379267137
 10
331.9282621185
 20
506.4899736496
 10
331.9282625864
 20
507.4905211742
 10
331.9282630989
 20
508.1050142911
 10
331.9282638797
 20
508.3122308128
  0
LWPOLYLINE
  5
AA
330
1F
100
AcDbEntity
  8
0
  6
Continuous
 62
     7
370
    15
100
AcDbPolyline
 90
       10
 70
   128
 43
0.0
 10
125.9282576247
 20
108.3122308128
 10
125.9282576194
 20
108.4893796397
 10
125.9282576036
 20
109.0155957149
 10
125.9282575779
 20
109.8753426169
 10
125.928257543
 20
111.0432364953
 10
125.9282574998
 20
112.4847955239
 10
125.9282574498
 20
114.1574579687
 10
125.9282573943
 20
116.0118388154
 10
125.928257335
 20
117.993187851
 10
125.9282578939
 20
120.0430061528
  0
ARC
  5
AB
330
1F
100
AcDbEntity
  8
0
  6
Continuous
 62
     7
370
    15
100
AcDbCircle
 10
122.8065731776
 20
248.4711508389
 30
0.0
 40
128.4660782579429
100
AcDbArc
 50
266.0371188623
 51
271.3924062157
  0
LINE
  5
AC
330
1F
100
AcDbEntity
  8
0
  6
Continuous
 62
     7
370
    15
100
AcDbLine
 10
125.9282578939
 20
120.0430061528
 30
0.0
 11
331.9282579837
 21
120.0430061529
 31
0.0
  0
ELLIPSE
  5
AD
330
1F
100
AcDbEntity
  8
0
  6
Continuous
 62
     7
370
    15
100
AcDbEllipse
 10
125.9282579837
 20
693.7383090596
 30
0.0
 11
1.067445595016693
 21
536.9959515029582
 31
0.0
210
0.0
220
0.0
230
1.0
 40
0.02225795
 41
3.141614602164895
 42
3.230664184823514
  0
LINE
  5
AE
330
1F
100
AcDbEntity
  8
0
  6
Continuous
 62
     7
370
    15
100
AcDbLine
 10
125.9282579837
 20
158.8690285863
 30
0.0
 11
125.9282578939
 21
120.0430061528
 31
0.0
  0
ELLIPSE
  5
AF
330
1F
100
AcDbEntity
  8
0
  6
Continuous
 62
     7
370
    15
100
AcDbEllipse
 10
125.9282579837
 20
156.8764529936
 30
0.0
 11
12.0
 21
0.0
 31
0.0
210
0.0
220
0.0
230
1.0
 40
0.0112191061
 41
3.141592739193333
 42
4.62333939664286
  0
LINE
  5
B0
330
1F
100
AcDbEntity
  8
0
  6
Continuous
 62
     7
370
    15
100
AcDbLine
 10
331.9282579837
 20
120.0430061529
 30
0.0
 11
331.9282579831
 21
156.6072283049
 31
0.0
  0
ARC
  5
B1
330
1F
100
AcDbEntity
  8
0
  6
Continuous
 62
     7
370
    15
100
AcDbCircle
 10
335.0499427383
 20
285.0353742398
 30
0.0
 40
128.4660795073995
100
AcDbArc
 50
268.6075937805
 51
273.9628811221
  0
LINE
  5
B2
330
1F
100
AcDbEntity
  8
0
  6
Continuous
 62
     7
370
    15
100
AcDbLine
 10
332.9954412394
 20
495.2749572188
 30
0.0
 11
343.9282579837
 21
495.2749572165
 31
0.0
  0
ARC
  5
B3
330
1F
100
AcDbEntity
  8
0
  6
Continuous
 62
     7
370
    15
100
AcDbCircle
 10
198.1359659228
 20
349.8112959211
 30
0.0
 40
198.3601644504425
100
AcDbArc
 50
47.1663767978
 51
47.5853059105
  0
LWPOLYLINE
  5
B4
330
1F
100
AcDbEntity
  8
0
  6
Continuous
 62
     7
370
    15
100
AcDbPolyline
 90
       10
 70
   128
 43
0.0
 10
331.9282603419
 20
496.2571111391
 10
334.0120381801
 20
496.2421899844
 10
336.0325014273
 20
496.1978799589
 10
337.9282593455
 20
496.1255273999
 10
339.6417103039
 20
496.0273307028
 10
341.1207919753
 20
495.9062735239
 10
342.3205632227
 20
495.7660341232
 10
343.2045696129
 20
495.6108736031
 10
343.745951066
 20
495.4455064361
 10
343.9282579837
 20
495.2749572165
  0
LINE
  5
B5
330
1F
100
AcDbEntity
  8
0
  6
Continuous
 62
     7
370
    15
100
AcDbLine
 10
331.9282609317
 20
497.2943821688
 30
0.0
 11
125.928257979
 21
497.2943821123
 31
0.0
  0
LINE
  5
B6
330
1F
100
AcDbEntity
  8
0
  6
Continuous
 62
     7
370
    15
100
AcDbLine
 10
331.9282603419
 20
496.2571111391
 30
0.0
 11
331.9282609317
 21
497.2943821688
 31
0.0
  0
LINE
  5
B7
330
1F
100
AcDbEntity
  8
0
  6
Continuous
 62
     7
370
    15
100
AcDbLine
 10
125.928257979
 20
497.2943821123
 30
0.0
 11
125.9282579835
 21
496.257108575
 31
0.0
  0
LWPOLYLINE
  5
B8
330
1F
100
AcDbEntity
  8
0
  6
Continuous
 62
     7
370
    15
100
AcDbPolyline
 90
       10
 70
   128
 43
0.0
 10
113.9282579837
 20
495.2749572188
 10
114.1105649478
 20
495.445506012
 10
114.6519465348
 20
495.6108727664
 10
115.535953139
 20
495.7660328969
 10
116.735724667
 20
495.9062719413
 10
118.2148066681
 20
496.0273288074
 10
119.9282579842
 20
496.1255252435
 10
121.8240162641
 20
496.1978776005
 10
123.8444798518
 20
496.2421874888
 10
125.9282579835
 20
496.257108575
  0
LINE
  5
B9
330
1F
100
AcDbEntity
  8
0
  6
Continuous
 62
     7
370
    15
100
AcDbLine
 10
343.9282579837
 20
156.8764529647
 30
0.0
 11
332.9954412395
 21
156.8764529648
 31
0.0
  0
LWPOLYLINE
  5
BA
330
1F
100
AcDbEntity
  8
0
  6
Continuous
 62
     7
370
    15
100
AcDbPolyline
 90
        9
 70
   128
 43
0.0
 10
332.9954412395
 20
156.8764529648
 10
332.8623510988
 20
156.8427532824
 10
332.7291378938
 20
156.8090580398
 10
332.5958191748
 20
156.7753716763
 10
332.4624125065
 20
156.74169863
 10
332.3289354646
 20
156.7080433372
 10
332.1954056345
 20
156.674410232
 10
332.0618406084
 20
156.6408037454
 10
331.9282579831
 20
156.6072283049
  0
LINE
  5
BB
330
1F
100
AcDbEntity
  8
0
  6
Continuous
 62
     7
370
    15
100
AcDbLine
 10
113.9282579837
 20
495.2749572188
 30
0.0
 11
124.8610747277
 21
495.2749572188
 31
0.0
  0
ARC
  5
BC
330
1F
100
AcDbEntity
  8
0
  6
Continuous
 62
     7
370
    15
100
AcDbCircle
 10
259.9353140453
 20
349.5772346493
 30
0.0
 40
198.67782082852
100
AcDbArc
 50
132.4148913654
 51
132.8331506693
  0
LINE
  5
BD
330
1F
100
AcDbEntity
  8
0
  6
Continuous
 62
     7
370
    15
100
AcDbLine
 10
332.9954412395
 20
156.8764529648
 30
0.0
 11
332.9954412394
 21
495.2749572188
 31
0.0
  0
LINE
  5
BE
330
1F
100
AcDbEntity
  8
0
  6
Continuous
 62
     7
370
    15
100
AcDbLine
 10
124.8610747277
 20
156.7423571628
 30
0.0
 11
124.8610747277
 21
495.2749572188
 31
0.0
  0
SPLINE
  5
BF
330
1F
100
AcDbEntity
  8
0
  6
Continuous
 62
     7
370
    15
100
AcDbSpline
210
0.0
220
0.0
230
1.0
 70
     8
 71
     3
 72
    31
 73
    27
 74
     0
 42
0.000000001
 43
0.00000001
 40
0.0
 40
0.0
 40
0.0
 40
0.0
 40
0.0416510048723336
 40
0.0833464212279967
 40
0.124999993915018
 40
0.1666509400849274
 40
0.208347016792483
 40
0.2499999934856662
 40
0.2916503439689655
 40
0.3333464203666851
 40
0.3749999930560532
 40
0.416650939225772
 40
0.4583470159339531
 40
0.499999992625704
 40
0.5416503431099359
 40
0.5833464195072989
 40
0.6249999921941792
 40
0.6666509383641819
 40
0.708347015071938
 40
0.7499999917631504
 40
0.7916503422558102
 40
0.833346418694588
 40
0.8749999914295046
 40
0.9166509380074966
 40
0.9583476756975561
 40
1.0
 40
1.0
 40
1.0
 40
1.0
 10
170.9282579836579
 20
389.3122308128404
 30
0.0
 10
171.0237716472503
 20
386.7824440337033
 30
0.0
 10
171.2149008183999
 20
381.7201730235018
 30
0.0
 10
172.7556273960794
 20
374.2577692601582
 30
0.0
 10
175.1874992813171
 20
367.0535689110945
 30
0.0
 10
178.5554455089154
 20
360.2291578920594
 30
0.0
 10
182.7812913642915
 20
353.9026872394766
 30
0.0
 10
187.7990501200813
 20
348.18318568996
 30
0.0
 10
193.5184683781507
 20
343.1657215774054
 30
0.0
 10
199.8448901805807
 20
338.938689425552
 30
0.0
 10
206.6693021619959
 20
335.5747745765131
 30
0.0
 10
213.8735355062172
 20
333.1278320079919
 30
0.0
 10
221.3359147684103
 20
331.6432310007811
 30
0.0
 10
228.9280995479052
 20
331.1468190447422
 30
0.0
 10
236.5202768461563
 20
331.6432304520058
 30
0.0
 10
243.9826805925291
 20
333.1277083817843
 30
0.0
 10
251.1869210197922
 20
335.574653300354
 30
0.0
 10
258.0113263283131
 20
338.9385648037181
 30
0.0
 10
264.3378178586714
 20
343.1654926118509
 30
0.0
 10
270.0572417472206
 20
348.1829616323175
 30
0.0
 10
275.0749957562879
 20
353.9024574851737
 30
0.0
 10
279.3009453240109
 20
360.2288585050285
 30
0.0
 10
282.6688973956335
 20
367.0532759359835
 30
0.0
 10
285.100784651482
 20
374.257546449495
 30
0.0
 10
286.6416531856169
 20
381.7199266797342
 30
0.0
 10
286.8327569948411
 20
386.7823621565248
 30
0.0
 10
286.9282579836579
 20
389.3122311100404
 30
0.0
  0
SPLINE
  5
C0
330
1F
100
AcDbEntity
  8
0
  6
Continuous
 62
     7
370
    15
100
AcDbSpline
210
0.0
220
0.0
230
1.0
 70
     8
 71
     3
 72
    31
 73
    27
 74
     0
 42
0.000000001
 43
0.00000001
 40
0.0
 40
0.0
 40
0.0
 40
0.0
 40
0.0416510050155524
 40
0.0833464215145597
 40
0.1249999943426112
 40
0.166650940659944
 40
0.2083470175091719
 40
0.2499999943423552
 40
0.2916503449726072
 40
0.3333464215151402
 40
0.3749999943432824
 40
0.4166509406596575
 40
0.4583470175107495
 40
0.4999999943433281
 40
0.5416503449712547
 40
0.583346421513355
 40
0.6249999943429158
 40
0.6666509406559382
 40
0.7083470175078723
 40
0.7499999943417817
 40
0.791650344970543
 40
0.833346421509649
 40
0.874999994341767
 40
0.9166509406532619
 40
0.958347677609258
 40
0.9999999999999999
 40
0.9999999999999999
 40
0.9999999999999999
 40
0.9999999999999999
 10
286.9282579836579
 20
389.3122311100404
 30
0.0
 10
286.8327443070613
 20
391.8420178892647
 30
0.0
 10
286.6416151098893
 20
396.9042888996391
 30
0.0
 10
285.100888493274
 20
404.3666926566
 30
0.0
 10
282.6690165699108
 20
411.5708929947406
 30
0.0
 10
279.3010703059999
 20
418.3953039978417
 30
0.0
 10
275.0752244159995
 20
424.7217746293379
 30
0.0
 10
270.0574656291089
 20
430.4412761537425
 30
0.0
 10
264.3380473431673
 20
435.4587402373907
 30
0.0
 10
258.0116255164932
 20
439.6857723561787
 30
0.0
 10
251.1872135155331
 20
443.049687169514
 30
0.0
 10
243.9829801565225
 20
445.4966296997185
 30
0.0
 10
236.52060088445
 20
446.9812306663584
 30
0.0
 10
228.9284161006624
 20
447.4776425810714
 30
0.0
 10
221.3362388034323
 20
446.9812311318285
 30
0.0
 10
213.8738350635118
 20
445.4967531603268
 30
0.0
 10
206.6695946481324
 20
443.0498082012476
 30
0.0
 10
199.8451893568121
 20
439.685896659046
 30
0.0
 10
193.5186978486308
 20
435.4589688145746
 30
0.0
 10
187.7992739873946
 20
430.4414997609535
 30
0.0
 10
182.7815200117406
 20
424.7220038805492
 30
0.0
 10
178.5555704814531
 20
418.3956028408899
 30
0.0
 10
175.1876184550026
 20
411.5711854197615
 30
0.0
 10
172.755731246449
 20
404.3669149755024
 30
0.0
 10
171.2148627495737
 20
396.9045349431479
 30
0.0
 10
171.0237589608689
 20
391.8420996425168
 30
0.0
 10
170.9282579836579
 20
389.3122308128404
 30
0.0
  0
CIRCLE
  5
C1
330
1F
100
AcDbEntity
  8
0
  6
Continuous
 62
     7
370
    15
100
AcDbCircle
 10
228.9282579837
 20
389.3122308128
 30
0.0
 40
56.49999999999996
  0
SPLINE
  5
C2
330
1F
100
AcDbEntity
  8
0
  6
Continuous
 62
     7
370
    15
100
AcDbSpline
210
0.0
220
0.0
230
1.0
 70
     8
 71
     3
 72
    31
 73
    27
 74
     0
 42
0.000000001
 43
0.00000001
 40
0.0
 40
0.0
 40
0.0
 40
0.0
 40
0.041650981953252
 40
0.0833463750525217
 40
0.1249999948508374
 40
0.1666508942439477
 40
0.2083469710743206
 40
0.249999994769539
 40
0.2916502984656811
 40
0.3333463749690118
 40
0.3749999946634942
 40
0.4166508940420198
 40
0.4583469708683966
 40
0.4999999945588629
 40
0.5416502982610649
 40
0.583346374748978
 40
0.6249999944546616
 40
0.6666508938295781
 40
0.7083469706585104
 40
0.7499999943510764
 40
0.7916502980495073
 40
0.8333463745499663
 40
0.8749999942453586
 40
0.9166508936255603
 40
0.9583476541270471
 40
1.0
 40
1.0
 40
1.0
 40
1.0
 10
284.9282579836579
 20
389.3122312254403
 30
0.0
 10
284.8360376524052
 20
391.754782588059
 30
0.0
 10
284.65149865823
 20
396.6424897298101
 30
0.0
 10
283.1639029630128
 20
403.8475696593358
 30
0.0
 10
280.8158889281355
 20
410.8033480868032
 30
0.0
 10
277.564078817985
 20
417.392434445706
 30
0.0
 10
273.4839535205251
 20
423.5007520930347
 30
0.0
 10
268.6392208029091
 20
429.0230294982869
 30
0.0
 10
263.1170239248188
 20
433.8674774661339
 30
0.0
 10
257.0087557726565
 20
437.9487516279166
 30
0.0
 10
250.4196682081516
 20
441.1966694097892
 30
0.0
 10
243.4638568145789
 20
443.5592345453355
 30
0.0
 10
236.2588013951463
 20
444.9926444746587
 30
0.0
 10
228.9284159675199
 20
445.4719387265633
 30
0.0
 10
221.5980380298075
 20
444.9926449056238
 30
0.0
 10
214.3929581491199
 20
443.5593579380086
 30
0.0
 10
207.437139710955
 20
441.1967903404469
 30
0.0
 10
200.8480588706612
 20
437.9488757981829
 30
0.0
 10
194.7397210565337
 20
433.8677058809646
 30
0.0
 10
189.2175186257619
 20
429.0232529169439
 30
0.0
 10
184.3727907456244
 20
423.5009811332681
 30
0.0
 10
180.2925618377645
 20
417.3927330596169
 30
0.0
 10
177.0407459976013
 20
410.8036402747653
 30
0.0
 10
174.6927167117546
 20
403.8477917502598
 30
0.0
 10
173.2049791695487
 20
396.6427355873599
 30
0.0
 10
173.0204656047524
 20
391.7548641967096
 30
0.0
 10
172.9282579836579
 20
389.3122308128404
 30
0.0
  0
SPLINE
  5
C3
330
1F
100
AcDbEntity
  8
0
  6
Continuous
 62
     7
370
    15
100
AcDbSpline
210
0.0
220
0.0
230
1.0
 70
     8
 71
     3
 72
    31
 73
    27
 74
     0
 42
0.000000001
 43
0.00000001
 40
0.0
 40
0.0
 40
0.0
 40
0.0
 40
0.0416509814874828
 40
0.083346374409921
 40
0.1249999941427589
 40
0.1666508935542162
 40
0.2083469704102276
 40
0.2499999941428813
 40
0.2916502978726056
 40
0.333346374408498
 40
0.3749999941426212
 40
0.4166508935550886
 40
0.4583469704127529
 40
0.4999999941431015
 40
0.5416502978737485
 40
0.5833463744088331
 40
0.6249999941431779
 40
0.666650893554186
 40
0.7083469704113564
 40
0.7499999941432749
 40
0.7916502978753732
 40
0.8333463744114531
 40
0.8749999941419921
 40
0.9166508935529778
 40
0.9583476540893267
 40
1.0
 40
1.0
 40
1.0
 40
1.0
 10
172.9282579836579
 20
389.3122308128404
 30
0.0
 10
173.02047829216
 20
386.8696794651634
 30
0.0
 10
173.2050172414504
 20
381.9819723363379
 30
0.0
 10
174.6926128820515
 20
374.7768924023122
 30
0.0
 10
177.040626871217
 20
367.8211139370475
 30
0.0
 10
180.292436948715
 20
361.2320275247786
 30
0.0
 10
184.3725622263383
 20
355.1237098167641
 30
0.0
 10
189.2172949375142
 20
349.6014323520586
 30
0.0
 10
194.7394918205525
 20
344.7569843280297
 30
0.0
 10
200.847759987825
 20
340.6757101151649
 30
0.0
 10
207.4368475765361
 20
337.4277922897558
 30
0.0
 10
214.3926590013108
 20
335.0652271189594
 30
0.0
 10
221.597714457418
 20
333.63181716436
 30
0.0
 10
228.9280999247155
 20
333.1525228973259
 30
0.0
 10
236.2584779043029
 20
333.6318167139287
 30
0.0
 10
243.4635578253977
 20
335.0651036878141
 30
0.0
 10
250.4193763015295
 20
337.4276713020129
 30
0.0
 10
257.008457173823
 20
340.6755858702083
 30
0.0
 10
263.1167950143158
 20
344.7567558214273
 30
0.0
 10
268.6389974625689
 20
349.6012088272333
 30
0.0
 10
273.4837253510904
 20
355.1234806582091
 30
0.0
 10
277.5639542565409
 20
361.2317287825957
 30
0.0
 10
280.815770082927
 20
367.8208216196566
 30
0.0
 10
283.1637993429453
 20
374.7766701956796
 30
0.0
 10
284.6515368488249
 20
381.9817264079242
 30
0.0
 10
284.8360503795744
 20
386.8695978271873
 30
0.0
 10
284.9282579836579
 20
389.3122312254404
 30
0.0
  0
CIRCLE
  5
C4
330
1F
100
AcDbEntity
  8
0
  6
Continuous
 62
     7
370
    15
100
AcDbCircle
 10
228.9282579837
 20
389.3122308128
 30
0.0
 40
45.0
  0
ENDSEC
  0
SECTION
  2
OBJECTS
  0
DICTIONARY
  5
C
330
0
100
AcDbDictionary
281
     1
  3
ACAD_GROUP
350
D
  3
ACAD_LAYOUT
350
1A
  3
ACAD_MLINESTYLE
350
17
  3
ACAD_PLOTSETTINGS
350
19
  3
ACAD_PLOTSTYLENAME
350
E
  3
ACAD_SCALELIST
350
47
  0
DICTIONARY
  5
D
102
{ACAD_REACTORS
330
C
102
}
330
C
100
AcDbDictionary
281
     1
  0
DICTIONARY
  5
1A
102
{ACAD_REACTORS
330
C
102
}
330
C
100
AcDbDictionary
281
     1
  3
Layout1
350
1E
  3
Layout2
350
26
  3
Model
350
22
  0
DICTIONARY
  5
17
102
{ACAD_REACTORS
330
C
102
}
330
C
100
AcDbDictionary
281
     1
  3
Standard
350
18
  0
DICTIONARY
  5
19
102
{ACAD_REACTORS
330
C
102
}
330
C
100
AcDbDictionary
281
     1
  0
ACDBDICTIONARYWDFLT
  5
E
102
{ACAD_REACTORS
330
C
102
}
330
C
100
AcDbDictionary
281
     1
  3
Normal
350
F
100
AcDbDictionaryWithDefault
340
F
  0
DICTIONARY
  5
47
102
{ACAD_REACTORS
330
C
102
}
330
C
100
AcDbDictionary
281
     1
  3
A0
350
48
  3
A1
350
49
  3
A2
350
4A
  3
A3
350
4B
  3
A4
350
4C
  3
A5
350
4D
  3
A6
350
4E
  3
A7
350
4F
  3
A8
350
50
  3
A9
350
51
  3
B0
350
52
  3
B1
350
53
  3
B2
350
54
  3
B3
350
55
  3
B4
350
56
  3
B5
350
57
  3
B6
350
58
  3
B7
350
59
  3
B8
350
5A
  3
B9
350
5B
  3
C0
350
5C
  3
C1
350
5D
  3
C2
350
5E
  3
C3
350
5F
  3
C4
350
60
  3
C5
350
61
  3
C6
350
62
  3
C7
350
63
  3
C8
350
64
  3
C9
350
65
  3
D0
350
66
  3
D1
350
67
  3
D2
350
68
  0
LAYOUT
  5
1E
102
{ACAD_REACTORS
330
1A
102
}
330
1A
100
AcDbPlotSettings
  1

  2
none_device
  4

  6

 40
0.0
 41
0.0
 42
0.0
 43
0.0
 44
0.0
 45
0.0
 46
0.0
 47
0.0
 48
0.0
 49
0.0
140
0.0
141
0.0
142
1.0
143
1.0
 70
   688
 72
     1
 73
     0
 74
     5
  7

 75
    16
147
1.0
148
0.0
149
0.0
100
AcDbLayout
  1
Layout1
 70
     1
 71
     1
 10
0.0
 20
0.0
 11
420.0
 21
297.0
 12
0.0
 22
0.0
 32
0.0
 14
1.0000000000E+20
 24
1.0000000000E+20
 34
1.0000000000E+20
 15
-1.0000000000E+20
 25
-1.0000000000E+20
 35
-1.0000000000E+20
146
0.0
 13
0.0
 23
0.0
 33
0.0
 16
1.0
 26
0.0
 36
0.0
 17
0.0
 27
1.0
 37
0.0
 76
     0
330
1B
  0
LAYOUT
  5
26
102
{ACAD_REACTORS
330
1A
102
}
330
1A
100
AcDbPlotSettings
  1

  2
none_device
  4

  6

 40
0.0
 41
0.0
 42
0.0
 43
0.0
 44
0.0
 45
0.0
 46
0.0
 47
0.0
 48
0.0
 49
0.0
140
0.0
141
0.0
142
1.0
143
1.0
 70
   688
 72
     1
 73
     0
 74
     5
  7

 75
    16
147
1.0
148
0.0
149
0.0
100
AcDbLayout
  1
Layout2
 70
     1
 71
     2
 10
0.0
 20
0.0
 11
0.0
 21
0.0
 12
0.0
 22
0.0
 32
0.0
 14
0.0
 24
0.0
 34
0.0
 15
0.0
 25
0.0
 35
0.0
146
0.0
 13
0.0
 23
0.0
 33
0.0
 16
1.0
 26
0.0
 36
0.0
 17
0.0
 27
1.0
 37
0.0
 76
     0
330
23
  0
LAYOUT
  5
22
102
{ACAD_REACTORS
330
1A
102
}
330
1A
100
AcDbPlotSettings
  1

  2
none_device
  4
Letter_(8.50_x_11.00_Inches)
  6

 40
6.35
 41
6.35
 42
6.35000508
 43
6.35000508
 44
215.9
 45
279.4
 46
0.0
 47
0.0
 48
0.0
 49
0.0
140
0.0
141
0.0
142
1.0
143
1.0
 70
  1712
 72
     1
 73
     0
 74
     0
  7

 75
     0
147
1.0
148
0.0
149
0.0
100
AcDbLayout
  1
Model
 70
     1
 71
     0
 10
0.0
 20
0.0
 11
420.0
 21
600.0
 12
0.0
 22
0.0
 32
0.0
 14
0.0
 24
0.0
 34
0.0
 15
420.0
 25
600.0
 35
0.0
146
0.0
 13
0.0
 23
0.0
 33
0.0
 16
1.0
 26
0.0
 36
0.0
 17
0.0
 27
1.0
 37
0.0
 76
     0
330
1F
331
29
  0
MLINESTYLE
  5
18
102
{ACAD_REACTORS
330
17
102
}
330
17
100
AcDbMlineStyle
  2
Standard
 70
     0
  3

 62
   256
 51
90.0
 52
90.0
 71
     2
 49
0.5
 62
   256
  6
BYLAYER
 49
-0.5
 62
   256
  6
BYLAYER
  0
ACDBPLACEHOLDER
  5
F
102
{ACAD_REACTORS
330
E
102
}
330
E
  0
SCALE
  5
48
102
{ACAD_REACTORS
330
47
102
}
330
47
100
AcDbScale
 70
     0
300
1:1
140
1.0
141
1.0
290
     1
  0
SCALE
  5
49
102
{ACAD_REACTORS
330
47
102
}
330
47
100
AcDbScale
 70
     0
300
1:2
140
1.0
141
2.0
290
     0
  0
SCALE
  5
4A
102
{ACAD_REACTORS
330
47
102
}
330
47
100
AcDbScale
 70
     0
300
1:4
140
1.0
141
4.0
290
     0
  0
SCALE
  5
4B
102
{ACAD_REACTORS
330
47
102
}
330
47
100
AcDbScale
 70
     0
300
1:5
140
1.0
141
5.0
290
     0
  0
SCALE
  5
4C
102
{ACAD_REACTORS
330
47
102
}
330
47
100
AcDbScale
 70
     0
300
1:8
140
1.0
141
8.0
290
     0
  0
SCALE
  5
4D
102
{ACAD_REACTORS
330
47
102
}
330
47
100
AcDbScale
 70
     0
300
1:10
140
1.0
141
10.0
290
     0
  0
SCALE
  5
4E
102
{ACAD_REACTORS
330
47
102
}
330
47
100
AcDbScale
 70
     0
300
1:16
140
1.0
141
16.0
290
     0
  0
SCALE
  5
4F
102
{ACAD_REACTORS
330
47
102
}
330
47
100
AcDbScale
 70
     0
300
1:20
140
1.0
141
20.0
290
     0
  0
SCALE
  5
50
102
{ACAD_REACTORS
330
47
102
}
330
47
100
AcDbScale
 70
     0
300
1:30
140
1.0
141
30.0
290
     0
  0
SCALE
  5
51
102
{ACAD_REACTORS
330
47
102
}
330
47
100
AcDbScale
 70
     0
300
1:40
140
1.0
141
40.0
290
     0
  0
SCALE
  5
52
102
{ACAD_REACTORS
330
47
102
}
330
47
100
AcDbScale
 70
     0
300
1:50
140
1.0
141
50.0
290
     0
  0
SCALE
  5
53
102
{ACAD_REACTORS
330
47
102
}
330
47
100
AcDbScale
 70
     0
300
1:100
140
1.0
141
100.0
290
     0
  0
SCALE
  5
54
102
{ACAD_REACTORS
330
47
102
}
330
47
100
AcDbScale
 70
     0
300
2:1
140
2.0
141
1.0
290
     0
  0
SCALE
  5
55
102
{ACAD_REACTORS
330
47
102
}
330
47
100
AcDbScale
 70
     0
300
4:1
140
4.0
141
1.0
290
     0
  0
SCALE
  5
56
102
{ACAD_REACTORS
330
47
102
}
330
47
100
AcDbScale
 70
     0
300
8:1
140
8.0
141
1.0
290
     0
  0
SCALE
  5
57
102
{ACAD_REACTORS
330
47
102
}
330
47
100
AcDbScale
 70
     0
300
10:1
140
10.0
141
1.0
290
     0
  0
SCALE
  5
58
102
{ACAD_REACTORS
330
47
102
}
330
47
100
AcDbScale
 70
     0
300
100:1
140
100.0
141
1.0
290
     0
  0
SCALE
  5
59
102
{ACAD_REACTORS
330
47
102
}
330
47
100
AcDbScale
 70
     0
300
1/128" = 1'-0"
140
0.0078125
141
12.0
290
     0
  0
SCALE
  5
5A
102
{ACAD_REACTORS
330
47
102
}
330
47
100
AcDbScale
 70
     0
300
1/64" = 1'-0"
140
0.015625
141
12.0
290
     0
  0
SCALE
  5
5B
102
{ACAD_REACTORS
330
47
102
}
330
47
100
AcDbScale
 70
     0
300
1/32" = 1'-0"
140
0.03125
141
12.0
290
     0
  0
SCALE
  5
5C
102
{ACAD_REACTORS
330
47
102
}
330
47
100
AcDbScale
 70
     0
300
1/16" = 1'-0"
140
0.0625
141
12.0
290
     0
  0
SCALE
  5
5D
102
{ACAD_REACTORS
330
47
102
}
330
47
100
AcDbScale
 70
     0
300
3/32" = 1'-0"
140
0.09375
141
12.0
290
     0
  0
SCALE
  5
5E
102
{ACAD_REACTORS
330
47
102
}
330
47
100
AcDbScale
 70
     0
300
1/8" = 1'-0"
140
0.125
141
12.0
290
     0
  0
SCALE
  5
5F
102
{ACAD_REACTORS
330
47
102
}
330
47
100
AcDbScale
 70
     0
300
3/16" = 1'-0"
140
0.1875
141
12.0
290
     0
  0
SCALE
  5
60
102
{ACAD_REACTORS
330
47
102
}
330
47
100
AcDbScale
 70
     0
300
1/4" = 1'-0"
140
0.25
141
12.0
290
     0
  0
SCALE
  5
61
102
{ACAD_REACTORS
330
47
102
}
330
47
100
AcDbScale
 70
     0
300
3/8" = 1'-0"
140
0.375
141
12.0
290
     0
  0
SCALE
  5
62
102
{ACAD_REACTORS
330
47
102
}
330
47
100
AcDbScale
 70
     0
300
1/2" = 1'-0"
140
0.5
141
12.0
290
     0
  0
SCALE
  5
63
102
{ACAD_REACTORS
330
47
102
}
330
47
100
AcDbScale
 70
     0
300
3/4" = 1'-0"
140
0.75
141
12.0
290
     0
  0
SCALE
  5
64
102
{ACAD_REACTORS
330
47
102
}
330
47
100
AcDbScale
 70
     0
300
1" = 1'-0"
140
1.0
141
12.0
290
     0
  0
SCALE
  5
65
102
{ACAD_REACTORS
330
47
102
}
330
47
100
AcDbScale
 70
     0
300
1-1/2" = 1'-0"
140
1.5
141
12.0
290
     0
  0
SCALE
  5
66
102
{ACAD_REACTORS
330
47
102
}
330
47
100
AcDbScale
 70
     0
300
3" = 1'-0"
140
3.0
141
12.0
290
     0
  0
SCALE
  5
67
102
{ACAD_REACTORS
330
47
102
}
330
47
100
AcDbScale
 70
     0
300
6" = 1'-0"
140
6.0
141
12.0
290
     0
  0
SCALE
  5
68
102
{ACAD_REACTORS
330
47
102
}
330
47
100
AcDbScale
 70
     0
300
1'-0" = 1'-0"
140
12.0
141
12.0
290
     0
  0
ENDSEC
  0
EOF
