  0
SECTION
  2
HEADER
  9
$ACADVER
  1
AC1015
  9
$ACADMAINTVER
 70
     6
  9
$DWGCODEPAGE
  3
ANSI_1252
  9
$INSBASE
 10
0.0
 20
0.0
 30
0.0
  9
$EXTMIN
 10
0.0
 20
0.0
 30
0.0
  9
$EXTMAX
 10
1000.0
 20
700.0
 30
0.0
  9
$LIMMIN
 10
0.0
 20
0.0
  9
$LIMMAX
 10
1000.0
 20
700.0
  9
$ORTHOMODE
 70
     0
  9
$REGENMODE
 70
     1
  9
$FILLMODE
 70
     1
  9
$QTEXTMODE
 70
     0
  9
$MIRRTEXT
 70
     1
  9
$LTSCALE
 40
1.0
  9
$ATTMODE
 70
     1
  9
$TEXTSIZE
 40
5.0
  9
$TRACEWID
 40
1.0
  9
$TEXTSTYLE
  7
Standard
  9
$CLAYER
  8
0
  9
$CELTYPE
  6
ByLayer
  9
$CECOLOR
 62
   256
  9
$CELTSCALE
 40
1.0
  9
$DISPSILH
 70
     0
  9
$DIMSCALE
 40
1.0
  9
$DIMASZ
 40
6.0
  9
$DIMEXO
 40
1.0
  9
$DIMDLI
 40
3.75
  9
$DIMRND
 40
0.0
  9
$DIMDLE
 40
0.0
  9
$DIMEXE
 40
1.0
  9
$DIMTP
 40
0.0
  9
$DIMTM
 40
0.0
  9
$DIMTXT
 40
5.0
  9
$DIMCEN
 40
2.5
  9
$DIMTSZ
 40
0.0
  9
$DIMTOL
 70
     0
  9
$DIMLIM
 70
     0
  9
$DIMTIH
 70
     1
  9
$DIMTOH
 70
     1
  9
$DIMSE1
 70
     0
  9
$DIMSE2
 70
     0
  9
$DIMTAD
 70
     1
  9
$DIMZIN
 70
     0
  9
$DIMBLK
  1

  9
$DIMASO
 70
     1
  9
$DIMSHO
 70
     1
  9
$DIMPOST
  1

  9
$DIMAPOST
  1

  9
$DIMALT
 70
     0
  9
$DIMALTD
 70
     3
  9
$DIMALTF
 40
0.0393700787
  9
$DIMLFAC
 40
1.0
  9
$DIMTOFL
 70
     1
  9
$DIMTVP
 40
0.0
  9
$DIMTIX
 70
     0
  9
$DIMSOXD
 70
     0
  9
$DIMSAH
 70
     0
  9
$DIMBLK1
  1

  9
$DIMBLK2
  1

  9
$DIMSTYLE
  2
ISO-25
  9
$DIMCLRD
 70
     0
  9
$DIMCLRE
 70
     0
  9
$DIMCLRT
 70
     0
  9
$DIMTFAC
 40
1.0
  9
$DIMGAP
 40
1.524
  9
$DIMJUST
 70
     0
  9
$DIMSD1
 70
     0
  9
$DIMSD2
 70
     0
  9
$DIMTOLJ
 70
     0
  9
$DIMTZIN
 70
     0
  9
$DIMALTZ
 70
     0
  9
$DIMALTTZ
 70
     0
  9
$DIMUPT
 70
     0
  9
$DIMDEC
 70
     2
  9
$DIMTDEC
 70
     2
  9
$DIMALTU
 70
     2
  9
$DIMALTTD
 70
     3
  9
$DIMTXSTY
  7
Standard
  9
$DIMAUNIT
 70
     0
  9
$DIMADEC
 70
     2
  9
$DIMALTRND
 40
0.0
  9
$DIMAZIN
 70
     0
  9
$DIMDSEP
 70
    44
  9
$DIMATFIT
 70
     3
  9
$DIMFRAC
 70
     0
  9
$DIMLDRBLK
  1

  9
$DIMLUNIT
 70
     2
  9
$DIMLWD
 70
    -2
  9
$DIMLWE
 70
    -2
  9
$DIMTMOVE
 70
     0
  9
$LUNITS
 70
     2
  9
$LUPREC
 70
     2
  9
$SKETCHINC
 40
1.0
  9
$FILLETRAD
 40
10.0
  9
$AUNITS
 70
     0
  9
$AUPREC
 70
     2
  9
$MENU
  1
.
  9
$ELEVATION
 40
0.0
  9
$PELEVATION
 40
0.0
  9
$THICKNESS
 40
0.0
  9
$LIMCHECK
 70
     0
  9
$CHAMFERA
 40
0.0
  9
$CHAMFERB
 40
0.0
  9
$CHAMFERC
 40
0.0
  9
$CHAMFERD
 40
0.0
  9
$SKPOLY
 70
     0
  9
$TDCREATE
 40
2458579.603991331
  9
$TDUCREATE
 40
2458579.478991331
  9
$TDUPDATE
 40
2458579.603992002
  9
$TDUUPDATE
 40
2458579.478992002
  9
$TDINDWG
 40
0.0000000116
  9
$TDUSRTIMER
 40
0.0000000116
  9
$USRTIMER
 70
     1
  9
$ANGBASE
 50
0.0
  9
$ANGDIR
 70
     0
  9
$PDMODE
 70
     0
  9
$PDSIZE
 40
-1.0
  9
$PLINEWID
 40
0.0
  9
$SPLFRAME
 70
     0
  9
$SPLINETYPE
 70
     6
  9
$SPLINESEGS
 70
     8
  9
$HANDSEED
  5
D6
  9
$SURFTAB1
 70
     6
  9
$SURFTAB2
 70
     6
  9
$SURFTYPE
 70
     6
  9
$SURFU
 70
     6
  9
$SURFV
 70
     6
  9
$UCSBASE
  2

  9
$UCSNAME
  2

  9
$UCSORG
 10
0.0
 20
0.0
 30
0.0
  9
$UCSXDIR
 10
1.0
 20
0.0
 30
0.0
  9
$UCSYDIR
 10
0.0
 20
1.0
 30
0.0
  9
$UCSORTHOREF
  2

  9
$UCSORTHOVIEW
 70
     0
  9
$UCSORGTOP
 10
0.0
 20
0.0
 30
0.0
  9
$UCSORGBOTTOM
 10
0.0
 20
0.0
 30
0.0
  9
$UCSORGLEFT
 10
0.0
 20
0.0
 30
0.0
  9
$UCSORGRIGHT
 10
0.0
 20
0.0
 30
0.0
  9
$UCSORGFRONT
 10
0.0
 20
0.0
 30
0.0
  9
$UCSORGBACK
 10
0.0
 20
0.0
 30
0.0
  9
$PUCSBASE
  2

  9
$PUCSNAME
  2

  9
$PUCSORG
 10
0.0
 20
0.0
 30
0.0
  9
$PUCSXDIR
 10
1.0
 20
0.0
 30
0.0
  9
$PUCSYDIR
 10
0.0
 20
1.0
 30
0.0
  9
$PUCSORTHOREF
  2

  9
$PUCSORTHOVIEW
 70
     0
  9
$PUCSORGTOP
 10
0.0
 20
0.0
 30
0.0
  9
$PUCSORGBOTTOM
 10
0.0
 20
0.0
 30
0.0
  9
$PUCSORGLEFT
 10
0.0
 20
0.0
 30
0.0
  9
$PUCSORGRIGHT
 10
0.0
 20
0.0
 30
0.0
  9
$PUCSORGFRONT
 10
0.0
 20
0.0
 30
0.0
  9
$PUCSORGBACK
 10
0.0
 20
0.0
 30
0.0
  9
$USERI1
 70
     0
  9
$USERI2
 70
     0
  9
$USERI3
 70
     0
  9
$USERI4
 70
     0
  9
$USERI5
 70
     0
  9
$USERR1
 40
0.0
  9
$USERR2
 40
0.0
  9
$USERR3
 40
0.0
  9
$USERR4
 40
0.0
  9
$USERR5
 40
0.0
  9
$WORLDVIEW
 70
     1
  9
$SHADEDGE
 70
     3
  9
$SHADEDIF
 70
    70
  9
$TILEMODE
 70
     1
  9
$MAXACTVP
 70
    64
  9
$PINSBASE
 10
0.0
 20
0.0
 30
0.0
  9
$PLIMCHECK
 70
     0
  9
$PEXTMIN
 10
1.0000000000E+20
 20
1.0000000000E+20
 30
1.0000000000E+20
  9
$PEXTMAX
 10
-1.0000000000E+20
 20
-1.0000000000E+20
 30
-1.0000000000E+20
  9
$PLIMMIN
 10
0.0
 20
0.0
  9
$PLIMMAX
 10
420.0
 20
297.0
  9
$UNITMODE
 70
     0
  9
$VISRETAIN
 70
     1
  9
$PLINEGEN
 70
     0
  9
$PSLTSCALE
 70
     1
  9
$TREEDEPTH
 70
  3020
  9
$CMLSTYLE
  2
Standard
  9
$CMLJUST
 70
     0
  9
$CMLSCALE
 40
20.0
  9
$PROXYGRAPHICS
 70
     1
  9
$MEASUREMENT
 70
     1
  9
$CELWEIGHT
370
    -1
  9
$ENDCAPS
280
     0
  9
$JOINSTYLE
280
     0
  9
$LWDISPLAY
290
     1
  9
$INSUNITS
 70
     4
  9
$HYPERLINKBASE
  1

  9
$STYLESHEET
  1

  9
$XEDIT
290
     1
  9
$CEPSNTYPE
380
     0
  9
$PSTYLEMODE
290
     1
  9
$FINGERPRINTGUID
  2
{E7A84D7B-ABD1-486B-AC54-A5E6F977F494}
  9
$VERSIONGUID
  2
{FAEB1C32-E019-11D5-929B-00C0DF256EC4}
  9
$EXTNAMES
290
     1
  9
$PSVPSCALE
 40
0.0
  9
$OLESTARTUP
290
     0
  0
ENDSEC
  0
SECTION
  2
CLASSES
  0
CLASS
  1
ACDBDICTIONARYWDFLT
  2
AcDbDictionaryWithDefault
  3
ObjectDBX Classes
 90
        0
280
     0
281
     0
  0
CLASS
  1
VISUALSTYLE
  2
AcDbVisualStyle
  3
ObjectDBX Classes
 90
     4095
280
     0
281
     0
  0
CLASS
  1
MATERIAL
  2
AcDbMaterial
  3
ObjectDBX Classes
 90
     1153
280
     0
281
     0
  0
CLASS
  1
SCALE
  2
AcDbScale
  3
ObjectDBX Classes
 90
     1153
280
     0
281
     0
  0
CLASS
  1
TABLESTYLE
  2
AcDbTableStyle
  3
ObjectDBX Classes
 90
     4095
280
     0
281
     0
  0
CLASS
  1
MLEADERSTYLE
  2
AcDbMLeaderStyle
  3
ACDB_MLEADERSTYLE_CLASS
 90
     4095
280
     0
281
     0
  0
CLASS
  1
SUN
  2
AcDbSun
  3
SCENEOE
 90
     1153
280
     0
281
     0
  0
CLASS
  1
ACDBPLACEHOLDER
  2
AcDbPlaceHolder
  3
ObjectDBX Classes
 90
        0
280
     0
281
     0
  0
CLASS
  1
LAYOUT
  2
AcDbLayout
  3
ObjectDBX Classes
 90
        0
280
     0
281
     0
  0
ENDSEC
  0
SECTION
  2
TABLES
  0
TABLE
  2
VPORT
  5
8
330
0
100
AcDbSymbolTable
 70
     1
  0
VPORT
  5
29
330
8
100
AcDbSymbolTableRecord
100
AcDbViewportTableRecord
  2
*Active
 70
     0
 10
0.0
 20
0.0
 11
1.0
 21
1.0
 12
500.0
 22
350.0
 13
0.0
 23
0.0
 14
10.0
 24
10.0
 15
10.0
 25
10.0
 16
0.0
 26
0.0
 36
1.0
 17
0.0
 27
0.0
 37
0.0
 40
700.0
 41
1.4285714286
 42
50.0
 43
0.0
 44
0.0
 50
0.0
 51
0.0
 71
     0
 72
  2000
 73
     1
 74
     3
 75
     0
 76
     0
 77
     0
 78
     0
281
     0
 65
     1
110
0.0
120
0.0
130
0.0
111
1.0
121
0.0
131
0.0
112
0.0
122
1.0
132
0.0
 79
     0
146
0.0
  0
ENDTAB
  0
TABLE
  2
LTYPE
  5
5
330
0
100
AcDbSymbolTable
 70
     6
  0
LTYPE
  5
14
330
5
100
AcDbSymbolTableRecord
100
AcDbLinetypeTableRecord
  2
ByBlock
 70
     0
  3

 72
    65
 73
     0
 40
0.0
  0
LTYPE
  5
15
330
5
100
AcDbSymbolTableRecord
100
AcDbLinetypeTableRecord
  2
ByLayer
 70
     0
  3

 72
    65
 73
     0
 40
0.0
  0
LTYPE
  5
16
330
5
100
AcDbSymbolTableRecord
100
AcDbLinetypeTableRecord
  2
Continuous
 70
     0
  3
Solid line
 72
    65
 73
     0
 40
0.0
  0
LTYPE
  5
6E
330
5
100
AcDbSymbolTableRecord
100
AcDbLinetypeTableRecord
  2
HIDDEN
 70
     0
  3
Hidden __ __ __ __ __ __ __ __ __ __ __ __ __ __
 72
    65
 73
     2
 40
1.905
 49
1.27
 74
     0
 49
-0.635
 74
     0
  0
LTYPE
  5
6F
330
5
100
AcDbSymbolTableRecord
100
AcDbLinetypeTableRecord
  2
PHANTOM
 70
     0
  3
Phantom ______  __  __  ______  __  __  ______
 72
    65
 73
     6
 40
12.7
 49
6.35
 74
     0
 49
-1.27
 74
     0
 49
1.27
 74
     0
 49
-1.27
 74
     0
 49
1.27
 74
     0
 49
-1.27
 74
     0
  0
LTYPE
  5
70
330
5
100
AcDbSymbolTableRecord
100
AcDbLinetypeTableRecord
  2
CENTER
 70
     0
  3
Center ____ _ ____ _ ____ _ ____ _ ____ _ ____
 72
    65
 73
     4
 40
10.16
 49
6.35
 74
     0
 49
-1.27
 74
     0
 49
1.27
 74
     0
 49
-1.27
 74
     0
  0
LTYPE
  5
71
330
5
100
AcDbSymbolTableRecord
100
AcDbLinetypeTableRecord
  2
CENTERX2
 70
     0
  3
Center (2x) ________  __  ________  __  _____
 72
    65
 73
     4
 40
20.32
 49
12.7
 74
     0
 49
-2.54
 74
     0
 49
2.54
 74
     0
 49
-2.54
 74
     0
  0
LTYPE
  5
72
330
5
100
AcDbSymbolTableRecord
100
AcDbLinetypeTableRecord
  2
DOT2
 70
     0
  3
Dot (.5x) ........................................
 72
    65
 73
     2
 40
0.635
 49
0.0
 74
     0
 49
-0.635
 74
     0
  0
ENDTAB
  0
TABLE
  2
LAYER
  5
2
330
0
100
AcDbSymbolTable
 70
     2
  0
LAYER
  5
10
330
2
100
AcDbSymbolTableRecord
100
AcDbLayerTableRecord
  2
0
 70
     0
 62
     7
  6
Continuous
370
    -3
390
F
  0
LAYER
  5
73
330
2
100
AcDbSymbolTableRecord
100
AcDbLayerTableRecord
  2
TABLE_BL1
 70
     0
 62
   179
  6
Continuous
370
    -3
390
F
  0
ENDTAB
  0
TABLE
  2
STYLE
  5
3
330
0
100
AcDbSymbolTable
 70
     1
  0
STYLE
  5
11
330
3
100
AcDbSymbolTableRecord
100
AcDbTextStyleTableRecord
  2
Standard
 70
     0
 40
0.0
 41
1.0
 50
0.0
 71
     0
 42
5.0
  3
txt
  4

  0
ENDTAB
  0
TABLE
  2
VIEW
  5
6
330
0
100
AcDbSymbolTable
 70
     0
  0
ENDTAB
  0
TABLE
  2
UCS
  5
7
330
0
100
AcDbSymbolTable
 70
     0
  0
ENDTAB
  0
TABLE
  2
APPID
  5
9
330
0
100
AcDbSymbolTable
 70
     1
  0
APPID
  5
12
330
9
100
AcDbSymbolTableRecord
100
AcDbRegAppTableRecord
  2
ACAD
 70
     0
  0
ENDTAB
  0
TABLE
  2
DIMSTYLE
  5
A
330
0
100
AcDbSymbolTable
 70
     1
100
AcDbDimStyleTable
  0
DIMSTYLE
105
27
330
A
100
AcDbSymbolTableRecord
100
AcDbDimStyleTableRecord
  2
ISO-25
 70
     0
 41
2.5
 42
0.625
 43
3.75
 44
1.25
 73
     0
 74
     0
 77
     1
 78
     8
140
2.5
141
2.5
143
0.0393700787
147
0.625
171
     3
172
     1
178
     0
271
     2
272
     2
274
     3
278
    44
283
     0
284
     8
340
11
  0
ENDTAB
  0
TABLE
  2
BLOCK_RECORD
  5
1
330
0
100
AcDbSymbolTable
 70
     1
  0
BLOCK_RECORD
  5
1F
330
1
100
AcDbSymbolTableRecord
100
AcDbBlockTableRecord
  2
*Model_Space
340
22
  0
BLOCK_RECORD
  5
1B
330
1
100
AcDbSymbolTableRecord
100
AcDbBlockTableRecord
  2
*Paper_Space
340
1E
  0
BLOCK_RECORD
  5
23
330
1
100
AcDbSymbolTableRecord
100
AcDbBlockTableRecord
  2
*Paper_Space0
340
26
  0
ENDTAB
  0
ENDSEC
  0
SECTION
  2
BLOCKS
  0
BLOCK
  5
20
330
1F
100
AcDbEntity
  8
0
100
AcDbBlockBegin
  2
*Model_Space
 70
     0
 10
0.0
 20
0.0
 30
0.0
  3
*Model_Space
  1

  0
ENDBLK
  5
21
330
1F
100
AcDbEntity
  8
0
100
AcDbBlockEnd
  0
BLOCK
  5
1C
330
1B
100
AcDbEntity
 67
     1
  8
0
100
AcDbBlockBegin
  2
*Paper_Space
 70
     0
 10
0.0
 20
0.0
 30
0.0
  3
*Paper_Space
  1

  0
ENDBLK
  5
1D
330
1B
100
AcDbEntity
 67
     1
  8
0
100
AcDbBlockEnd
  0
BLOCK
  5
24
330
23
100
AcDbEntity
  8
0
100
AcDbBlockBegin
  2
*Paper_Space0
 70
     0
 10
0.0
 20
0.0
 30
0.0
  3
*Paper_Space0
  1

  0
ENDBLK
  5
25
330
23
100
AcDbEntity
  8
0
100
AcDbBlockEnd
  0
ENDSEC
  0
SECTION
  2
ENTITIES
  0
SPLINE
  5
74
330
1F
100
AcDbEntity
  8
0
  6
Continuous
 62
     7
370
    25
100
AcDbSpline
210
0.0
220
0.0
230
1.0
 70
     8
 71
     3
 72
    29
 73
    25
 74
     0
 42
0.000000001
 43
0.00000001
 40
0.0
 40
0.0
 40
0.0
 40
0.0
 40
0.0349321998678812
 40
0.0633981099804966
 40
0.0838985724314694
 40
0.1410481936943099
 40
0.1993927238102413
 40
0.2579539110016946
 40
0.3167358992884632
 40
0.3756685630932071
 40
0.434711118080255
 40
0.4938368693623998
 40
0.553011675643949
 40
0.6120983328089926
 40
0.6710428596167158
 40
0.7298262047648363
 40
0.7884258539569362
 40
0.846795845125975
 40
0.8655669595251747
 40
0.8834824216511921
 40
0.9012873325479551
 40
0.9267778402870536
 40
0.9604935046002843
 40
0.9999999999999999
 40
0.9999999999999999
 40
0.9999999999999999
 40
0.9999999999999999
 10
520.1484715606739
 20
428.163052750839
 30
0.0
 10
520.681519195392
 20
429.4168681634346
 30
0.0
 10
521.6489421661331
 20
431.692405567996
 30
0.0
 10
522.53277308024
 20
434.8473811142155
 30
0.0
 10
523.3668331820729
 20
438.8977639745717
 30
0.0
 10
523.7911489238985
 20
444.2122314987059
 30
0.0
 10
523.1011320065503
 20
450.9955302867825
 30
0.0
 10
521.1647419871549
 20
457.6019884621256
 30
0.0
 10
518.0397269645272
 20
463.761866003754
 30
0.0
 10
513.8235321283634
 20
469.2572361288895
 30
0.0
 10
508.65662083298
 20
473.890461463763
 30
0.0
 10
502.7149913897839
 20
477.4952175832272
 30
0.0
 10
496.2078301178161
 20
479.9404360237648
 30
0.0
 10
489.3680369512815
 20
481.1401266369683
 30
0.0
 10
482.4399274791663
 20
481.0582882675855
 30
0.0
 10
475.663677412945
 20
479.7071044747585
 30
0.0
 10
469.272395132109
 20
477.145746540389
 30
0.0
 10
464.7777397668245
 20
474.2956402579683
 30
0.0
 10
461.9113234826723
 20
471.9481374563226
 30
0.0
 10
460.3480462555712
 20
470.5097893199838
 30
0.0
 10
458.6845844118953
 20
468.7988044726781
 30
0.0
 10
456.7466515002635
 20
466.5054075124877
 30
0.0
 10
454.5153448968969
 20
463.3582012455478
 30
0.0
 10
453.2252889319719
 20
460.8094435426868
 30
0.0
 10
452.5292484130431
 20
459.4342794549596
 30
0.0
  0
SPLINE
  5
75
330
1F
100
AcDbEntity
  8
0
  6
Continuous
 62
     7
370
    25
100
AcDbSpline
210
0.0
220
0.0
230
1.0
 70
     8
 71
     3
 72
    29
 73
    25
 74
     0
 42
0.000000001
 43
0.00000001
 40
0.0
 40
0.0
 40
0.0
 40
0.0
 40
0.034932141981298
 40
0.0633980531916123
 40
0.0838985788787408
 40
0.1410482023453777
 40
0.1993926712975166
 40
0.2579538607471989
 40
0.3167359081453285
 40
0.3756685839226709
 40
0.4347111080453012
 40
0.4938368450762281
 40
0.5530116760612419
 40
0.6120983299986855
 40
0.6710428606945461
 40
0.7298262061559927
 40
0.7884258694654718
 40
0.8467958458212377
 40
0.8655669934656184
 40
0.8834824229771998
 40
0.9012873574184265
 40
0.9267779007565758
 40
0.960493531119113
 40
1.0
 40
1.0
 40
1.0
 40
1.0
 10
452.5292484130431
 20
459.4342794549596
 30
0.0
 10
451.9962006748668
 20
458.1804665843218
 30
0.0
 10
451.0287767798
 20
455.9049320606278
 30
0.0
 10
450.1449457394036
 20
452.7499562755368
 30
0.0
 10
449.3108886302035
 20
448.6995703544006
 30
0.0
 10
448.8865703120376
 20
443.3851033180158
 30
0.0
 10
449.5765886189662
 20
436.6018067738598
 30
0.0
 10
451.5129798414542
 20
429.9953497569452
 30
0.0
 10
454.6379904969112
 20
423.8354668147914
 30
0.0
 10
458.8541891527581
 20
418.3400978498209
 30
0.0
 10
464.0210990171681
 20
413.7068726582161
 30
0.0
 10
469.9627314765717
 20
410.1021251763838
 30
0.0
 10
476.4698875128729
 20
407.6568921553493
 30
0.0
 10
483.3096838484952
 20
406.4572125383316
 30
0.0
 10
490.2377922492403
 20
406.5390424637557
 30
0.0
 10
497.0140439516477
 20
407.8902266991005
 30
0.0
 10
503.4053219643793
 20
410.4515918561156
 30
0.0
 10
507.8999838019268
 20
413.301690586724
 30
0.0
 10
510.766395526777
 20
415.6491978053595
 30
0.0
 10
512.3296763426704
 20
417.0875433127645
 30
0.0
 10
513.9931349023676
 20
418.7985327892362
 30
0.0
 10
515.9310686998468
 20
421.0919298915986
 30
0.0
 10
518.1623749800812
 20
424.2391350570197
 30
0.0
 10
519.4524309379534
 20
426.7878899607724
 30
0.0
 10
520.1484715606739
 20
428.163052750839
 30
0.0
  0
ARC
  5
76
330
1F
100
AcDbEntity
  8
0
  6
Continuous
 62
     7
370
    25
100
AcDbCircle
 10
486.3388600031
 20
443.7986674741
 30
0.0
 40
36.31056399417611
100
AcDbArc
 50
155.1813223123
 51
335.1813223292
  0
ARC
  5
77
330
1F
100
AcDbEntity
  8
0
  6
Continuous
 62
     7
370
    25
100
AcDbCircle
 10
486.3388600031
 20
443.7986674741
 30
0.0
 40
36.31056399417611
100
AcDbArc
 50
335.1813223292
 51
155.1813223123
  0
SPLINE
  5
78
330
1F
100
AcDbEntity
  8
0
  6
Continuous
 62
     7
370
    25
100
AcDbSpline
210
0.0
220
0.0
230
1.0
 70
     8
 71
     3
 72
     9
 73
     5
 74
     0
 42
0.000000001
 43
0.00000001
 40
0.0
 40
0.0
 40
0.0
 40
0.0
 40
0.5599967926203449
 40
1.0
 40
1.0
 40
1.0
 40
1.0
 10
455.8547778095771
 20
420.6138860714566
 30
0.0
 10
455.6999156429351
 20
420.4961063647774
 30
0.0
 10
455.4233744757663
 20
420.2857842553809
 30
0.0
 10
455.0591167913955
 20
420.0087452790797
 30
0.0
 10
454.8988422419597
 20
419.8868472409379
 30
0.0
  0
SPLINE
  5
79
330
1F
100
AcDbEntity
  8
0
  6
Continuous
 62
     7
370
    25
100
AcDbSpline
210
0.0
220
0.0
230
1.0
 70
     8
 71
     3
 72
     9
 73
     5
 74
     0
 42
0.000000001
 43
0.00000001
 40
0.0
 40
0.0
 40
0.0
 40
0.0
 40
0.5600003389347219
 40
1.0
 40
1.0
 40
1.0
 40
1.0
 10
517.7788777317573
 20
467.710488690151
 30
0.0
 10
517.5739942072879
 20
467.5546653564255
 30
0.0
 10
517.2081309921706
 20
467.2764095717561
 30
0.0
 10
516.9406386875226
 20
467.0729626923329
 30
0.0
 10
516.8229421641399
 20
466.9834461343419
 30
0.0
  0
ARC
  5
7A
330
1F
100
AcDbEntity
  8
0
  6
Continuous
 62
     7
370
    25
100
AcDbCircle
 10
486.3388600031
 20
443.7986674741
 30
0.0
 40
38.29899805700008
100
AcDbArc
 50
37.2549368278
 51
217.2549368278
  0
ARC
  5
7B
330
1F
100
AcDbEntity
  8
0
  6
Continuous
 62
     7
370
    25
100
AcDbCircle
 10
486.3388600031
 20
443.7986674741
 30
0.0
 40
39.50000000000022
100
AcDbArc
 50
37.2549368278
 51
217.2549368513
  0
ARC
  5
7C
330
1F
100
AcDbEntity
  8
0
  6
Continuous
 62
     7
370
    25
100
AcDbCircle
 10
486.3388600031
 20
443.7986674741
 30
0.0
 40
38.29899805700008
100
AcDbArc
 50
217.2549368278
 51
37.2549368278
  0
ARC
  5
7D
330
1F
100
AcDbEntity
  8
0
  6
Continuous
 62
     7
370
    25
100
AcDbCircle
 10
486.3388600031
 20
443.7986674741
 30
0.0
 40
39.50000000000022
100
AcDbArc
 50
217.2549368513
 51
37.2549368176
  0
CIRCLE
  5
7E
330
1F
100
AcDbEntity
  8
0
  6
Continuous
 62
     7
370
    25
100
AcDbCircle
 10
486.3388600031
 20
443.7986674741
 30
0.0
 40
57.00000000000001
  0
SPLINE
  5
7F
330
1F
100
AcDbEntity
  8
0
  6
Continuous
 62
     7
370
    25
100
AcDbSpline
210
0.0
220
0.0
230
1.0
 70
     8
 71
     3
 72
    35
 73
    31
 74
     0
 42
0.000000001
 43
0.00000001
 40
0.0
 40
0.0
 40
0.0
 40
0.0
 40
0.0282546053911775
 40
0.0583834103412582
 40
0.0903494933607372
 40
0.1258616484334748
 40
0.1640104828777017
 40
0.2048405133033835
 40
0.2374624589982834
 40
0.2716126811136692
 40
0.307191404970556
 40
0.3440549746615661
 40
0.3820151007751046
 40
0.4208413509532079
 40
0.4602672561036993
 40
0.4999999905098763
 40
0.5397327225567535
 40
0.5791586304368771
 40
0.617984873431092
 40
0.6559450010981741
 40
0.6928085701076269
 40
0.7283873036613207
 40
0.7625375338235687
 40
0.7951594714393266
 40
0.8359928410707842
 40
0.8741416057005392
 40
0.909650448882716
 40
0.9416198567637556
 40
0.9717470202989081
 40
1.0
 40
1.0
 40
1.0
 40
1.0
 10
530.3467219736149
 20
439.1530391109121
 30
0.0
 10
530.4506436810034
 20
440.45839757286
 30
0.0
 10
530.665380485918
 20
443.1557022306746
 30
0.0
 10
530.5145793545825
 20
447.3468812644751
 30
0.0
 10
529.94083128349
 20
451.8371841302878
 30
0.0
 10
528.8003498084923
 20
456.605816020938
 30
0.0
 10
526.9778759464657
 20
461.59861747312
 30
0.0
 10
524.6106487678654
 20
466.2104159035743
 30
0.0
 10
521.835109314332
 20
470.3595878981413
 30
0.0
 10
518.7955381209483
 20
474.0093505055224
 30
0.0
 10
515.2330024399757
 20
477.4419916672734
 30
0.0
 10
511.162645712132
 20
480.5558763449117
 30
0.0
 10
506.6249663928669
 20
483.2482373577614
 30
0.0
 10
501.6868718866827
 20
485.4232027772131
 30
0.0
 10
496.440115811874
 20
487.0000383663257
 30
0.0
 10
490.9965744750148
 20
487.9209893397216
 30
0.0
 10
485.480723239558
 20
488.156951704712
 30
0.0
 10
480.0203708803268
 20
487.7104006216978
 30
0.0
 10
474.7369863218875
 20
486.6144546875007
 30
0.0
 10
469.7371580943953
 20
484.9289107751108
 30
0.0
 10
465.1063395707181
 20
482.7335505880217
 30
0.0
 10
460.9055899975723
 20
480.1204302793006
 30
0.0
 10
457.1709466045526
 20
477.185775177986
 30
0.0
 10
453.5901203346962
 20
473.7074878812423
 30
0.0
 10
450.3120659087363
 20
469.6914705276988
 30
0.0
 10
447.4872854988747
 20
465.1892400063205
 30
0.0
 10
445.3762964319821
 20
460.763834671265
 30
0.0
 10
443.8776230378817
 20
456.4923791973057
 30
0.0
 10
442.855120917422
 20
452.4250433530712
 30
0.0
 10
442.5019260890575
 20
449.7425089203385
 30
0.0
 10
442.3309980001022
 20
448.4443005454671
 30
0.0
  0
SPLINE
  5
80
330
1F
100
AcDbEntity
  8
0
  6
Continuous
 62
     7
370
    25
100
AcDbSpline
210
0.0
220
0.0
230
1.0
 70
     8
 71
     3
 72
    35
 73
    31
 74
     0
 42
0.000000001
 43
0.00000001
 40
0.0
 40
0.0
 40
0.0
 40
0.0
 40
0.0282546037447607
 40
0.0583834605350787
 40
0.0903495416918704
 40
0.1258616487671871
 40
0.1640104717924047
 40
0.2048405236914383
 40
0.237462489770045
 40
0.2716127098954721
 40
0.3071914316791604
 40
0.344054999222103
 40
0.3820151231236769
 40
0.4208413602325456
 40
0.4602672708022681
 40
0.4999999984208985
 40
0.539732729716999
 40
0.5791586392528417
 40
0.6179848799846228
 40
0.6559450054397402
 40
0.6928085608161907
 40
0.7283872922966853
 40
0.7625375204689742
 40
0.7951594561838277
 40
0.8359928234358945
 40
0.8741415631335648
 40
0.9096504526518835
 40
0.941619808096588
 40
0.9717470219452301
 40
0.9999999999999999
 40
0.9999999999999999
 40
0.9999999999999999
 40
0.9999999999999999
 10
442.3309980001022
 20
448.4443005454671
 30
0.0
 10
442.2270763062639
 20
447.1389420750589
 30
0.0
 10
442.0123393322207
 20
444.4416349236414
 30
0.0
 10
442.1631407712361
 20
440.2504535286116
 30
0.0
 10
442.7368864328845
 20
435.760149686172
 30
0.0
 10
443.8773775432547
 20
430.9915228922716
 30
0.0
 10
445.6998430071699
 20
425.9987202698733
 30
0.0
 10
448.0670719065052
 20
421.3869205134627
 30
0.0
 10
450.8426093810684
 20
417.2377447059616
 30
0.0
 10
453.8821820381674
 20
413.5879818377397
 30
0.0
 10
457.4447174440491
 20
410.1553404033342
 30
0.0
 10
461.5150744327079
 20
407.0414562766888
 30
0.0
 10
466.0527525343564
 20
404.349093519342
 30
0.0
 10
470.9908498349118
 20
402.174135749977
 30
0.0
 10
476.2376028725476
 20
400.5972905133534
 30
0.0
 10
481.6811461349437
 20
399.6763504162392
 30
0.0
 10
487.1969969843901
 20
399.4403759218361
 30
0.0
 10
492.6573486941247
 20
399.8869422326342
 30
0.0
 10
497.9407338477075
 20
400.9828838351345
 30
0.0
 10
502.9405608243451
 20
402.6684300562727
 30
0.0
 10
507.571381369336
 20
404.8637844879811
 30
0.0
 10
511.7721298617991
 20
407.4769059302207
 30
0.0
 10
515.5067733438772
 20
410.4115607135807
 30
0.0
 10
519.0875998549632
 20
413.8898479487875
 30
0.0
 10
522.3656523424124
 20
417.9058651636566
 30
0.0
 10
525.1904381271157
 20
422.4080940614242
 30
0.0
 10
527.3014195789063
 20
426.8335016632047
 30
0.0
 10
528.8001000217658
 20
431.1049569878752
 30
0.0
 10
529.82259787238
 20
435.1722941564453
 30
0.0
 10
530.1757936012915
 20
437.8548308161622
 30
0.0
 10
530.3467219736149
 20
439.1530391109121
 30
0.0
  0
ARC
  5
81
330
1F
100
AcDbEntity
  8
0
  6
Continuous
 62
     7
370
    25
100
AcDbCircle
 10
486.3388600031
 20
443.7986674741
 30
0.0
 40
40.35476230894871
100
AcDbArc
 50
173.973964907
 51
353.973964907
  0
ARC
  5
82
330
1F
100
AcDbEntity
  8
0
  6
Continuous
 62
     7
370
    25
100
AcDbCircle
 10
486.3388600031
 20
443.7986674741
 30
0.0
 40
40.35476230894871
100
AcDbArc
 50
353.973964907
 51
173.973964907
  0
CIRCLE
  5
83
330
1F
100
AcDbEntity
  8
0
  6
Continuous
 62
     7
370
    25
100
AcDbCircle
 10
486.3388600031
 20
443.7986674741
 30
0.0
 40
39.93812333100002
  0
LINE
  5
84
330
1F
100
AcDbEntity
  8
0
  6
Continuous
 62
     7
370
    25
100
AcDbLine
 10
314.3388001289
 20
548.7986590994
 30
0.0
 11
314.3388001289
 21
178.798654331
 31
0.0
  0
LINE
  5
85
330
1F
100
AcDbEntity
  8
0
  6
Continuous
 62
     7
370
    25
100
AcDbLine
 10
316.338804182
 20
548.7986590994
 30
0.0
 11
314.3388001289
 21
548.7986590994
 31
0.0
  0
LINE
  5
86
330
1F
100
AcDbEntity
  8
0
  6
Continuous
 62
     7
370
    25
100
AcDbLine
 10
316.338804182
 20
178.798654331
 30
0.0
 11
316.338804182
 21
548.7986590994
 31
0.0
  0
LINE
  5
87
330
1F
100
AcDbEntity
  8
0
  6
Continuous
 62
     7
370
    25
100
AcDbLine
 10
314.3388001289
 20
178.798654331
 30
0.0
 11
316.338804182
 21
178.798654331
 31
0.0
  0
LINE
  5
88
330
1F
100
AcDbEntity
  8
0
  6
Continuous
 62
     7
370
    25
100
AcDbLine
 10
331.3388047781
 20
563.7986596954
 30
0.0
 11
641.3388071622
 21
563.7986596954
 31
0.0
  0
LINE
  5
89
330
1F
100
AcDbEntity
  8
0
  6
Continuous
 62
     7
370
    25
100
AcDbLine
 10
331.3388047781
 20
565.7986637485
 30
0.0
 11
331.3388047781
 21
563.7986596954
 31
0.0
  0
LINE
  5
8A
330
1F
100
AcDbEntity
  8
0
  6
Continuous
 62
     7
370
    25
100
AcDbLine
 10
641.3388071622
 20
565.7986637485
 30
0.0
 11
331.3388047781
 21
565.7986637485
 31
0.0
  0
LINE
  5
8B
330
1F
100
AcDbEntity
  8
0
  6
Continuous
 62
     7
370
    25
100
AcDbLine
 10
641.3388071622
 20
565.7986637485
 30
0.0
 11
641.3388071622
 21
563.7986596954
 31
0.0
  0
SPLINE
  5
8C
330
1F
100
AcDbEntity
  8
0
  6
Continuous
 62
     7
370
    25
100
AcDbSpline
210
0.0
220
0.0
230
1.0
 70
     8
 71
     3
 72
    10
 73
     6
 74
     0
 42
0.000000001
 43
0.00000001
 40
0.0
 40
0.0
 40
0.0
 40
0.0
 40
0.4999999999999999
 40
0.4999999999999999
 40
0.9999999999999999
 40
0.9999999999999999
 40
0.9999999999999999
 40
0.9999999999999999
 10
331.3388059701492
 20
161.7986567151678
 30
0.0
 10
326.8302532421492
 20
161.7986567151678
 30
0.0
 10
322.5060188972838
 20
163.5898132276906
 30
0.0
 10
316.129962482672
 20
169.9658696423024
 30
0.0
 10
314.3388059701492
 20
174.2901039871678
 30
0.0
 10
314.3388059701492
 20
178.7986567151678
 30
0.0
  0
LINE
  5
8D
330
1F
100
AcDbEntity
  8
0
  6
Continuous
 62
     7
370
    25
100
AcDbLine
 10
331.3388047781
 20
161.7986496818
 30
0.0
 11
641.3388071622
 21
161.7986496818
 31
0.0
  0
SPLINE
  5
8E
330
1F
100
AcDbEntity
  8
0
  6
Continuous
 62
     7
370
    25
100
AcDbSpline
210
0.0
220
0.0
230
1.0
 70
     8
 71
     3
 72
    10
 73
     6
 74
     0
 42
0.000000001
 43
0.00000001
 40
0.0
 40
0.0
 40
0.0
 40
0.0
 40
0.4999999999999999
 40
0.4999999999999999
 40
0.9999999999999999
 40
0.9999999999999999
 40
0.9999999999999999
 40
0.9999999999999999
 10
658.3388059701491
 20
178.7986567151678
 30
0.0
 10
658.3388059701491
 20
174.2901039871678
 30
0.0
 10
656.5476494576263
 20
169.9658696423024
 30
0.0
 10
650.1715930430146
 20
163.5898132276905
 30
0.0
 10
645.8473586981492
 20
161.7986567151677
 30
0.0
 10
641.3388059701491
 20
161.7986567151677
 30
0.0
  0
LINE
  5
8F
330
1F
100
AcDbEntity
  8
0
  6
Continuous
 62
     7
370
    25
100
AcDbLine
 10
658.3388118114
 20
178.798654331
 30
0.0
 11
658.3388118114
 21
548.7986590994
 31
0.0
  0
SPLINE
  5
90
330
1F
100
AcDbEntity
  8
0
  6
Continuous
 62
     7
370
    25
100
AcDbSpline
210
0.0
220
0.0
230
1.0
 70
     8
 71
     3
 72
    10
 73
     6
 74
     0
 42
0.000000001
 43
0.00000001
 40
0.0
 40
0.0
 40
0.0
 40
0.0
 40
0.5
 40
0.5
 40
1.0
 40
1.0
 40
1.0
 40
1.0
 10
641.3388059701491
 20
565.7986567151678
 30
0.0
 10
645.8473586981493
 20
565.7986567151678
 30
0.0
 10
650.1715930430146
 20
564.007500202645
 30
0.0
 10
656.5476494576263
 20
557.6314437880332
 30
0.0
 10
658.3388059701491
 20
553.3072094431677
 30
0.0
 10
658.3388059701491
 20
548.7986567151677
 30
0.0
  0
SPLINE
  5
91
330
1F
100
AcDbEntity
  8
0
  6
Continuous
 62
     7
370
    25
100
AcDbSpline
210
0.0
220
0.0
230
1.0
 70
     8
 71
     3
 72
    10
 73
     6
 74
     0
 42
0.000000001
 43
0.00000001
 40
0.0
 40
0.0
 40
0.0
 40
0.0
 40
0.4999999999999999
 40
0.4999999999999999
 40
0.9999999999999999
 40
0.9999999999999999
 40
0.9999999999999999
 40
0.9999999999999999
 10
314.3388059701492
 20
548.7986567151677
 30
0.0
 10
314.3388059701492
 20
553.3072094431677
 30
0.0
 10
316.129962482672
 20
557.6314437880332
 30
0.0
 10
322.5060188972838
 20
564.007500202645
 30
0.0
 10
326.8302532421492
 20
565.7986567151677
 30
0.0
 10
331.3388059701492
 20
565.7986567151677
 30
0.0
  0
ARC
  5
92
330
1F
100
AcDbEntity
  8
0
  6
Continuous
 62
     7
370
    25
100
AcDbCircle
 10
306.3388059711
 20
153.7986567192
 30
0.0
 40
9.500000003999958
100
AcDbArc
 50
180.0000000241
 51
269.9999999943
  0
LINE
  5
93
330
1F
100
AcDbEntity
  8
0
  6
Continuous
 62
     7
370
    25
100
AcDbLine
 10
296.838801917
 20
573.7986501587
 30
0.0
 11
296.838801917
 21
153.7986632717
 31
0.0
  0
ARC
  5
94
330
1F
100
AcDbEntity
  8
0
  6
Continuous
 62
     7
370
    25
100
AcDbCircle
 10
306.3388059711
 20
573.7986567112
 30
0.0
 40
9.500000003499963
100
AcDbArc
 50
90.000000006
 51
179.9999999828
  0
LINE
  5
95
330
1F
100
AcDbEntity
  8
0
  6
Continuous
 62
     7
370
    25
100
AcDbLine
 10
666.3388131227
 20
583.2986619604
 30
0.0
 11
306.3387988176
 21
583.2986619604
 31
0.0
  0
ARC
  5
96
330
1F
100
AcDbEntity
  8
0
  6
Continuous
 62
     7
370
    25
100
AcDbCircle
 10
666.3388059661
 20
573.7986567142
 30
0.0
 40
9.500000003499963
100
AcDbArc
 50
0.000000006
 51
89.9999999771
  0
LINE
  5
97
330
1F
100
AcDbEntity
  8
0
  6
Continuous
 62
     7
370
    25
100
AcDbLine
 10
675.8388100233
 20
153.7986632717
 30
0.0
 11
675.8388100233
 21
573.7986501587
 31
0.0
  0
ARC
  5
98
330
1F
100
AcDbEntity
  8
0
  6
Continuous
 62
     7
370
    25
100
AcDbCircle
 10
666.3388059691
 20
153.7986567192
 30
0.0
 40
9.500000003999958
100
AcDbArc
 50
270.0000000057
 51
359.9999999771
  0
LINE
  5
99
330
1F
100
AcDbEntity
  8
0
  6
Continuous
 62
     7
370
    25
100
AcDbLine
 10
306.3387988176
 20
144.29865147
 30
0.0
 11
666.3388131227
 21
144.29865147
 31
0.0
  0
LINE
  5
9A
330
1F
100
AcDbEntity
  8
0
  6
Continuous
 62
     7
370
    25
100
AcDbLine
 10
331.3388047781
 20
163.7986537349
 30
0.0
 11
331.3388047781
 21
161.7986496818
 31
0.0
  0
LINE
  5
9B
330
1F
100
AcDbEntity
  8
0
  6
Continuous
 62
     7
370
    25
100
AcDbLine
 10
641.3388071622
 20
163.7986537349
 30
0.0
 11
331.3388047781
 21
163.7986537349
 31
0.0
  0
LINE
  5
9C
330
1F
100
AcDbEntity
  8
0
  6
Continuous
 62
     7
370
    25
100
AcDbLine
 10
641.3388071622
 20
163.7986537349
 30
0.0
 11
641.3388071622
 21
161.7986496818
 31
0.0
  0
LINE
  5
9D
330
1F
100
AcDbEntity
  8
0
  6
Continuous
 62
     7
370
    25
100
AcDbLine
 10
658.3388118114
 20
548.7986590994
 30
0.0
 11
656.3388077583
 21
548.7986590994
 31
0.0
  0
LINE
  5
9E
330
1F
100
AcDbEntity
  8
0
  6
Continuous
 62
     7
370
    25
100
AcDbLine
 10
656.3388077583
 20
178.798654331
 30
0.0
 11
658.3388118114
 21
178.798654331
 31
0.0
  0
LINE
  5
9F
330
1F
100
AcDbEntity
  8
0
  6
Continuous
 62
     7
370
    25
100
AcDbLine
 10
656.3388077583
 20
548.7986590994
 30
0.0
 11
656.3388077583
 21
178.798654331
 31
0.0
  0
ARC
  5
A0
330
1F
100
AcDbEntity
  8
0
  6
Continuous
 62
     7
370
    25
100
AcDbCircle
 10
331.3388059701
 20
548.7986567152
 30
0.0
 40
15.00000000000011
100
AcDbArc
 50
90.0
 51
180.0
  0
ARC
  5
A1
330
1F
100
AcDbEntity
  8
0
  6
Continuous
 62
     7
370
    25
100
AcDbCircle
 10
331.3388059701
 20
178.7986567152
 30
0.0
 40
15.00000000000006
100
AcDbArc
 50
180.0
 51
270.0
  0
ARC
  5
A2
330
1F
100
AcDbEntity
  8
0
  6
Continuous
 62
     7
370
    25
100
AcDbCircle
 10
641.3388059701
 20
178.7986567152
 30
0.0
 40
15.00000000000003
100
AcDbArc
 50
270.0
 51
0.0
  0
ARC
  5
A3
330
1F
100
AcDbEntity
  8
0
  6
Continuous
 62
     7
370
    25
100
AcDbCircle
 10
641.3388059701
 20
548.7986567152
 30
0.0
 40
15.00000000000011
100
AcDbArc
 50
0.0
 51
90.0
  0
LINE
  5
A4
330
1F
100
AcDbEntity
  8
0
  6
Continuous
 62
     7
370
    25
100
AcDbLine
 10
296.838801917
 20
153.7986632717
 30
0.0
 11
296.3388083543
 21
153.7986632717
 31
0.0
  0
LINE
  5
A5
330
1F
100
AcDbEntity
  8
0
  6
Continuous
 62
     7
370
    25
100
AcDbLine
 10
296.3388083543
 20
153.7986632717
 30
0.0
 11
296.3388083543
 21
573.7986501587
 31
0.0
  0
LINE
  5
A6
330
1F
100
AcDbEntity
  8
0
  6
Continuous
 62
     7
370
    25
100
AcDbLine
 10
296.838801917
 20
573.7986501587
 30
0.0
 11
296.3388083543
 21
573.7986501587
 31
0.0
  0
ARC
  5
A7
330
1F
100
AcDbEntity
  8
0
  6
Continuous
 62
     7
370
    25
100
AcDbCircle
 10
306.3388059711
 20
573.7986567112
 30
0.0
 40
10.00000000399984
100
AcDbArc
 50
90.0000000057
 51
179.9999999828
  0
LINE
  5
A8
330
1F
100
AcDbEntity
  8
0
  6
Continuous
 62
     7
370
    25
100
AcDbLine
 10
306.3387988176
 20
583.7986555231
 30
0.0
 11
306.3387988176
 21
583.2986619604
 31
0.0
  0
ARC
  5
A9
330
1F
100
AcDbEntity
  8
0
  6
Continuous
 62
     7
370
    25
100
AcDbCircle
 10
666.3388059691
 20
153.7986567192
 30
0.0
 40
10.00000000399996
100
AcDbArc
 50
270.0000000057
 51
359.9999999771
  0
LINE
  5
AA
330
1F
100
AcDbEntity
  8
0
  6
Continuous
 62
     7
370
    25
100
AcDbLine
 10
666.3388131227
 20
144.29865147
 30
0.0
 11
666.3388131227
 21
143.7986579073
 31
0.0
  0
LINE
  5
AB
330
1F
100
AcDbEntity
  8
0
  6
Continuous
 62
     7
370
    25
100
AcDbLine
 10
676.338803586
 20
153.7986632717
 30
0.0
 11
675.8388100233
 21
153.7986632717
 31
0.0
  0
LINE
  5
AC
330
1F
100
AcDbEntity
  8
0
  6
Continuous
 62
     7
370
    25
100
AcDbLine
 10
306.3387988176
 20
144.29865147
 30
0.0
 11
306.3387988176
 21
143.7986579073
 31
0.0
  0
ARC
  5
AD
330
1F
100
AcDbEntity
  8
0
  6
Continuous
 62
     7
370
    25
100
AcDbCircle
 10
306.3388059711
 20
153.7986567192
 30
0.0
 40
10.00000000350002
100
AcDbArc
 50
180.0000000229
 51
269.9999999943
  0
LINE
  5
AE
330
1F
100
AcDbEntity
  8
0
  6
Continuous
 62
     7
370
    25
100
AcDbLine
 10
666.3388131227
 20
143.7986579073
 30
0.0
 11
306.3387988176
 21
143.7986579073
 31
0.0
  0
LINE
  5
AF
330
1F
100
AcDbEntity
  8
0
  6
Continuous
 62
     7
370
    25
100
AcDbLine
 10
306.3387988176
 20
583.7986555231
 30
0.0
 11
666.3388131227
 21
583.7986555231
 31
0.0
  0
LINE
  5
B0
330
1F
100
AcDbEntity
  8
0
  6
Continuous
 62
     7
370
    25
100
AcDbLine
 10
666.3388131227
 20
583.7986555231
 30
0.0
 11
666.3388131227
 21
583.2986619604
 31
0.0
  0
ARC
  5
B1
330
1F
100
AcDbEntity
  8
0
  6
Continuous
 62
     7
370
    25
100
AcDbCircle
 10
666.3388059661
 20
573.7986567142
 30
0.0
 40
10.00000000399996
100
AcDbArc
 50
0.0000000057
 51
89.9999999771
  0
LINE
  5
B2
330
1F
100
AcDbEntity
  8
0
  6
Continuous
 62
     7
370
    25
100
AcDbLine
 10
676.338803586
 20
573.7986501587
 30
0.0
 11
675.8388100233
 21
573.7986501587
 31
0.0
  0
LINE
  5
B3
330
1F
100
AcDbEntity
  8
0
  6
Continuous
 62
     7
370
    25
100
AcDbLine
 10
676.338803586
 20
573.7986501587
 30
0.0
 11
676.338803586
 21
153.7986632717
 31
0.0
  0
SPLINE
  5
B4
330
1F
100
AcDbEntity
  8
0
  6
Continuous
 62
     7
370
    25
100
AcDbSpline
210
0.0
220
0.0
230
1.0
 70
     8
 71
     3
 72
    14
 73
    10
 74
     0
 42
0.000000001
 43
0.00000001
 40
0.0
 40
0.0
 40
0.0
 40
0.0
 40
0.25
 40
0.25
 40
0.5
 40
0.5
 40
0.75
 40
0.75
 40
1.0
 40
1.0
 40
1.0
 40
1.0
 10
331.187527987969
 20
178.5565244496448
 30
0.0
 10
329.2367385083961
 20
178.5568420738902
 30
0.0
 10
327.2905805457182
 20
178.5633803428402
 30
0.0
 10
323.6972008267116
 20
178.5879243823677
 30
0.0
 10
322.0513663851456
 20
178.6059205771378
 30
0.0
 10
319.3063407842101
 20
178.6506838711906
 30
0.0
 10
318.2082263766872
 20
178.6774334115993
 30
0.0
 10
316.7241694200848
 20
178.7356874303354
 30
0.0
 10
316.3388059701491
 20
178.7671694173934
 30
0.0
 10
316.3388059701492
 20
178.7986634330549
 30
0.0
  0
SPLINE
  5
B5
330
1F
100
AcDbEntity
  8
0
  6
Continuous
 62
     7
370
    25
100
AcDbSpline
210
0.0
220
0.0
230
1.0
 70
     8
 71
     3
 72
    32
 73
    28
 74
     0
 42
0.000000001
 43
0.00000001
 40
0.0
 40
0.0
 40
0.0
 40
0.0
 40
0.0163287818850277
 40
0.0318090109429606
 40
0.0464402579935144
 40
0.060222255856509
 40
0.0731548766555965
 40
0.0852381101815092
 40
0.0964720435409496
 40
0.106856842282559
 40
0.1163927331776677
 40
0.1250799888523822
 40
0.1917693689434861
 40
0.2501013840601506
 40
0.3159401195454173
 40
0.3751187199816405
 40
0.4999956574453037
 40
0.6248725936749774
 40
0.691747210127156
 40
0.7498896383924438
 40
0.8123989351036456
 40
0.844768423621313
 40
0.8749301177357262
 40
0.9069898670832102
 40
0.9374653494404871
 40
0.9690146188330964
 40
1.0
 40
1.0
 40
1.0
 40
1.0
 10
331.1875186761502
 20
178.5565244511694
 30
0.0
 10
331.1875323220619
 20
178.4296990518709
 30
0.0
 10
331.1875589047524
 20
178.1826389501108
 30
0.0
 10
331.1875949023153
 20
177.822349103546
 30
0.0
 10
331.1877115683866
 20
177.4823312878703
 30
0.0
 10
331.1879358907078
 20
177.1626768178043
 30
0.0
 10
331.1882780750917
 20
176.8634066670804
 30
0.0
 10
331.1887258451061
 20
176.5845005141804
 30
0.0
 10
331.1892521088089
 20
176.3258996806817
 30
0.0
 10
331.1898125655821
 20
176.087518305646
 30
0.0
 10
331.190367020042
 20
175.8692433987542
 30
0.0
 10
331.1918553177943
 20
175.2232333165343
 30
0.0
 10
331.1941105289835
 20
174.2178665408348
 30
0.0
 10
331.1999018589623
 20
172.8282358522298
 30
0.0
 10
331.2058244791125
 20
171.5469406042074
 30
0.0
 10
331.2165561596476
 20
169.8932006968007
 30
0.0
 10
331.231736973669
 20
168.039085085104
 30
0.0
 10
331.2520892144264
 20
166.4821223914037
 30
0.0
 10
331.2671977065265
 20
165.4975551973601
 30
0.0
 10
331.2819878170105
 20
164.8842862034971
 30
0.0
 10
331.2930885730092
 20
164.4870810622765
 30
0.0
 10
331.3022959350767
 20
164.2312915382468
 30
0.0
 10
331.3097505980265
 20
164.072494318904
 30
0.0
 10
331.3169530167938
 20
163.9508657678467
 30
0.0
 10
331.3239566250109
 20
163.8632438462032
 30
0.0
 10
331.3324299966215
 20
163.8087691134477
 30
0.0
 10
331.336693460493
 20
163.8020071900279
 30
0.0
 10
331.3388059701492
 20
163.7986567151678
 30
0.0
  0
SPLINE
  5
B6
330
1F
100
AcDbEntity
  8
0
  6
Continuous
 62
     7
370
    25
100
AcDbSpline
210
0.0
220
0.0
230
1.0
 70
     8
 71
     3
 72
    14
 73
    10
 74
     0
 42
0.000000001
 43
0.00000001
 40
0.0
 40
0.0
 40
0.0
 40
0.0
 40
0.25
 40
0.25
 40
0.5
 40
0.5
 40
0.75
 40
0.75
 40
1.0
 40
1.0
 40
1.0
 40
1.0
 10
641.4544529611508
 20
178.5463022021641
 30
0.0
 10
641.4541998981211
 20
176.6041122455611
 30
0.0
 10
641.4510021102833
 20
174.669078025544
 30
0.0
 10
641.4391891382268
 20
171.0989113157234
 30
0.0
 10
641.4305784878222
 20
169.4651335084227
 30
0.0
 10
641.4092189977711
 20
166.7412791272269
 30
0.0
 10
641.396478390825
 20
165.6522525328912
 30
0.0
 10
641.3687553714834
 20
164.1806591561632
 30
0.0
 10
641.3537834784544
 20
163.7986567151677
 30
0.0
 10
641.3388059701491
 20
163.7986567151677
 30
0.0
  0
SPLINE
  5
B7
330
1F
100
AcDbEntity
  8
0
  6
Continuous
 62
     7
370
    25
100
AcDbSpline
210
0.0
220
0.0
230
1.0
 70
     8
 71
     3
 72
    33
 73
    29
 74
     0
 42
0.000000001
 43
0.00000001
 40
0.0
 40
0.0
 40
0.0
 40
0.0
 40
0.0163274201424756
 40
0.0318062061569948
 40
0.046435924318308
 40
0.0602163046151756
 40
0.0731472178181237
 40
0.085228653615105
 40
0.0964607000460837
 40
0.1068435244321936
 40
0.1163773559810223
 40
0.125062470268922
 40
0.1917499861786472
 40
0.2500654796725469
 40
0.3159089806605444
 40
0.3750642873403516
 40
0.4999213378663331
 40
0.5662160606693377
 40
0.6249269417747803
 40
0.6918333715893
 40
0.74992544626991
 40
0.8124254980529292
 40
0.8447832084966949
 40
0.874947745686269
 40
0.9069708281846336
 40
0.9374741717607452
 40
0.9689803262024175
 40
1.0
 40
1.0
 40
1.0
 40
1.0
 10
641.4544529611529
 20
178.5463022021596
 30
0.0
 10
641.5819944745551
 20
178.546317745986
 30
0.0
 10
641.830448402576
 20
178.5463480257329
 30
0.0
 10
642.192862431791
 20
178.5464662266166
 30
0.0
 10
642.5349390005766
 20
178.5467117232956
 30
0.0
 10
642.856580393993
 20
178.5471080871555
 30
0.0
 10
643.1577526320144
 20
178.5476557246579
 30
0.0
 10
643.4384664854211
 20
178.5483343622116
 30
0.0
 10
643.6987719133797
 20
178.5491088213529
 30
0.0
 10
643.9387473243406
 20
178.5499270775752
 30
0.0
 10
644.1584994013149
 20
178.5507418293957
 30
0.0
 10
644.8090366149113
 20
178.5530624777873
 30
0.0
 10
645.8217707351121
 20
178.5570329212061
 30
0.0
 10
647.2224645578168
 20
178.5662404769101
 30
0.0
 10
648.5144959580258
 20
178.5763342106825
 30
0.0
 10
650.1826904409604
 20
178.5937992820793
 30
0.0
 10
651.7003437421722
 20
178.6151448578368
 30
0.0
 10
653.0032898005207
 20
178.6387694459303
 30
0.0
 10
653.890318401574
 20
178.6601777613258
 30
0.0
 10
654.6219771191488
 20
178.6792818579748
 30
0.0
 10
655.2415930033329
 20
178.7032433964442
 30
0.0
 10
655.6429294111713
 20
178.7219525976182
 30
0.0
 10
655.9014712347184
 20
178.7375616757269
 30
0.0
 10
656.0619329436316
 20
178.7498951228868
 30
0.0
 10
656.1849062040369
 20
178.7620159580019
 30
0.0
 10
656.2734608858822
 20
178.7738698696838
 30
0.0
 10
656.3285682233517
 20
178.7874342034565
 30
0.0
 10
656.3354111349175
 20
178.7949353320452
 30
0.0
 10
656.3388059701491
 20
178.7986567151678
 30
0.0
  0
SPLINE
  5
B8
330
1F
100
AcDbEntity
  8
0
  6
Continuous
 62
     7
370
    25
100
AcDbSpline
210
0.0
220
0.0
230
1.0
 70
     8
 71
     3
 72
    33
 73
    29
 74
     0
 42
0.000000001
 43
0.00000001
 40
0.0
 40
0.0
 40
0.0
 40
0.0
 40
0.0169695955576934
 40
0.0339634249047445
 40
0.0509831941511024
 40
0.0680306033777563
 40
0.0851073444673749
 40
0.102215098933019
 40
0.1193555357461966
 40
0.1365303091654995
 40
0.1537410565670064
 40
0.1709893962775566
 40
0.1882769254119512
 40
0.2056052177151169
 40
0.2229758214101198
 40
0.2403902570529671
 40
0.3030399166529513
 40
0.3671828610684489
 40
0.4328821007113859
 40
0.5001920805261802
 40
0.623032195082622
 40
0.759661322111938
 40
0.8179495257796413
 40
0.8832265373697169
 40
0.9051328540254883
 40
0.9318967721285734
 40
0.9635197218428034
 40
1.0
 40
1.0
 40
1.0
 40
1.0
 10
331.3388059701492
 20
563.7986567151678
 30
0.0
 10
331.3350549868384
 20
563.797658703855
 30
0.0
 10
331.3275476635455
 20
563.7956612559981
 30
0.0
 10
331.3162658999284
 20
563.7794905604645
 30
0.0
 10
331.3049778415606
 20
563.7536326278608
 30
0.0
 10
331.2936945464265
 20
563.7171069111612
 30
0.0
 10
331.2824285025325
 20
563.6701373151323
 30
0.0
 10
331.2711902308
 20
563.6126285217284
 30
0.0
 10
331.2599891553542
 20
563.5445754364858
 30
0.0
 10
331.2488333286849
 20
563.4659534310897
 30
0.0
 10
331.2377294411842
 20
563.3767480404608
 30
0.0
 10
331.2266828223934
 20
563.2769473805826
 30
0.0
 10
331.2156971708169
 20
563.1665439734548
 30
0.0
 10
331.2047753633025
 20
563.0455364250682
 30
0.0
 10
331.1939161865027
 20
562.9139223175971
 30
0.0
 10
331.1737934960842
 20
562.6487323563259
 30
0.0
 10
331.1444333218307
 20
562.191364741422
 30
0.0
 10
331.1072486143155
 20
561.4501644056824
 30
0.0
 10
331.0719082646837
 20
560.5612385015291
 30
0.0
 10
331.0299939290769
 20
559.2478083452169
 30
0.0
 10
330.9814532993505
 20
557.300468590901
 30
0.0
 10
330.9492756081668
 20
555.1206939488235
 30
0.0
 10
330.9291987678518
 20
553.223791187108
 30
0.0
 10
330.9214800909787
 20
552.1301914367851
 30
0.0
 10
330.916635285516
 20
551.2623361480615
 30
0.0
 10
330.9139187925295
 20
550.646795589871
 30
0.0
 10
330.9118643153015
 20
549.9154113947662
 30
0.0
 10
330.9113871592826
 20
549.3880327627098
 30
0.0
 10
330.9111315651671
 20
549.1055363261548
 30
0.0
  0
SPLINE
  5
B9
330
1F
100
AcDbEntity
  8
0
  6
Continuous
 62
     7
370
    25
100
AcDbSpline
210
0.0
220
0.0
230
1.0
 70
     8
 71
     3
 72
    14
 73
    10
 74
     0
 42
0.000000001
 43
0.00000001
 40
0.0
 40
0.0
 40
0.0
 40
0.0
 40
0.25
 40
0.25
 40
0.5
 40
0.5
 40
0.75
 40
0.75
 40
1.0
 40
1.0
 40
1.0
 40
1.0
 10
316.3388059701492
 20
548.7986567151677
 30
0.0
 10
316.3388059709825
 20
548.8381158724367
 30
0.0
 10
316.7150138199581
 20
548.8775606215528
 30
0.0
 10
318.1650999612366
 20
548.9506845660811
 30
0.0
 10
319.2384387712601
 20
548.9843368351095
 30
0.0
 10
321.9256838849192
 20
549.0409283869715
 30
0.0
 10
323.5385853612164
 20
549.0638465062544
 30
0.0
 10
327.0684253493865
 20
549.0955954881794
 30
0.0
 10
328.9840643272801
 20
549.1044145452302
 30
0.0
 10
330.9111315648604
 20
549.1055363263749
 30
0.0
  0
SPLINE
  5
BA
330
1F
100
AcDbEntity
  8
0
  6
Continuous
 62
     7
370
    25
100
AcDbSpline
210
0.0
220
0.0
230
1.0
 70
     8
 71
     3
 72
    35
 73
    31
 74
     0
 42
0.000000001
 43
0.00000001
 40
0.0
 40
0.0
 40
0.0
 40
0.0
 40
0.0164557207212386
 40
0.0329363579602572
 40
0.049443445285976
 40
0.0659785104995075
 40
0.0825430738212318
 40
0.099138646075992
 40
0.1157667268774145
 40
0.1324288028122537
 40
0.1491263456256889
 40
0.1658608104083777
 40
0.1826336337861096
 40
0.1994462321127766
 40
0.2162999996673944
 40
0.2331963068558323
 40
0.2501364984178569
 40
0.3104648267002473
 40
0.3722117369915574
 40
0.4354314144547549
 40
0.5001707179570355
 40
0.6187497322253137
 40
0.7499127113744563
 40
0.8090254409094338
 40
0.8749308804622619
 40
0.8933014977093992
 40
0.9149929936578525
 40
0.940006771093001
 40
0.9683430002698191
 40
1.0
 40
1.0
 40
1.0
 40
1.0
 10
656.3388059701491
 20
548.7986567151678
 30
0.0
 10
656.3378788614347
 20
548.8002300290032
 30
0.0
 10
656.3360232402192
 20
548.8033790389155
 30
0.0
 10
656.3209995469953
 20
548.808124183015
 30
0.0
 10
656.2969721280116
 20
548.8128765920352
 30
0.0
 10
656.2630267614892
 20
548.8176295338087
 30
0.0
 10
656.219368111006
 20
548.822374691856
 30
0.0
 10
656.1659039952608
 20
548.8271055967974
 30
0.0
 10
656.102625861818
 20
548.8318167432647
 30
0.0
 10
656.0295067625694
 20
548.836503869891
 30
0.0
 10
655.946528987369
 20
548.8411639263802
 30
0.0
 10
655.8536768345651
 20
548.8457951408838
 30
0.0
 10
655.7509389191001
 20
548.8503970138946
 30
0.0
 10
655.6383073632363
 20
548.8549705199612
 30
0.0
 10
655.5157799757478
 20
548.8595175624952
 30
0.0
 10
655.383353645991
 20
548.864043230648
 30
0.0
 10
655.119687913006
 20
548.8723890502147
 30
0.0
 10
654.6711232843371
 20
548.8846647656495
 30
0.0
 10
653.9541103562102
 20
548.9001660214742
 30
0.0
 10
653.1016413734952
 20
548.9147610778411
 30
0.0
 10
651.8473956794513
 20
548.932022793661
 30
0.0
 10
649.9992041687876
 20
548.9531160145405
 30
0.0
 10
647.9153054788547
 20
548.9663722021866
 30
0.0
 10
646.0741219894304
 20
548.9756690865858
 30
0.0
 10
645.0088484666514
 20
548.9790860844248
 30
0.0
 10
644.2105346304834
 20
548.9813792169309
 30
0.0
 10
643.7172450918418
 20
548.9826436534619
 30
0.0
 10
643.1450767511037
 20
548.9836728548352
 30
0.0
 10
642.4936906141513
 20
548.9843545324036
 30
0.0
 10
642.0321075674144
 20
548.984554450918
 30
0.0
 10
641.7885411741361
 20
548.9846599431623
 30
0.0
  0
SPLINE
  5
BB
330
1F
100
AcDbEntity
  8
0
  6
Continuous
 62
     7
370
    25
100
AcDbSpline
210
0.0
220
0.0
230
1.0
 70
     8
 71
     3
 72
    14
 73
    10
 74
     0
 42
0.000000001
 43
0.00000001
 40
0.0
 40
0.0
 40
0.0
 40
0.0
 40
0.25
 40
0.25
 40
0.5
 40
0.5
 40
0.75
 40
0.75
 40
1.0
 40
1.0
 40
1.0
 40
1.0
 10
641.3388059701491
 20
563.7986567151678
 30
0.0
 10
641.3972169288575
 20
563.7986567143345
 30
0.0
 10
641.4556057057014
 20
563.4144496263635
 30
0.0
 10
641.5636730163161
 20
561.9346798833998
 30
0.0
 10
641.6133100714363
 20
560.839691223042
 30
0.0
 10
641.6964251714528
 20
558.1019444645133
 30
0.0
 10
641.7298708069536
 20
556.4602538603758
 30
0.0
 10
641.7755764066992
 20
552.8748460536361
 30
0.0
 10
641.7878186463719
 20
550.9325048926162
 30
0.0
 10
641.7885411822398
 20
548.9846599465138
 30
0.0
  0
SPLINE
  5
BC
330
1F
100
AcDbEntity
  8
0
  6
Continuous
 62
     7
370
    25
100
AcDbSpline
210
0.0
220
0.0
230
1.0
 70
     8
 71
     3
 72
    10
 73
     6
 74
     0
 42
0.000000001
 43
0.00000001
 40
0.0
 40
0.0
 40
0.0
 40
0.0
 40
0.3188957534878245
 40
0.6540296536696284
 40
1.0
 40
1.0
 40
1.0
 40
1.0
 10
635.0620164425534
 20
178.4961344161736
 30
0.0
 10
635.7415269566313
 20
178.5018766286398
 30
0.0
 10
637.1351486067365
 20
178.5136534465794
 30
0.0
 10
639.2659749833224
 20
178.5296387582946
 30
0.0
 10
640.7172635795804
 20
178.5406891167175
 30
0.0
 10
641.4544529611528
 20
178.5463022021597
 30
0.0
  0
SPLINE
  5
BD
330
1F
100
AcDbEntity
  8
0
  6
Continuous
 62
     7
370
    25
100
AcDbSpline
210
0.0
220
0.0
230
1.0
 70
     8
 71
     3
 72
    19
 73
    15
 74
     0
 42
0.000000001
 43
0.00000001
 40
0.0
 40
0.0
 40
0.0
 40
0.0
 40
0.1284320632174004
 40
0.249488951706635
 40
0.3806755913180492
 40
0.5019649236107985
 40
0.6370879564249547
 40
0.7559015538741719
 40
0.8223760161915671
 40
0.8814887712291924
 40
0.9168561433255805
 40
0.9484334813292487
 40
0.9761628708106144
 40
1.0
 40
1.0
 40
1.0
 40
1.0
 10
641.4544529611528
 20
178.5463022021598
 30
0.0
 10
641.4637781842815
 20
179.8017011577986
 30
0.0
 10
641.4818931322512
 20
182.2404081408497
 30
0.0
 10
641.5104087972153
 20
185.9614987294589
 30
0.0
 10
641.5413143490165
 20
189.6127944113838
 30
0.0
 10
641.5771357242703
 20
193.4016121713416
 30
0.0
 10
641.6193615678797
 20
197.0694662904923
 30
0.0
 10
641.6664465907256
 20
200.2014265423509
 30
0.0
 10
641.7154627922394
 20
202.5902092971954
 30
0.0
 10
641.7582611098494
 20
204.1631600380505
 30
0.0
 10
641.801770739465
 20
205.3947894226789
 30
0.0
 10
641.8442272556904
 20
206.3193750568035
 30
0.0
 10
641.8913288467701
 20
207.1309680462365
 30
0.0
 10
641.9368980102308
 20
207.6330678870541
 30
0.0
 10
641.9579628031327
 20
207.8651684647169
 30
0.0
  0
SPLINE
  5
BE
330
1F
100
AcDbEntity
  8
0
  6
Continuous
 62
     7
370
    25
100
AcDbSpline
210
0.0
220
0.0
230
1.0
 70
     8
 71
     3
 72
    21
 73
    17
 74
     0
 42
0.000000001
 43
0.00000001
 40
0.0
 40
0.0
 40
0.0
 40
0.0
 40
0.0355958703704249
 40
0.0745740286038297
 40
0.116854657787741
 40
0.1623530515413602
 40
0.210979871064381
 40
0.262641247672001
 40
0.3172387988159064
 40
0.3746695989252402
 40
0.4348261322344983
 40
0.4975962471046728
 40
0.619823463403504
 40
0.7503790458034265
 40
0.8721333367179629
 40
1.0
 40
1.0
 40
1.0
 40
1.0
 10
330.8344257311626
 20
200.1961764359747
 30
0.0
 10
330.8473415839482
 20
199.9396755047086
 30
0.0
 10
330.8744005423341
 20
199.4023011524008
 30
0.0
 10
330.9062506687659
 20
198.5597822171453
 30
0.0
 10
330.9353732165232
 20
197.6456998061686
 30
0.0
 10
330.9612903401033
 20
196.6618832333488
 30
0.0
 10
330.9848605915245
 20
195.6103192575845
 30
0.0
 10
331.0064622666152
 20
194.493059691682
 30
0.0
 10
331.0265277669604
 20
193.3122530619778
 30
0.0
 10
331.0453746806328
 20
192.0701390173661
 30
0.0
 10
331.0632444767929
 20
190.7690532933185
 30
0.0
 10
331.0854341159225
 20
189.0005181892272
 30
0.0
 10
331.110558778412
 20
186.7241122688645
 30
0.0
 10
331.1377162634806
 20
184.0222101848753
 30
0.0
 10
331.1630114266218
 20
181.2796436610272
 30
0.0
 10
331.1792173171692
 20
179.4789286598403
 30
0.0
 10
331.1875186761494
 20
178.5565244511681
 30
0.0
  0
SPLINE
  5
BF
330
1F
100
AcDbEntity
  8
0
  6
Continuous
 62
     7
370
    25
100
AcDbSpline
210
0.0
220
0.0
230
1.0
 70
     8
 71
     3
 72
    11
 73
     7
 74
     0
 42
0.000000001
 43
0.00000001
 40
0.0
 40
0.0
 40
0.0
 40
0.0
 40
0.2557391765307981
 40
0.502074339374022
 40
0.7597912518461901
 40
1.0
 40
1.0
 40
1.0
 40
1.0
 10
331.1875186761494
 20
178.5565244511681
 30
0.0
 10
331.9473682162246
 20
178.5497244122781
 30
0.0
 10
333.4391261902359
 20
178.5363743848018
 30
0.0
 10
335.6966567625931
 20
178.5156994623282
 30
0.0
 10
337.9080479402794
 20
178.4930495038591
 30
0.0
 10
339.3874824843367
 20
178.4741305169637
 30
0.0
 10
340.1011896657596
 20
178.465003640167
 30
0.0
  0
SPLINE
  5
C0
330
1F
100
AcDbEntity
  8
0
  6
Continuous
 62
     7
370
    25
100
AcDbSpline
210
0.0
220
0.0
230
1.0
 70
     8
 71
     3
 72
    15
 73
    11
 74
     0
 42
0.000000001
 43
0.00000001
 40
0.0
 40
0.0
 40
0.0
 40
0.0
 40
0.1269013429000184
 40
0.2500729890108744
 40
0.3736456988773532
 40
0.4997019488094857
 40
0.6200206080777834
 40
0.7497075090232147
 40
0.8642206745877636
 40
1.0
 40
1.0
 40
1.0
 40
1.0
 10
340.1011896661492
 20
178.4650036401646
 30
0.0
 10
352.5781647975861
 20
178.462971821448
 30
0.0
 10
377.1654102406153
 20
178.458967900229
 30
0.0
 10
413.9023594267139
 20
178.4577969992432
 30
0.0
 10
450.5562188637985
 20
178.4573937387156
 30
0.0
 10
486.9295714320904
 20
178.4618959113105
 30
0.0
 10
523.9040726628397
 20
178.466629897235
 30
0.0
 10
559.7436534278514
 20
178.4759590207773
 30
0.0
 10
597.1033312051719
 20
178.483867370292
 30
0.0
 10
621.7121565036065
 20
178.4918201638887
 30
0.0
 10
635.0620164421491
 20
178.4961344161681
 30
0.0
  0
SPLINE
  5
C1
330
1F
100
AcDbEntity
  8
0
  6
Continuous
 62
     7
370
    25
100
AcDbSpline
210
0.0
220
0.0
230
1.0
 70
     8
 71
     3
 72
    10
 73
     6
 74
     0
 42
0.000000001
 43
0.00000001
 40
0.0
 40
0.0
 40
0.0
 40
0.0
 40
0.3220030188927038
 40
0.6565688470151733
 40
1.0
 40
1.0
 40
1.0
 40
1.0
 10
641.8575865961385
 20
543.6062360081675
 30
0.0
 10
641.8497700838152
 20
544.1835348579325
 30
0.0
 10
641.8338321013038
 20
545.3606556236841
 30
0.0
 10
641.811347065528
 20
547.1534875688454
 30
0.0
 10
641.7962091179933
 20
548.368971360842
 30
0.0
 10
641.7885411741521
 20
548.9846599431687
 30
0.0
  0
SPLINE
  5
C2
330
1F
100
AcDbEntity
  8
0
  6
Continuous
 62
     7
370
    25
100
AcDbSpline
210
0.0
220
0.0
230
1.0
 70
     8
 71
     3
 72
    20
 73
    16
 74
     0
 42
0.000000001
 43
0.00000001
 40
0.0
 40
0.0
 40
0.0
 40
0.0
 40
0.1745913931086703
 40
0.3363264062516055
 40
0.4840089002041626
 40
0.6207193438747867
 40
0.7407030169008382
 40
0.8114182370087722
 40
0.8732963867343426
 40
0.9085483579728217
 40
0.9396208476849166
 40
0.9577322987887249
 40
0.9738253022993633
 40
0.9879075984847806
 40
0.9999999999999999
 40
0.9999999999999999
 40
0.9999999999999999
 40
0.9999999999999999
 10
641.7885411741521
 20
548.9846599431688
 30
0.0
 10
640.0691062595939
 20
549.0066565909939
 30
0.0
 10
636.7568503957729
 20
549.0490301203006
 30
0.0
 10
631.9899094146367
 20
549.1153619783386
 30
0.0
 10
627.5959527895277
 20
549.1848666895376
 30
0.0
 10
623.6132260709754
 20
549.262002709178
 30
0.0
 10
620.3887584032336
 20
549.3437628423358
 30
0.0
 10
617.9017930569237
 20
549.4288416024497
 30
0.0
 10
616.2497494945866
 20
549.5041491219171
 30
0.0
 10
614.9888794903655
 20
549.5809839088504
 30
0.0
 10
614.1594320619736
 20
549.646340425569
 30
0.0
 10
613.5193727983775
 20
549.7104622419639
 30
0.0
 10
613.0472803830182
 20
549.7696283197334
 30
0.0
 10
612.6353483397527
 20
549.8325497656265
 30
0.0
 10
612.3834370191084
 20
549.8880183408685
 30
0.0
 10
612.2670569611495
 20
549.9136441681837
 30
0.0
  0
SPLINE
  5
C3
330
1F
100
AcDbEntity
  8
0
  6
Continuous
 62
     7
370
    25
100
AcDbSpline
210
0.0
220
0.0
230
1.0
 70
     8
 71
     3
 72
    15
 73
    11
 74
     0
 42
0.000000001
 43
0.00000001
 40
0.0
 40
0.0
 40
0.0
 40
0.0
 40
0.1224403002401312
 40
0.2484343100072107
 40
0.3674029210842081
 40
0.4976869267226406
 40
0.6227866045143673
 40
0.7482117890393114
 40
0.8739532039856914
 40
1.0
 40
1.0
 40
1.0
 40
1.0
 10
330.6576905381285
 20
436.1879813982615
 30
0.0
 10
330.6583281776055
 20
426.5563402382451
 30
0.0
 10
330.6596219634196
 20
407.0135089879715
 30
0.0
 10
330.6743743104184
 20
378.1121382882287
 30
0.0
 10
330.6925900643151
 20
348.5937553425818
 30
0.0
 10
330.7191171496588
 20
319.1457328303189
 30
0.0
 10
330.747323685493
 20
289.189814753887
 30
0.0
 10
330.7769002168815
 20
259.5912377111321
 30
0.0
 10
330.8064167548941
 20
229.9181572029723
 30
0.0
 10
330.8250818597521
 20
210.111510848531
 30
0.0
 10
330.8344257311576
 20
200.1961764361681
 30
0.0
  0
SPLINE
  5
C4
330
1F
100
AcDbEntity
  8
0
  6
Continuous
 62
     7
370
    25
100
AcDbSpline
210
0.0
220
0.0
230
1.0
 70
     8
 71
     3
 72
    15
 73
    11
 74
     0
 42
0.000000001
 43
0.00000001
 40
0.0
 40
0.0
 40
0.0
 40
0.0
 40
0.1233601088392935
 40
0.2497046558347045
 40
0.3688953634149896
 40
0.4988825597627401
 40
0.6237584028191776
 40
0.7488746145452784
 40
0.8742730782570106
 40
1.0
 40
1.0
 40
1.0
 40
1.0
 10
642.0199316721327
 20
312.2367863734677
 30
0.0
 10
642.0209708861897
 20
321.7507118087605
 30
0.0
 10
642.0230744559
 20
341.0087320781145
 30
0.0
 10
642.0131827477782
 20
369.4591175889072
 30
0.0
 10
641.9986398518558
 20
398.4206003619243
 30
0.0
 10
641.9744710461937
 20
427.268803070731
 30
0.0
 10
641.947203725481
 20
456.5739939782051
 30
0.0
 10
641.9174483369272
 20
485.5252832322936
 30
0.0
 10
641.886997574676
 20
514.5422089285697
 30
0.0
 10
641.8673988003635
 20
533.9097830781133
 30
0.0
 10
641.857586596154
 20
543.6062360075613
 30
0.0
  0
SPLINE
  5
C5
330
1F
100
AcDbEntity
  8
0
  6
Continuous
 62
     7
370
    25
100
AcDbSpline
210
0.0
220
0.0
230
1.0
 70
     8
 71
     3
 72
    18
 73
    14
 74
     0
 42
0.000000001
 43
0.00000001
 40
0.0
 40
0.0
 40
0.0
 40
0.0
 40
0.0352450442633953
 40
0.0729595538460174
 40
0.113102284878725
 40
0.1556285399183604
 40
0.2004901701067455
 40
0.247635498673536
 40
0.297009192406672
 40
0.4361619700805532
 40
0.5884760004088921
 40
0.7865496497201563
 40
1.0
 40
1.0
 40
1.0
 40
1.0
 10
348.5956726348793
 20
549.6236884581502
 30
0.0
 10
348.3883144529265
 20
549.6085026666561
 30
0.0
 10
347.9590694127293
 20
549.577067082013
 30
0.0
 10
347.2930530632365
 20
549.5371989468927
 30
0.0
 10
346.5838960119838
 20
549.4998625698719
 30
0.0
 10
345.8323901042919
 20
549.4654934334587
 30
0.0
 10
345.0394551838569
 20
549.4334629315113
 30
0.0
 10
344.2060390953078
 20
549.4034565146409
 30
0.0
 10
342.8166588959896
 20
549.3582293564249
 30
0.0
 10
340.807022193896
 20
549.3033194439076
 30
0.0
 10
337.9205094518861
 20
549.2374726169728
 30
0.0
 10
334.5959046736681
 20
549.1724221723338
 30
0.0
 10
332.1696089904676
 20
549.1283801553512
 30
0.0
 10
330.9111315651504
 20
549.1055363261669
 30
0.0
  0
SPLINE
  5
C6
330
1F
100
AcDbEntity
  8
0
  6
Continuous
 62
     7
370
    25
100
AcDbSpline
210
0.0
220
0.0
230
1.0
 70
     8
 71
     3
 72
    11
 73
     7
 74
     0
 42
0.000000001
 43
0.00000001
 40
0.0
 40
0.0
 40
0.0
 40
0.0
 40
0.2512516725474526
 40
0.4917556511365302
 40
0.7573374820821921
 40
1.0
 40
1.0
 40
1.0
 40
1.0
 10
330.9111315651505
 20
549.1055363261668
 30
0.0
 10
330.8967060733791
 20
548.2919040808393
 30
0.0
 10
330.8684721634231
 20
546.6994440166735
 30
0.0
 10
330.8224774691214
 20
544.246780076919
 30
0.0
 10
330.7728390247124
 20
541.8218742155635
 30
0.0
 10
330.7274509631189
 20
540.1760894281457
 30
0.0
 10
330.7057803211644
 20
539.3903054221676
 30
0.0
  0
SPLINE
  5
C7
330
1F
100
AcDbEntity
  8
0
  6
Continuous
 62
     7
370
    25
100
AcDbSpline
210
0.0
220
0.0
230
1.0
 70
     8
 71
     3
 72
    11
 73
     7
 74
     0
 42
0.000000001
 43
0.00000001
 40
0.0
 40
0.0
 40
0.0
 40
0.0
 40
0.2596379387488969
 40
0.5017964160323376
 40
0.7531324550437299
 40
1.0
 40
1.0
 40
1.0
 40
1.0
 10
330.7057803211641
 20
539.3903054221363
 30
0.0
 10
330.6983652347081
 20
530.4585619848957
 30
0.0
 10
330.6840342635637
 20
513.1963819378485
 30
0.0
 10
330.6698424658551
 20
487.2880425781639
 30
0.0
 10
330.65858218861
 20
461.8190114389292
 30
0.0
 10
330.6579859724257
 20
444.6804181807449
 30
0.0
 10
330.6576905381285
 20
436.1879813982615
 30
0.0
  0
SPLINE
  5
C8
330
1F
100
AcDbEntity
  8
0
  6
Continuous
 62
     7
370
    25
100
AcDbSpline
210
0.0
220
0.0
230
1.0
 70
     8
 71
     3
 72
    11
 73
     7
 74
     0
 42
0.000000001
 43
0.00000001
 40
0.0
 40
0.0
 40
0.0
 40
0.0
 40
0.2599405704051748
 40
0.5016759964418566
 40
0.7541341746671828
 40
1.0
 40
1.0
 40
1.0
 40
1.0
 10
641.9579628031402
 20
207.865168465168
 30
0.0
 10
641.9660226433576
 20
216.9086383518395
 30
0.0
 10
641.9815778464792
 20
234.3622115267237
 30
0.0
 10
641.9992288082656
 20
260.5989451152659
 30
0.0
 10
642.0141491127754
 20
286.3460140727462
 30
0.0
 10
642.0180212271445
 20
303.6829794640624
 30
0.0
 10
642.0199316721327
 20
312.2367863733559
 30
0.0
  0
SPLINE
  5
C9
330
1F
100
AcDbEntity
  8
0
  6
Continuous
 62
     7
370
    25
100
AcDbSpline
210
0.0
220
0.0
230
1.0
 70
     8
 71
     3
 72
    18
 73
    14
 74
     0
 42
0.000000001
 43
0.00000001
 40
0.0
 40
0.0
 40
0.0
 40
0.0
 40
0.0645851299639221
 40
0.1256843131085337
 40
0.2500952808768481
 40
0.373635239875784
 40
0.4971072537953694
 40
0.6211921037902626
 40
0.7462851105149937
 40
0.8092862472746024
 40
0.8725833346515993
 40
0.9436235093019344
 40
1.0
 40
1.0
 40
1.0
 40
1.0
 10
612.2670569606202
 20
549.9136441681965
 30
0.0
 10
606.5906442217639
 20
549.9287486589365
 30
0.0
 10
595.5441999953264
 20
549.9581423838476
 30
0.0
 10
573.5631923576243
 20
550.007483320364
 30
0.0
 10
546.4005545651911
 20
550.04915163239
 30
0.0
 10
513.7558761655276
 20
550.0498529288067
 30
0.0
 10
481.1399268299902
 20
549.9992459944435
 30
0.0
 10
448.3875935022818
 20
549.9131642356551
 30
0.0
 10
420.9501227602084
 20
549.8295009169877
 30
0.0
 10
398.8553017670707
 20
549.762785190371
 30
0.0
 10
381.5111886111962
 20
549.712311527903
 30
0.0
 10
364.7493123961064
 20
549.6645898480513
 30
0.0
 10
353.5506205848611
 20
549.6362345010949
 30
0.0
 10
348.5956726351494
 20
549.6236884581613
 30
0.0
  0
SPLINE
  5
CA
330
1F
100
AcDbEntity
  8
0
  6
Continuous
 62
     7
370
    25
100
AcDbSpline
210
0.0
220
0.0
230
1.0
 70
     8
 71
     3
 72
     8
 73
     4
 74
     0
 42
0.000000001
 43
0.00000001
 40
0.0
 40
0.0
 40
0.0
 40
0.0
 40
1.0
 40
1.0
 40
1.0
 40
1.0
 10
539.2373893949274
 20
415.4836452962795
 30
0.0
 10
538.2764266345282
 20
413.6883584077433
 30
0.0
 10
537.2244299955497
 20
411.9427346286139
 30
0.0
 10
536.0859956698146
 20
410.2544006198911
 30
0.0
  0
SPLINE
  5
CB
330
1F
100
AcDbEntity
  8
0
  6
Continuous
 62
     7
370
    25
100
AcDbSpline
210
0.0
220
0.0
230
1.0
 70
     8
 71
     3
 72
     8
 73
     4
 74
     0
 42
0.000000001
 43
0.00000001
 40
0.0
 40
0.0
 40
0.0
 40
0.0
 40
1.0
 40
1.0
 40
1.0
 40
1.0
 10
465.0987011867357
 20
387.6839710367322
 30
0.0
 10
463.1942653222594
 20
388.4048236411033
 30
0.0
 10
461.3273094190076
 20
389.2223656657444
 30
0.0
 10
459.5059902401418
 20
390.1330252551778
 30
0.0
  0
SPLINE
  5
CC
330
1F
100
AcDbEntity
  8
0
  6
Continuous
 62
     7
370
    25
100
AcDbSpline
210
0.0
220
0.0
230
1.0
 70
     8
 71
     3
 72
    32
 73
    28
 74
     0
 42
0.000000001
 43
0.00000001
 40
0.0
 40
0.0
 40
0.0
 40
0.0
 40
0.1249999999999997
 40
0.1249999999999997
 40
0.2499999999999994
 40
0.2499999999999994
 40
0.3124999999999994
 40
0.3124999999999994
 40
0.3749999999999995
 40
0.3749999999999995
 40
0.4999999999999996
 40
0.4999999999999996
 40
0.5312499999999996
 40
0.5312499999999996
 40
0.5624999999999997
 40
0.5624999999999997
 40
0.6249999999999997
 40
0.6249999999999997
 40
0.7499999999999999
 40
0.7499999999999999
 40
0.7812499999999999
 40
0.7812499999999999
 40
0.8125
 40
0.8125
 40
0.875
 40
0.875
 40
1.0
 40
1.0
 40
1.0
 40
1.0
 10
536.0859956698146
 20
410.2544006198911
 30
0.0
 10
534.1962788063538
 20
407.4518909139604
 30
0.0
 10
532.0984554735089
 20
404.8479498806595
 30
0.0
 10
527.5040694563137
 20
400.0205324098393
 30
0.0
 10
525.0075030362588
 20
397.7970595368122
 30
0.0
 10
520.9508983712292
 20
394.7593171136126
 30
0.0
 10
519.5634810950347
 20
393.809478195909
 30
0.0
 10
516.727284969091
 20
392.0363407863439
 30
0.0
 10
515.2773613784769
 20
391.212196303572
 30
0.0
 10
510.8331973970223
 20
388.9249105373111
 30
0.0
 10
507.7452513247195
 20
387.6455683829053
 30
0.0
 10
503.7224286001523
 20
386.3658917525115
 30
0.0
 10
502.9128544811573
 20
386.127112253487
 30
0.0
 10
501.2912672230884
 20
385.6855770590333
 30
0.0
 10
500.4780937249995
 20
385.4824487425988
 30
0.0
 10
498.0315327968727
 20
384.9252465760127
 30
0.0
 10
496.3911170727862
 20
384.6232655298691
 30
0.0
 10
491.4420816467112
 20
383.9232853249352
 30
0.0
 10
488.1058753524467
 20
383.7297544104662
 30
0.0
 10
483.887726478833
 20
383.8428026913895
 30
0.0
 10
483.0438687729101
 20
383.8832976507813
 30
0.0
 10
481.3663613088594
 20
383.9991445345611
 30
0.0
 10
480.5311150293217
 20
384.0745311730159
 30
0.0
 10
478.035755584326
 20
384.3523688777763
 30
0.0
 10
476.386003898791
 20
384.6064085432835
 30
0.0
 10
471.4777413892535
 20
385.5726246472285
 30
0.0
 10
468.2599240057229
 20
386.4874089762445
 30
0.0
 10
465.0987011867357
 20
387.6839710367322
 30
0.0
  0
SPLINE
  5
CD
330
1F
100
AcDbEntity
  8
0
  6
Continuous
 62
     7
370
    25
100
AcDbSpline
210
0.0
220
0.0
230
1.0
 70
     8
 71
     3
 72
     8
 73
     4
 74
     0
 42
0.000000001
 43
0.00000001
 40
0.0
 40
0.0
 40
0.0
 40
0.0
 40
1.0
 40
1.0
 40
1.0
 40
1.0
 10
507.5789107537257
 20
499.9133423935415
 30
0.0
 10
509.4833466180582
 20
499.1924897892185
 30
0.0
 10
511.3503025214171
 20
498.3749477645275
 30
0.0
 10
513.1716217001466
 20
497.4642881751627
 30
0.0
  0
SPLINE
  5
CE
330
1F
100
AcDbEntity
  8
0
  6
Continuous
 62
     7
370
    25
100
AcDbSpline
210
0.0
220
0.0
230
1.0
 70
     8
 71
     3
 72
    32
 73
    28
 74
     0
 42
0.000000001
 43
0.00000001
 40
0.0
 40
0.0
 40
0.0
 40
0.0
 40
0.1249999999999998
 40
0.1249999999999998
 40
0.2499999999999996
 40
0.2499999999999996
 40
0.2812499999999998
 40
0.2812499999999998
 40
0.3125000000000001
 40
0.3125000000000001
 40
0.3750000000000009
 40
0.3750000000000009
 40
0.500000000000002
 40
0.500000000000002
 40
0.5625000000000022
 40
0.5625000000000022
 40
0.5937500000000022
 40
0.5937500000000022
 40
0.6250000000000023
 40
0.6250000000000023
 40
0.7500000000000016
 40
0.7500000000000016
 40
0.8750000000000008
 40
0.8750000000000008
 40
0.9375000000000003
 40
0.9375000000000003
 40
1.0
 40
1.0
 40
1.0
 40
1.0
 10
513.1716217001504
 20
497.4642881751703
 30
0.0
 10
515.6691542576407
 20
496.2155218964252
 30
0.0
 10
518.0504072504237
 20
494.8080539405698
 30
0.0
 10
522.5898117275331
 20
491.6886227063448
 30
0.0
 10
524.7479357123522
 20
489.9766218958597
 30
0.0
 10
527.3038649103681
 20
487.6431894787951
 30
0.0
 10
527.8079327483349
 20
487.1667881430759
 30
0.0
 10
528.8016451688053
 20
486.1943001998778
 30
0.0
 10
529.2921659781176
 20
485.6972822334657
 30
0.0
 10
530.7349651142856
 20
484.1833676641812
 30
0.0
 10
531.6562860725946
 20
483.1462876322435
 30
0.0
 10
534.3017690542221
 20
479.9538004527276
 30
0.0
 10
535.907996935734
 20
477.7175204682167
 30
0.0
 10
538.0833378897352
 20
474.2026353897273
 30
0.0
 10
538.7693135432613
 20
473.004168314435
 30
0.0
 10
539.7385685593806
 20
471.1655228757457
 30
0.0
 10
540.0516931584506
 20
470.545810756524
 30
0.0
 10
540.6577412918846
 20
469.292533723743
 30
0.0
 10
540.9510798407317
 20
468.6579449907452
 30
0.0
 10
542.3563461719003
 20
465.4732945180436
 30
0.0
 10
543.2921489852832
 20
462.8747004846242
 30
0.0
 10
544.7996910680477
 20
457.5792096817234
 30
0.0
 10
545.3714102006554
 20
454.8823074750047
 30
0.0
 10
545.9495655265874
 20
450.76150557213
 30
0.0
 10
546.0957008637904
 20
449.371748036898
 30
0.0
 10
546.2901334745885
 20
446.5886683039415
 30
0.0
 10
546.3388059701491
 20
445.1948198588093
 30
0.0
 10
546.3388059701491
 20
443.7986567151678
 30
0.0
  0
ARC
  5
CF
330
1F
100
AcDbEntity
  8
0
  6
Continuous
 62
     7
370
    25
100
AcDbCircle
 10
486.3388059701
 20
443.7986567152
 30
0.0
 40
60.00000000000281
100
AcDbArc
 50
180.0
 51
243.4349488229
  0
SPLINE
  5
D0
330
1F
100
AcDbEntity
  8
0
  6
Continuous
 62
     7
370
    25
100
AcDbSpline
210
0.0
220
0.0
230
1.0
 70
     8
 71
     3
 72
     8
 73
     4
 74
     0
 42
0.000000001
 43
0.00000001
 40
0.0
 40
0.0
 40
0.0
 40
0.0
 40
1.0
 40
1.0
 40
1.0
 40
1.0
 10
433.4402225454133
 20
472.1136681341354
 30
0.0
 10
434.401185305771
 20
473.9089550225875
 30
0.0
 10
435.4531819446777
 20
475.6545788016026
 30
0.0
 10
436.5916162703538
 20
477.3429128102517
 30
0.0
  0
SPLINE
  5
D1
330
1F
100
AcDbEntity
  8
0
  6
Continuous
 62
     7
370
    25
100
AcDbSpline
210
0.0
220
0.0
230
1.0
 70
     8
 71
     3
 72
    16
 73
    12
 74
     0
 42
0.000000001
 43
0.00000001
 40
0.0
 40
0.0
 40
0.0
 40
0.0
 40
0.2500000000000004
 40
0.2500000000000004
 40
0.3749999999999998
 40
0.3749999999999998
 40
0.4999999999999993
 40
0.4999999999999993
 40
0.7499999999999997
 40
0.7499999999999997
 40
1.0
 40
1.0
 40
1.0
 40
1.0
 10
426.3388059701492
 20
443.7986567151678
 30
0.0
 10
426.3388059701492
 20
446.2633342133989
 30
0.0
 10
426.4900920184853
 20
448.7099074995623
 30
0.0
 10
426.9391653608448
 20
452.3531837020503
 30
0.0
 10
427.1259874252444
 20
453.5631656885296
 30
0.0
 10
427.5743610994305
 20
455.9741868703169
 30
0.0
 10
427.8362387736111
 20
457.176511795526
 30
0.0
 10
428.7337897588122
 20
460.761310040567
 30
0.0
 10
429.4772386794018
 20
463.1075501943199
 30
0.0
 10
431.2519251115509
 20
467.7048642650917
 30
0.0
 10
432.277099686972
 20
469.9407023298813
 30
0.0
 10
433.4402225454134
 20
472.1136681341354
 30
0.0
  0
SPLINE
  5
D2
330
1F
100
AcDbEntity
  8
0
  6
Continuous
 62
     7
370
    25
100
AcDbSpline
210
0.0
220
0.0
230
1.0
 70
     8
 71
     3
 72
    16
 73
    12
 74
     0
 42
0.000000001
 43
0.00000001
 40
0.0
 40
0.0
 40
0.0
 40
0.0
 40
0.2500000000000011
 40
0.2500000000000011
 40
0.3750000000000009
 40
0.3750000000000009
 40
0.5000000000000008
 40
0.5000000000000008
 40
0.7500000000000004
 40
0.7500000000000004
 40
1.0
 40
1.0
 40
1.0
 40
1.0
 10
546.3388059701491
 20
443.7986567151678
 30
0.0
 10
546.3388059701491
 20
441.3339792169442
 30
0.0
 10
546.187519921814
 20
438.8874059307884
 30
0.0
 10
545.7384465794572
 20
435.2441297283112
 30
0.0
 10
545.5516245150586
 20
434.0341477418354
 30
0.0
 10
545.1032508408754
 20
431.6231265600553
 30
0.0
 10
544.8413731666964
 20
430.4208016348499
 30
0.0
 10
543.9438221815009
 20
426.8360033898192
 30
0.0
 10
543.2003732609156
 20
424.4897632360727
 30
0.0
 10
541.4256868287771
 20
419.8924491653129
 30
0.0
 10
540.4005122533621
 20
417.6566111005286
 30
0.0
 10
539.2373893949274
 20
415.4836452962794
 30
0.0
  0
SPLINE
  5
D3
330
1F
100
AcDbEntity
  8
0
  6
Continuous
 62
     7
370
    25
100
AcDbSpline
210
0.0
220
0.0
230
1.0
 70
     8
 71
     3
 72
    32
 73
    28
 74
     0
 42
0.000000001
 43
0.00000001
 40
0.0
 40
0.0
 40
0.0
 40
0.0
 40
0.1250000000000006
 40
0.1250000000000006
 40
0.2500000000000013
 40
0.2500000000000013
 40
0.3125000000000012
 40
0.3125000000000012
 40
0.3750000000000011
 40
0.3750000000000011
 40
0.5000000000000009
 40
0.5000000000000009
 40
0.5312500000000008
 40
0.5312500000000008
 40
0.5625000000000008
 40
0.5625000000000008
 40
0.6250000000000007
 40
0.6250000000000007
 40
0.7500000000000004
 40
0.7500000000000004
 40
0.7812500000000004
 40
0.7812500000000004
 40
0.8125000000000003
 40
0.8125000000000003
 40
0.8750000000000002
 40
0.8750000000000002
 40
1.0
 40
1.0
 40
1.0
 40
1.0
 10
436.5916162703538
 20
477.3429128102517
 30
0.0
 10
438.4813331338125
 20
480.145422516203
 30
0.0
 10
440.5791564666828
 20
482.7493635495521
 30
0.0
 10
445.1735424838875
 20
487.5767810204062
 30
0.0
 10
447.6701089039498
 20
489.8002538934492
 30
0.0
 10
451.726713568995
 20
492.8379963166709
 30
0.0
 10
453.1141308451931
 20
493.7878352343799
 30
0.0
 10
455.950326971147
 20
495.5609726439564
 30
0.0
 10
457.4002505617666
 20
496.3851171267335
 30
0.0
 10
461.8444145432396
 20
498.6724028930091
 30
0.0
 10
464.9323606155567
 20
499.9517450474227
 30
0.0
 10
468.9551833401452
 20
501.2314216778237
 30
0.0
 10
469.7647574591426
 20
501.4702011768492
 30
0.0
 10
471.3863447172182
 20
501.9117363713045
 30
0.0
 10
472.1995182153105
 20
502.1148646877396
 30
0.0
 10
474.6460791434477
 20
502.6720668543274
 30
0.0
 10
476.2864948675414
 20
502.9740479004715
 30
0.0
 10
481.2355302936393
 20
503.6740281054055
 30
0.0
 10
484.5717365879207
 20
503.8675590198724
 30
0.0
 10
488.7898854615583
 20
503.7545107389423
 30
0.0
 10
489.6337431674835
 20
503.714015779549
 30
0.0
 10
491.3112506315401
 20
503.598168895766
 30
0.0
 10
492.1464969110809
 20
503.5227822573096
 30
0.0
 10
494.6418563560856
 20
503.2449445525436
 30
0.0
 10
496.2916080416264
 20
502.990904887032
 30
0.0
 10
501.1998705511814
 20
502.0246887830728
 30
0.0
 10
504.417687934727
 20
501.1099044540441
 30
0.0
 10
507.5789107537257
 20
499.9133423935416
 30
0.0
  0
SPLINE
  5
D4
330
1F
100
AcDbEntity
  8
0
  6
Continuous
 62
     8
370
    25
100
AcDbSpline
210
0.0
220
0.0
230
1.0
 70
     8
 71
     3
 72
    12
 73
     8
 74
     0
 42
0.000000001
 43
0.00000001
 40
0.0
 40
0.0
 40
0.0
 40
0.0
 40
0.2636010709884867
 40
0.4531124081899812
 40
0.6509881268194414
 40
0.8488681439494536
 40
1.0
 40
1.0
 40
1.0
 40
1.0
 10
519.2958047654201
 20
428.5573821795118
 30
0.0
 10
519.4152946873592
 20
428.5021247270063
 30
0.0
 10
519.6206897795764
 20
428.4071409043637
 30
0.0
 10
519.867627710106
 20
428.2929306018405
 30
0.0
 10
520.035032001258
 20
428.2155143177597
 30
0.0
 10
520.1347588861343
 20
428.1693946476636
 30
0.0
 10
520.1401763565698
 20
428.1668928246601
 30
0.0
 10
520.1425222720673
 20
428.1658094656598
 30
0.0
  0
SPLINE
  5
D5
330
1F
100
AcDbEntity
  8
0
  6
Continuous
 62
     8
370
    25
100
AcDbSpline
210
0.0
220
0.0
230
1.0
 70
     8
 71
     3
 72
    12
 73
     8
 74
     0
 42
0.000000001
 43
0.00000001
 40
0.0
 40
0.0
 40
0.0
 40
0.0
 40
0.1511314823587866
 40
0.3490110102065669
 40
0.546886239564424
 40
0.736395390801642
 40
1.0
 40
1.0
 40
1.0
 40
1.0
 10
452.5351977016498
 20
459.4315227401387
 30
0.0
 10
452.5375436044405
 20
459.4304393426606
 30
0.0
 10
452.5429610455326
 20
459.4279374307995
 30
0.0
 10
452.6426882029778
 20
459.3818185860915
 30
0.0
 10
452.8100909310048
 20
459.3043992832643
 30
0.0
 10
453.0570338557199
 20
459.1902017699273
 30
0.0
 10
453.2624281996895
 20
459.095211693689
 30
0.0
 10
453.3819189335872
 20
459.0399500262868
 30
0.0
  0
ENDSEC
  0
SECTION
  2
OBJECTS
  0
DICTIONARY
  5
C
330
0
100
AcDbDictionary
281
     1
  3
ACAD_GROUP
350
D
  3
ACAD_LAYOUT
350
1A
  3
ACAD_MLINESTYLE
350
17
  3
ACAD_PLOTSETTINGS
350
19
  3
ACAD_PLOTSTYLENAME
350
E
  3
ACAD_SCALELIST
350
47
  0
DICTIONARY
  5
D
102
{ACAD_REACTORS
330
C
102
}
330
C
100
AcDbDictionary
281
     1
  0
DICTIONARY
  5
1A
102
{ACAD_REACTORS
330
C
102
}
330
C
100
AcDbDictionary
281
     1
  3
Layout1
350
1E
  3
Layout2
350
26
  3
Model
350
22
  0
DICTIONARY
  5
17
102
{ACAD_REACTORS
330
C
102
}
330
C
100
AcDbDictionary
281
     1
  3
Standard
350
18
  0
DICTIONARY
  5
19
102
{ACAD_REACTORS
330
C
102
}
330
C
100
AcDbDictionary
281
     1
  0
ACDBDICTIONARYWDFLT
  5
E
102
{ACAD_REACTORS
330
C
102
}
330
C
100
AcDbDictionary
281
     1
  3
Normal
350
F
100
AcDbDictionaryWithDefault
340
F
  0
DICTIONARY
  5
47
102
{ACAD_REACTORS
330
C
102
}
330
C
100
AcDbDictionary
281
     1
  3
A0
350
48
  3
A1
350
49
  3
A2
350
4A
  3
A3
350
4B
  3
A4
350
4C
  3
A5
350
4D
  3
A6
350
4E
  3
A7
350
4F
  3
A8
350
50
  3
A9
350
51
  3
B0
350
52
  3
B1
350
53
  3
B2
350
54
  3
B3
350
55
  3
B4
350
56
  3
B5
350
57
  3
B6
350
58
  3
B7
350
59
  3
B8
350
5A
  3
B9
350
5B
  3
C0
350
5C
  3
C1
350
5D
  3
C2
350
5E
  3
C3
350
5F
  3
C4
350
60
  3
C5
350
61
  3
C6
350
62
  3
C7
350
63
  3
C8
350
64
  3
C9
350
65
  3
D0
350
66
  3
D1
350
67
  3
D2
350
68
  0
LAYOUT
  5
1E
102
{ACAD_REACTORS
330
1A
102
}
330
1A
100
AcDbPlotSettings
  1

  2
none_device
  4

  6

 40
0.0
 41
0.0
 42
0.0
 43
0.0
 44
0.0
 45
0.0
 46
0.0
 47
0.0
 48
0.0
 49
0.0
140
0.0
141
0.0
142
1.0
143
1.0
 70
   688
 72
     1
 73
     0
 74
     5
  7

 75
    16
147
1.0
148
0.0
149
0.0
100
AcDbLayout
  1
Layout1
 70
     1
 71
     1
 10
0.0
 20
0.0
 11
420.0
 21
297.0
 12
0.0
 22
0.0
 32
0.0
 14
1.0000000000E+20
 24
1.0000000000E+20
 34
1.0000000000E+20
 15
-1.0000000000E+20
 25
-1.0000000000E+20
 35
-1.0000000000E+20
146
0.0
 13
0.0
 23
0.0
 33
0.0
 16
1.0
 26
0.0
 36
0.0
 17
0.0
 27
1.0
 37
0.0
 76
     0
330
1B
  0
LAYOUT
  5
26
102
{ACAD_REACTORS
330
1A
102
}
330
1A
100
AcDbPlotSettings
  1

  2
none_device
  4

  6

 40
0.0
 41
0.0
 42
0.0
 43
0.0
 44
0.0
 45
0.0
 46
0.0
 47
0.0
 48
0.0
 49
0.0
140
0.0
141
0.0
142
1.0
143
1.0
 70
   688
 72
     1
 73
     0
 74
     5
  7

 75
    16
147
1.0
148
0.0
149
0.0
100
AcDbLayout
  1
Layout2
 70
     1
 71
     2
 10
0.0
 20
0.0
 11
0.0
 21
0.0
 12
0.0
 22
0.0
 32
0.0
 14
0.0
 24
0.0
 34
0.0
 15
0.0
 25
0.0
 35
0.0
146
0.0
 13
0.0
 23
0.0
 33
0.0
 16
1.0
 26
0.0
 36
0.0
 17
0.0
 27
1.0
 37
0.0
 76
     0
330
23
  0
LAYOUT
  5
22
102
{ACAD_REACTORS
330
1A
102
}
330
1A
100
AcDbPlotSettings
  1

  2
none_device
  4
Letter_(8.50_x_11.00_Inches)
  6

 40
6.35
 41
6.35
 42
6.35000508
 43
6.35000508
 44
215.9
 45
279.4
 46
0.0
 47
0.0
 48
0.0
 49
0.0
140
0.0
141
0.0
142
1.0
143
1.0
 70
  1712
 72
     1
 73
     0
 74
     0
  7

 75
     0
147
1.0
148
0.0
149
0.0
100
AcDbLayout
  1
Model
 70
     1
 71
     0
 10
0.0
 20
0.0
 11
1000.0
 21
700.0
 12
0.0
 22
0.0
 32
0.0
 14
0.0
 24
0.0
 34
0.0
 15
1000.0
 25
700.0
 35
0.0
146
0.0
 13
0.0
 23
0.0
 33
0.0
 16
1.0
 26
0.0
 36
0.0
 17
0.0
 27
1.0
 37
0.0
 76
     0
330
1F
331
29
  0
MLINESTYLE
  5
18
102
{ACAD_REACTORS
330
17
102
}
330
17
100
AcDbMlineStyle
  2
Standard
 70
     0
  3

 62
   256
 51
90.0
 52
90.0
 71
     2
 49
0.5
 62
   256
  6
BYLAYER
 49
-0.5
 62
   256
  6
BYLAYER
  0
ACDBPLACEHOLDER
  5
F
102
{ACAD_REACTORS
330
E
102
}
330
E
  0
SCALE
  5
48
102
{ACAD_REACTORS
330
47
102
}
330
47
100
AcDbScale
 70
     0
300
1:1
140
1.0
141
1.0
290
     1
  0
SCALE
  5
49
102
{ACAD_REACTORS
330
47
102
}
330
47
100
AcDbScale
 70
     0
300
1:2
140
1.0
141
2.0
290
     0
  0
SCALE
  5
4A
102
{ACAD_REACTORS
330
47
102
}
330
47
100
AcDbScale
 70
     0
300
1:4
140
1.0
141
4.0
290
     0
  0
SCALE
  5
4B
102
{ACAD_REACTORS
330
47
102
}
330
47
100
AcDbScale
 70
     0
300
1:5
140
1.0
141
5.0
290
     0
  0
SCALE
  5
4C
102
{ACAD_REACTORS
330
47
102
}
330
47
100
AcDbScale
 70
     0
300
1:8
140
1.0
141
8.0
290
     0
  0
SCALE
  5
4D
102
{ACAD_REACTORS
330
47
102
}
330
47
100
AcDbScale
 70
     0
300
1:10
140
1.0
141
10.0
290
     0
  0
SCALE
  5
4E
102
{ACAD_REACTORS
330
47
102
}
330
47
100
AcDbScale
 70
     0
300
1:16
140
1.0
141
16.0
290
     0
  0
SCALE
  5
4F
102
{ACAD_REACTORS
330
47
102
}
330
47
100
AcDbScale
 70
     0
300
1:20
140
1.0
141
20.0
290
     0
  0
SCALE
  5
50
102
{ACAD_REACTORS
330
47
102
}
330
47
100
AcDbScale
 70
     0
300
1:30
140
1.0
141
30.0
290
     0
  0
SCALE
  5
51
102
{ACAD_REACTORS
330
47
102
}
330
47
100
AcDbScale
 70
     0
300
1:40
140
1.0
141
40.0
290
     0
  0
SCALE
  5
52
102
{ACAD_REACTORS
330
47
102
}
330
47
100
AcDbScale
 70
     0
300
1:50
140
1.0
141
50.0
290
     0
  0
SCALE
  5
53
102
{ACAD_REACTORS
330
47
102
}
330
47
100
AcDbScale
 70
     0
300
1:100
140
1.0
141
100.0
290
     0
  0
SCALE
  5
54
102
{ACAD_REACTORS
330
47
102
}
330
47
100
AcDbScale
 70
     0
300
2:1
140
2.0
141
1.0
290
     0
  0
SCALE
  5
55
102
{ACAD_REACTORS
330
47
102
}
330
47
100
AcDbScale
 70
     0
300
4:1
140
4.0
141
1.0
290
     0
  0
SCALE
  5
56
102
{ACAD_REACTORS
330
47
102
}
330
47
100
AcDbScale
 70
     0
300
8:1
140
8.0
141
1.0
290
     0
  0
SCALE
  5
57
102
{ACAD_REACTORS
330
47
102
}
330
47
100
AcDbScale
 70
     0
300
10:1
140
10.0
141
1.0
290
     0
  0
SCALE
  5
58
102
{ACAD_REACTORS
330
47
102
}
330
47
100
AcDbScale
 70
     0
300
100:1
140
100.0
141
1.0
290
     0
  0
SCALE
  5
59
102
{ACAD_REACTORS
330
47
102
}
330
47
100
AcDbScale
 70
     0
300
1/128" = 1'-0"
140
0.0078125
141
12.0
290
     0
  0
SCALE
  5
5A
102
{ACAD_REACTORS
330
47
102
}
330
47
100
AcDbScale
 70
     0
300
1/64" = 1'-0"
140
0.015625
141
12.0
290
     0
  0
SCALE
  5
5B
102
{ACAD_REACTORS
330
47
102
}
330
47
100
AcDbScale
 70
     0
300
1/32" = 1'-0"
140
0.03125
141
12.0
290
     0
  0
SCALE
  5
5C
102
{ACAD_REACTORS
330
47
102
}
330
47
100
AcDbScale
 70
     0
300
1/16" = 1'-0"
140
0.0625
141
12.0
290
     0
  0
SCALE
  5
5D
102
{ACAD_REACTORS
330
47
102
}
330
47
100
AcDbScale
 70
     0
300
3/32" = 1'-0"
140
0.09375
141
12.0
290
     0
  0
SCALE
  5
5E
102
{ACAD_REACTORS
330
47
102
}
330
47
100
AcDbScale
 70
     0
300
1/8" = 1'-0"
140
0.125
141
12.0
290
     0
  0
SCALE
  5
5F
102
{ACAD_REACTORS
330
47
102
}
330
47
100
AcDbScale
 70
     0
300
3/16" = 1'-0"
140
0.1875
141
12.0
290
     0
  0
SCALE
  5
60
102
{ACAD_REACTORS
330
47
102
}
330
47
100
AcDbScale
 70
     0
300
1/4" = 1'-0"
140
0.25
141
12.0
290
     0
  0
SCALE
  5
61
102
{ACAD_REACTORS
330
47
102
}
330
47
100
AcDbScale
 70
     0
300
3/8" = 1'-0"
140
0.375
141
12.0
290
     0
  0
SCALE
  5
62
102
{ACAD_REACTORS
330
47
102
}
330
47
100
AcDbScale
 70
     0
300
1/2" = 1'-0"
140
0.5
141
12.0
290
     0
  0
SCALE
  5
63
102
{ACAD_REACTORS
330
47
102
}
330
47
100
AcDbScale
 70
     0
300
3/4" = 1'-0"
140
0.75
141
12.0
290
     0
  0
SCALE
  5
64
102
{ACAD_REACTORS
330
47
102
}
330
47
100
AcDbScale
 70
     0
300
1" = 1'-0"
140
1.0
141
12.0
290
     0
  0
SCALE
  5
65
102
{ACAD_REACTORS
330
47
102
}
330
47
100
AcDbScale
 70
     0
300
1-1/2" = 1'-0"
140
1.5
141
12.0
290
     0
  0
SCALE
  5
66
102
{ACAD_REACTORS
330
47
102
}
330
47
100
AcDbScale
 70
     0
300
3" = 1'-0"
140
3.0
141
12.0
290
     0
  0
SCALE
  5
67
102
{ACAD_REACTORS
330
47
102
}
330
47
100
AcDbScale
 70
     0
300
6" = 1'-0"
140
6.0
141
12.0
290
     0
  0
SCALE
  5
68
102
{ACAD_REACTORS
330
47
102
}
330
47
100
AcDbScale
 70
     0
300
1'-0" = 1'-0"
140
12.0
141
12.0
290
     0
  0
ENDSEC
  0
EOF
