  0
SECTION
  2
HEADER
  9
$ACADVER
  1
AC1015
  9
$ACADMAINTVER
 70
     6
  9
$DWGCODEPAGE
  3
ANSI_1252
  9
$INSBASE
 10
0.0
 20
0.0
 30
0.0
  9
$EXTMIN
 10
0.0
 20
0.0
 30
0.0
  9
$EXTMAX
 10
1200.0
 20
800.0
 30
0.0
  9
$LIMMIN
 10
0.0
 20
0.0
  9
$LIMMAX
 10
1200.0
 20
800.0
  9
$ORTHOMODE
 70
     0
  9
$REGENMODE
 70
     1
  9
$FILLMODE
 70
     1
  9
$QTEXTMODE
 70
     0
  9
$MIRRTEXT
 70
     1
  9
$LTSCALE
 40
1.0
  9
$ATTMODE
 70
     1
  9
$TEXTSIZE
 40
5.0
  9
$TRACEWID
 40
1.0
  9
$TEXTSTYLE
  7
Standard
  9
$CLAYER
  8
0
  9
$CELTYPE
  6
ByLayer
  9
$CECOLOR
 62
   256
  9
$CELTSCALE
 40
1.0
  9
$DISPSILH
 70
     0
  9
$DIMSCALE
 40
1.0
  9
$DIMASZ
 40
6.0
  9
$DIMEXO
 40
1.0
  9
$DIMDLI
 40
3.75
  9
$DIMRND
 40
0.0
  9
$DIMDLE
 40
0.0
  9
$DIMEXE
 40
1.0
  9
$DIMTP
 40
0.0
  9
$DIMTM
 40
0.0
  9
$DIMTXT
 40
5.0
  9
$DIMCEN
 40
2.5
  9
$DIMTSZ
 40
0.0
  9
$DIMTOL
 70
     0
  9
$DIMLIM
 70
     0
  9
$DIMTIH
 70
     1
  9
$DIMTOH
 70
     1
  9
$DIMSE1
 70
     0
  9
$DIMSE2
 70
     0
  9
$DIMTAD
 70
     1
  9
$DIMZIN
 70
     0
  9
$DIMBLK
  1

  9
$DIMASO
 70
     1
  9
$DIMSHO
 70
     1
  9
$DIMPOST
  1

  9
$DIMAPOST
  1

  9
$DIMALT
 70
     0
  9
$DIMALTD
 70
     3
  9
$DIMALTF
 40
0.0393700787
  9
$DIMLFAC
 40
1.0
  9
$DIMTOFL
 70
     1
  9
$DIMTVP
 40
0.0
  9
$DIMTIX
 70
     0
  9
$DIMSOXD
 70
     0
  9
$DIMSAH
 70
     0
  9
$DIMBLK1
  1

  9
$DIMBLK2
  1

  9
$DIMSTYLE
  2
ISO-25
  9
$DIMCLRD
 70
     0
  9
$DIMCLRE
 70
     0
  9
$DIMCLRT
 70
     0
  9
$DIMTFAC
 40
1.0
  9
$DIMGAP
 40
1.524
  9
$DIMJUST
 70
     0
  9
$DIMSD1
 70
     0
  9
$DIMSD2
 70
     0
  9
$DIMTOLJ
 70
     0
  9
$DIMTZIN
 70
     0
  9
$DIMALTZ
 70
     0
  9
$DIMALTTZ
 70
     0
  9
$DIMUPT
 70
     0
  9
$DIMDEC
 70
     2
  9
$DIMTDEC
 70
     2
  9
$DIMALTU
 70
     2
  9
$DIMALTTD
 70
     3
  9
$DIMTXSTY
  7
Standard
  9
$DIMAUNIT
 70
     0
  9
$DIMADEC
 70
     2
  9
$DIMALTRND
 40
0.0
  9
$DIMAZIN
 70
     0
  9
$DIMDSEP
 70
    44
  9
$DIMATFIT
 70
     3
  9
$DIMFRAC
 70
     0
  9
$DIMLDRBLK
  1

  9
$DIMLUNIT
 70
     2
  9
$DIMLWD
 70
    -2
  9
$DIMLWE
 70
    -2
  9
$DIMTMOVE
 70
     0
  9
$LUNITS
 70
     2
  9
$LUPREC
 70
     2
  9
$SKETCHINC
 40
1.0
  9
$FILLETRAD
 40
10.0
  9
$AUNITS
 70
     0
  9
$AUPREC
 70
     2
  9
$MENU
  1
.
  9
$ELEVATION
 40
0.0
  9
$PELEVATION
 40
0.0
  9
$THICKNESS
 40
0.0
  9
$LIMCHECK
 70
     0
  9
$CHAMFERA
 40
0.0
  9
$CHAMFERB
 40
0.0
  9
$CHAMFERC
 40
0.0
  9
$CHAMFERD
 40
0.0
  9
$SKPOLY
 70
     0
  9
$TDCREATE
 40
2458642.597970486
  9
$TDUCREATE
 40
2458642.472970486
  9
$TDUPDATE
 40
2458642.597971204
  9
$TDUUPDATE
 40
2458642.472971204
  9
$TDINDWG
 40
0.0000000116
  9
$TDUSRTIMER
 40
0.0000000116
  9
$USRTIMER
 70
     1
  9
$ANGBASE
 50
0.0
  9
$ANGDIR
 70
     0
  9
$PDMODE
 70
     0
  9
$PDSIZE
 40
-1.0
  9
$PLINEWID
 40
0.0
  9
$SPLFRAME
 70
     0
  9
$SPLINETYPE
 70
     6
  9
$SPLINESEGS
 70
     8
  9
$HANDSEED
  5
D3
  9
$SURFTAB1
 70
     6
  9
$SURFTAB2
 70
     6
  9
$SURFTYPE
 70
     6
  9
$SURFU
 70
     6
  9
$SURFV
 70
     6
  9
$UCSBASE
  2

  9
$UCSNAME
  2

  9
$UCSORG
 10
0.0
 20
0.0
 30
0.0
  9
$UCSXDIR
 10
1.0
 20
0.0
 30
0.0
  9
$UCSYDIR
 10
0.0
 20
1.0
 30
0.0
  9
$UCSORTHOREF
  2

  9
$UCSORTHOVIEW
 70
     0
  9
$UCSORGTOP
 10
0.0
 20
0.0
 30
0.0
  9
$UCSORGBOTTOM
 10
0.0
 20
0.0
 30
0.0
  9
$UCSORGLEFT
 10
0.0
 20
0.0
 30
0.0
  9
$UCSORGRIGHT
 10
0.0
 20
0.0
 30
0.0
  9
$UCSORGFRONT
 10
0.0
 20
0.0
 30
0.0
  9
$UCSORGBACK
 10
0.0
 20
0.0
 30
0.0
  9
$PUCSBASE
  2

  9
$PUCSNAME
  2

  9
$PUCSORG
 10
0.0
 20
0.0
 30
0.0
  9
$PUCSXDIR
 10
1.0
 20
0.0
 30
0.0
  9
$PUCSYDIR
 10
0.0
 20
1.0
 30
0.0
  9
$PUCSORTHOREF
  2

  9
$PUCSORTHOVIEW
 70
     0
  9
$PUCSORGTOP
 10
0.0
 20
0.0
 30
0.0
  9
$PUCSORGBOTTOM
 10
0.0
 20
0.0
 30
0.0
  9
$PUCSORGLEFT
 10
0.0
 20
0.0
 30
0.0
  9
$PUCSORGRIGHT
 10
0.0
 20
0.0
 30
0.0
  9
$PUCSORGFRONT
 10
0.0
 20
0.0
 30
0.0
  9
$PUCSORGBACK
 10
0.0
 20
0.0
 30
0.0
  9
$USERI1
 70
     0
  9
$USERI2
 70
     0
  9
$USERI3
 70
     0
  9
$USERI4
 70
     0
  9
$USERI5
 70
     0
  9
$USERR1
 40
0.0
  9
$USERR2
 40
0.0
  9
$USERR3
 40
0.0
  9
$USERR4
 40
0.0
  9
$USERR5
 40
0.0
  9
$WORLDVIEW
 70
     1
  9
$SHADEDGE
 70
     3
  9
$SHADEDIF
 70
    70
  9
$TILEMODE
 70
     1
  9
$MAXACTVP
 70
    64
  9
$PINSBASE
 10
0.0
 20
0.0
 30
0.0
  9
$PLIMCHECK
 70
     0
  9
$PEXTMIN
 10
1.0000000000E+20
 20
1.0000000000E+20
 30
1.0000000000E+20
  9
$PEXTMAX
 10
-1.0000000000E+20
 20
-1.0000000000E+20
 30
-1.0000000000E+20
  9
$PLIMMIN
 10
0.0
 20
0.0
  9
$PLIMMAX
 10
420.0
 20
297.0
  9
$UNITMODE
 70
     0
  9
$VISRETAIN
 70
     1
  9
$PLINEGEN
 70
     0
  9
$PSLTSCALE
 70
     1
  9
$TREEDEPTH
 70
  3020
  9
$CMLSTYLE
  2
Standard
  9
$CMLJUST
 70
     0
  9
$CMLSCALE
 40
20.0
  9
$PROXYGRAPHICS
 70
     1
  9
$MEASUREMENT
 70
     1
  9
$CELWEIGHT
370
    -1
  9
$ENDCAPS
280
     0
  9
$JOINSTYLE
280
     0
  9
$LWDISPLAY
290
     1
  9
$INSUNITS
 70
     4
  9
$HYPERLINKBASE
  1

  9
$STYLESHEET
  1

  9
$XEDIT
290
     1
  9
$CEPSNTYPE
380
     0
  9
$PSTYLEMODE
290
     1
  9
$FINGERPRINTGUID
  2
{CE25EB70-51F1-4F19-9E07-D375CDF9E8B9}
  9
$VERSIONGUID
  2
{FAEB1C32-E019-11D5-929B-00C0DF256EC4}
  9
$EXTNAMES
290
     1
  9
$PSVPSCALE
 40
0.0
  9
$OLESTARTUP
290
     0
  0
ENDSEC
  0
SECTION
  2
CLASSES
  0
CLASS
  1
ACDBDICTIONARYWDFLT
  2
AcDbDictionaryWithDefault
  3
ObjectDBX Classes
 90
        0
280
     0
281
     0
  0
CLASS
  1
VISUALSTYLE
  2
AcDbVisualStyle
  3
ObjectDBX Classes
 90
     4095
280
     0
281
     0
  0
CLASS
  1
MATERIAL
  2
AcDbMaterial
  3
ObjectDBX Classes
 90
     1153
280
     0
281
     0
  0
CLASS
  1
SCALE
  2
AcDbScale
  3
ObjectDBX Classes
 90
     1153
280
     0
281
     0
  0
CLASS
  1
TABLESTYLE
  2
AcDbTableStyle
  3
ObjectDBX Classes
 90
     4095
280
     0
281
     0
  0
CLASS
  1
MLEADERSTYLE
  2
AcDbMLeaderStyle
  3
ACDB_MLEADERSTYLE_CLASS
 90
     4095
280
     0
281
     0
  0
CLASS
  1
SUN
  2
AcDbSun
  3
SCENEOE
 90
     1153
280
     0
281
     0
  0
CLASS
  1
ACDBPLACEHOLDER
  2
AcDbPlaceHolder
  3
ObjectDBX Classes
 90
        0
280
     0
281
     0
  0
CLASS
  1
LAYOUT
  2
AcDbLayout
  3
ObjectDBX Classes
 90
        0
280
     0
281
     0
  0
ENDSEC
  0
SECTION
  2
TABLES
  0
TABLE
  2
VPORT
  5
8
330
0
100
AcDbSymbolTable
 70
     1
  0
VPORT
  5
29
330
8
100
AcDbSymbolTableRecord
100
AcDbViewportTableRecord
  2
*Active
 70
     0
 10
0.0
 20
0.0
 11
1.0
 21
1.0
 12
600.0
 22
400.0
 13
0.0
 23
0.0
 14
10.0
 24
10.0
 15
10.0
 25
10.0
 16
0.0
 26
0.0
 36
1.0
 17
0.0
 27
0.0
 37
0.0
 40
800.0
 41
1.5
 42
50.0
 43
0.0
 44
0.0
 50
0.0
 51
0.0
 71
     0
 72
  2000
 73
     1
 74
     3
 75
     0
 76
     0
 77
     0
 78
     0
281
     0
 65
     1
110
0.0
120
0.0
130
0.0
111
1.0
121
0.0
131
0.0
112
0.0
122
1.0
132
0.0
 79
     0
146
0.0
  0
ENDTAB
  0
TABLE
  2
LTYPE
  5
5
330
0
100
AcDbSymbolTable
 70
     6
  0
LTYPE
  5
14
330
5
100
AcDbSymbolTableRecord
100
AcDbLinetypeTableRecord
  2
ByBlock
 70
     0
  3

 72
    65
 73
     0
 40
0.0
  0
LTYPE
  5
15
330
5
100
AcDbSymbolTableRecord
100
AcDbLinetypeTableRecord
  2
ByLayer
 70
     0
  3

 72
    65
 73
     0
 40
0.0
  0
LTYPE
  5
16
330
5
100
AcDbSymbolTableRecord
100
AcDbLinetypeTableRecord
  2
Continuous
 70
     0
  3
Solid line
 72
    65
 73
     0
 40
0.0
  0
LTYPE
  5
6E
330
5
100
AcDbSymbolTableRecord
100
AcDbLinetypeTableRecord
  2
HIDDEN
 70
     0
  3
Hidden __ __ __ __ __ __ __ __ __ __ __ __ __ __
 72
    65
 73
     2
 40
1.905
 49
1.27
 74
     0
 49
-0.635
 74
     0
  0
LTYPE
  5
6F
330
5
100
AcDbSymbolTableRecord
100
AcDbLinetypeTableRecord
  2
PHANTOM
 70
     0
  3
Phantom ______  __  __  ______  __  __  ______
 72
    65
 73
     6
 40
12.7
 49
6.35
 74
     0
 49
-1.27
 74
     0
 49
1.27
 74
     0
 49
-1.27
 74
     0
 49
1.27
 74
     0
 49
-1.27
 74
     0
  0
LTYPE
  5
70
330
5
100
AcDbSymbolTableRecord
100
AcDbLinetypeTableRecord
  2
CENTER
 70
     0
  3
Center ____ _ ____ _ ____ _ ____ _ ____ _ ____
 72
    65
 73
     4
 40
10.16
 49
6.35
 74
     0
 49
-1.27
 74
     0
 49
1.27
 74
     0
 49
-1.27
 74
     0
  0
LTYPE
  5
71
330
5
100
AcDbSymbolTableRecord
100
AcDbLinetypeTableRecord
  2
CENTERX2
 70
     0
  3
Center (2x) ________  __  ________  __  _____
 72
    65
 73
     4
 40
20.32
 49
12.7
 74
     0
 49
-2.54
 74
     0
 49
2.54
 74
     0
 49
-2.54
 74
     0
  0
LTYPE
  5
72
330
5
100
AcDbSymbolTableRecord
100
AcDbLinetypeTableRecord
  2
DOT2
 70
     0
  3
Dot (.5x) ........................................
 72
    65
 73
     2
 40
0.635
 49
0.0
 74
     0
 49
-0.635
 74
     0
  0
ENDTAB
  0
TABLE
  2
LAYER
  5
2
330
0
100
AcDbSymbolTable
 70
     2
  0
LAYER
  5
10
330
2
100
AcDbSymbolTableRecord
100
AcDbLayerTableRecord
  2
0
 70
     0
 62
     7
  6
Continuous
370
    -3
390
F
  0
LAYER
  5
73
330
2
100
AcDbSymbolTableRecord
100
AcDbLayerTableRecord
  2
TABLE_BL1
 70
     0
 62
   179
  6
Continuous
370
    -3
390
F
  0
ENDTAB
  0
TABLE
  2
STYLE
  5
3
330
0
100
AcDbSymbolTable
 70
     1
  0
STYLE
  5
11
330
3
100
AcDbSymbolTableRecord
100
AcDbTextStyleTableRecord
  2
Standard
 70
     0
 40
0.0
 41
1.0
 50
0.0
 71
     0
 42
5.0
  3
txt
  4

  0
ENDTAB
  0
TABLE
  2
VIEW
  5
6
330
0
100
AcDbSymbolTable
 70
     0
  0
ENDTAB
  0
TABLE
  2
UCS
  5
7
330
0
100
AcDbSymbolTable
 70
     0
  0
ENDTAB
  0
TABLE
  2
APPID
  5
9
330
0
100
AcDbSymbolTable
 70
     1
  0
APPID
  5
12
330
9
100
AcDbSymbolTableRecord
100
AcDbRegAppTableRecord
  2
ACAD
 70
     0
  0
ENDTAB
  0
TABLE
  2
DIMSTYLE
  5
A
330
0
100
AcDbSymbolTable
 70
     1
100
AcDbDimStyleTable
  0
DIMSTYLE
105
27
330
A
100
AcDbSymbolTableRecord
100
AcDbDimStyleTableRecord
  2
ISO-25
 70
     0
 41
2.5
 42
0.625
 43
3.75
 44
1.25
 73
     0
 74
     0
 77
     1
 78
     8
140
2.5
141
2.5
143
0.0393700787
147
0.625
171
     3
172
     1
178
     0
271
     2
272
     2
274
     3
278
    44
283
     0
284
     8
340
11
  0
ENDTAB
  0
TABLE
  2
BLOCK_RECORD
  5
1
330
0
100
AcDbSymbolTable
 70
     1
  0
BLOCK_RECORD
  5
1F
330
1
100
AcDbSymbolTableRecord
100
AcDbBlockTableRecord
  2
*Model_Space
340
22
  0
BLOCK_RECORD
  5
1B
330
1
100
AcDbSymbolTableRecord
100
AcDbBlockTableRecord
  2
*Paper_Space
340
1E
  0
BLOCK_RECORD
  5
23
330
1
100
AcDbSymbolTableRecord
100
AcDbBlockTableRecord
  2
*Paper_Space0
340
26
  0
ENDTAB
  0
ENDSEC
  0
SECTION
  2
BLOCKS
  0
BLOCK
  5
20
330
1F
100
AcDbEntity
  8
0
100
AcDbBlockBegin
  2
*Model_Space
 70
     0
 10
0.0
 20
0.0
 30
0.0
  3
*Model_Space
  1

  0
ENDBLK
  5
21
330
1F
100
AcDbEntity
  8
0
100
AcDbBlockEnd
  0
BLOCK
  5
1C
330
1B
100
AcDbEntity
 67
     1
  8
0
100
AcDbBlockBegin
  2
*Paper_Space
 70
     0
 10
0.0
 20
0.0
 30
0.0
  3
*Paper_Space
  1

  0
ENDBLK
  5
1D
330
1B
100
AcDbEntity
 67
     1
  8
0
100
AcDbBlockEnd
  0
BLOCK
  5
24
330
23
100
AcDbEntity
  8
0
100
AcDbBlockBegin
  2
*Paper_Space0
 70
     0
 10
0.0
 20
0.0
 30
0.0
  3
*Paper_Space0
  1

  0
ENDBLK
  5
25
330
23
100
AcDbEntity
  8
0
100
AcDbBlockEnd
  0
ENDSEC
  0
SECTION
  2
ENTITIES
  0
SPLINE
  5
74
330
1F
100
AcDbEntity
  8
0
  6
Continuous
 62
     7
370
    25
100
AcDbSpline
210
0.0
220
0.0
230
1.0
 70
     8
 71
     3
 72
    29
 73
    25
 74
     0
 42
0.000000001
 43
0.00000001
 40
0.0
 40
0.0
 40
0.0
 40
0.0
 40
0.0349321170031452
 40
0.0633980358165175
 40
0.0838985294393086
 40
0.1410481531075181
 40
0.1993926578261502
 40
0.2579538359077414
 40
0.3167358808929215
 40
0.375668503679406
 40
0.4347110466555819
 40
0.493836811414704
 40
0.5530116325121907
 40
0.6120982687082837
 40
0.6710428284763218
 40
0.7298261422227204
 40
0.7884257706104271
 40
0.8467957409648216
 40
0.8655669696754211
 40
0.8834823768738406
 40
0.9012873112327713
 40
0.9267778498179663
 40
0.960493459263603
 40
1.0
 40
1.0
 40
1.0
 40
1.0
 10
648.4185974990402
 20
439.5060236242713
 30
0.0
 10
648.9516415647056
 20
440.7598369060063
 30
0.0
 10
649.919059221179
 20
443.0353731792733
 30
0.0
 10
650.802896925545
 20
446.1903450360243
 30
0.0
 10
651.6369531048725
 20
450.240730381643
 30
0.0
 10
652.0612800437517
 20
455.5551976146338
 30
0.0
 10
651.3712460797674
 20
462.3384940080635
 30
0.0
 10
649.434863884545
 20
468.9449537458797
 30
0.0
 10
646.3098535844168
 20
475.1048356188289
 30
0.0
 10
642.0936493771641
 20
480.600198231058
 30
0.0
 10
636.926743507587
 20
485.2334274085977
 30
0.0
 10
630.9851102420953
 20
488.8381771705277
 30
0.0
 10
624.4779542643164
 20
491.2834124497634
 30
0.0
 10
617.638156502657
 20
492.4830844193822
 30
0.0
 10
610.7100490314102
 20
492.4012622275804
 30
0.0
 10
603.9337975465737
 20
491.0500777580923
 30
0.0
 10
597.542525993254
 20
488.4887044413413
 30
0.0
 10
593.0478604154823
 20
485.6386092533577
 30
0.0
 10
590.1814446991159
 20
483.2911036719536
 30
0.0
 10
588.6181574927439
 20
481.8527612405475
 30
0.0
 10
586.9547091012975
 20
480.1417634371369
 30
0.0
 10
585.0167628898411
 20
477.8483779539874
 30
0.0
 10
582.785474973384
 20
474.7011571226845
 30
0.0
 10
581.4954096390373
 20
472.1524054624047
 30
0.0
 10
580.7993631755386
 20
470.7772428778113
 30
0.0
  0
SPLINE
  5
75
330
1F
100
AcDbEntity
  8
0
  6
Continuous
 62
     7
370
    25
100
AcDbSpline
210
0.0
220
0.0
230
1.0
 70
     8
 71
     3
 72
    29
 73
    25
 74
     0
 42
0.000000001
 43
0.00000001
 40
0.0
 40
0.0
 40
0.0
 40
0.0
 40
0.0349321175144943
 40
0.0633980192014782
 40
0.083898481901555
 40
0.1410481115014199
 40
0.1993926487809493
 40
0.2579538277197805
 40
0.3167358451431239
 40
0.3756685193640116
 40
0.4347110419272859
 40
0.4938367992863044
 40
0.5530116156446142
 40
0.612098258211715
 40
0.6710428190309197
 40
0.7298261336378099
 40
0.7884258101909641
 40
0.8467958069959729
 40
0.8655669171580652
 40
0.8834823931066137
 40
0.9012872820103504
 40
0.9267778040689812
 40
0.9604934609330068
 40
1.0
 40
1.0
 40
1.0
 40
1.0
 10
580.7993631755386
 20
470.7772428778113
 30
0.0
 10
580.2663180063233
 20
469.5234299145014
 30
0.0
 10
579.2988986147235
 20
467.2478948488129
 30
0.0
 10
578.4150730948288
 20
464.0929214664252
 30
0.0
 10
577.5810137529414
 20
460.0425388660856
 30
0.0
 10
577.1566782986289
 20
454.7280716041489
 30
0.0
 10
577.8467150890092
 20
447.9447738382904
 30
0.0
 10
579.7830952946553
 20
441.3383131885047
 30
0.0
 10
582.908110783221
 20
435.178433469898
 30
0.0
 10
587.1243072898422
 20
429.6830648032682
 30
0.0
 10
592.2912184230322
 20
425.049839621625
 30
0.0
 10
598.232850273208
 20
421.4450904050851
 30
0.0
 10
604.7400072886376
 20
418.9998596725033
 30
0.0
 10
611.5798036394103
 20
417.8001800931814
 30
0.0
 10
618.5079118713269
 20
417.8820066631599
 30
0.0
 10
625.2841643079526
 20
419.2331926869167
 30
0.0
 10
631.6754413105413
 20
421.794558479018
 30
0.0
 10
636.1701080968897
 20
424.6446517438144
 30
0.0
 10
639.0365127257555
 20
426.9921692507132
 30
0.0
 10
640.5997990867766
 20
428.4305065559317
 30
0.0
 10
642.2632559834212
 20
430.1414970055924
 30
0.0
 10
644.2011846018721
 20
432.4348961745912
 30
0.0
 10
646.4325001226722
 20
435.5820985084471
 30
0.0
 10
647.7225563912275
 20
438.1308578257107
 30
0.0
 10
648.4185974990402
 20
439.5060236242713
 30
0.0
  0
ARC
  5
76
330
1F
100
AcDbEntity
  8
0
  6
Continuous
 62
     7
370
    25
100
AcDbCircle
 10
614.6089812113
 20
455.1416335975
 30
0.0
 40
36.31056399417611
100
AcDbArc
 50
155.1813223123
 51
335.1813223292
  0
ARC
  5
77
330
1F
100
AcDbEntity
  8
0
  6
Continuous
 62
     7
370
    25
100
AcDbCircle
 10
614.6089812113
 20
455.1416335975
 30
0.0
 40
36.31056399417611
100
AcDbArc
 50
335.1813223292
 51
155.1813223123
  0
ARC
  5
78
330
1F
100
AcDbEntity
  8
0
  6
Continuous
 62
     7
370
    25
100
AcDbCircle
 10
614.6089812113
 20
455.1416335975
 30
0.0
 40
38.298998057
100
AcDbArc
 50
37.2549368278
 51
217.2549368278
  0
ARC
  5
79
330
1F
100
AcDbEntity
  8
0
  6
Continuous
 62
     7
370
    25
100
AcDbCircle
 10
614.6089812113
 20
455.1416335975
 30
0.0
 40
39.50000000000009
100
AcDbArc
 50
37.2549368278
 51
217.2549368513
  0
ARC
  5
7A
330
1F
100
AcDbEntity
  8
0
  6
Continuous
 62
     7
370
    25
100
AcDbCircle
 10
614.6089812113
 20
455.1416335975
 30
0.0
 40
38.298998057
100
AcDbArc
 50
217.2549368278
 51
37.2549368278
  0
ARC
  5
7B
330
1F
100
AcDbEntity
  8
0
  6
Continuous
 62
     7
370
    25
100
AcDbCircle
 10
614.6089812113
 20
455.1416335975
 30
0.0
 40
39.50000000000009
100
AcDbArc
 50
217.2549368513
 51
37.2549368176
  0
CIRCLE
  5
7C
330
1F
100
AcDbEntity
  8
0
  6
Continuous
 62
     7
370
    25
100
AcDbCircle
 10
614.6089812113
 20
455.1416335975
 30
0.0
 40
57.00000000000012
  0
SPLINE
  5
7D
330
1F
100
AcDbEntity
  8
0
  6
Continuous
 62
     7
370
    25
100
AcDbSpline
210
0.0
220
0.0
230
1.0
 70
     8
 71
     3
 72
    35
 73
    31
 74
     0
 42
0.000000001
 43
0.00000001
 40
0.0
 40
0.0
 40
0.0
 40
0.0
 40
0.0282546046701971
 40
0.0583834616195503
 40
0.0903495472575577
 40
0.1258616430420151
 40
0.1640104765127878
 40
0.2048405058965986
 40
0.2374624953283069
 40
0.2716127165722723
 40
0.307191449174674
 40
0.3440550179250264
 40
0.3820151200123634
 40
0.4208413537202062
 40
0.46026730539316
 40
0.5000000232321323
 40
0.5397327636721336
 40
0.5791586477778067
 40
0.6179848635293875
 40
0.6559449775248866
 40
0.6928085819330415
 40
0.7283872804306465
 40
0.7625375624243236
 40
0.7951594799764636
 40
0.8359928655185762
 40
0.8741415695049556
 40
0.9096504601863136
 40
0.9416198077676916
 40
0.9717470290076938
 40
1.0
 40
1.0
 40
1.0
 40
1.0
 10
658.6168404614006
 20
450.4960025337638
 30
0.0
 10
658.7207616411384
 20
451.8013609699381
 30
0.0
 10
658.9354975498338
 20
454.4986680123732
 30
0.0
 10
658.7847046601412
 20
458.6898500972021
 30
0.0
 10
658.2109477075469
 20
463.1801518454171
 30
0.0
 10
657.0704724111524
 20
467.9487821837579
 30
0.0
 10
655.2479981810357
 20
472.9415811148347
 30
0.0
 10
652.8807684781926
 20
477.5533800893044
 30
0.0
 10
650.1052339874384
 20
481.7025579383027
 30
0.0
 10
647.0656599650625
 20
485.3523217180128
 30
0.0
 10
643.5031230532516
 20
488.7849623121506
 30
0.0
 10
639.4327663433022
 20
491.898845295575
 30
0.0
 10
634.8950917127476
 20
494.5912120794202
 30
0.0
 10
629.9569904032564
 20
496.7661616858339
 30
0.0
 10
624.7102385369304
 20
498.3430148729784
 30
0.0
 10
619.2666920068182
 20
499.2639460810324
 30
0.0
 10
613.7508432186328
 20
499.4999289625975
 30
0.0
 10
608.2904934288277
 20
499.0533604215435
 30
0.0
 10
603.0071114106823
 20
497.9574191759297
 30
0.0
 10
598.0072845431688
 20
496.2718717142095
 30
0.0
 10
593.3764632071486
 20
494.0765179683424
 30
0.0
 10
589.1757167324681
 20
491.4633883540367
 30
0.0
 10
585.4410653857135
 20
488.5287434488343
 30
0.0
 10
581.8602432539421
 20
485.0504481401221
 30
0.0
 10
578.5821858834443
 20
481.0344375392774
 30
0.0
 10
575.7574044711979
 20
476.5322068593049
 30
0.0
 10
573.6464206723203
 20
472.1068025050045
 30
0.0
 10
572.1477488042475
 20
467.835344568693
 30
0.0
 10
571.1252409917244
 20
463.7680102562043
 30
0.0
 10
570.7720524932413
 20
461.0854724743128
 30
0.0
 10
570.6011276637588
 20
459.7872639683188
 30
0.0
  0
SPLINE
  5
7E
330
1F
100
AcDbEntity
  8
0
  6
Continuous
 62
     7
370
    25
100
AcDbSpline
210
0.0
220
0.0
230
1.0
 70
     8
 71
     3
 72
    35
 73
    31
 74
     0
 42
0.000000001
 43
0.00000001
 40
0.0
 40
0.0
 40
0.0
 40
0.0
 40
0.0282546083235918
 40
0.0583834388949231
 40
0.090349531846947
 40
0.125861654203906
 40
0.1640104882063675
 40
0.2048404936749417
 40
0.2374624612766906
 40
0.2716127276128315
 40
0.307191460711102
 40
0.3440550299752302
 40
0.382015079636124
 40
0.4208413246918802
 40
0.4602672691977037
 40
0.4999999920627139
 40
0.539732731910517
 40
0.579158615473015
 40
0.6179848842695156
 40
0.6559449987940732
 40
0.6928085495210542
 40
0.7283872869647539
 40
0.7625375272721067
 40
0.7951594930817449
 40
0.8359928245170037
 40
0.87414157445334
 40
0.9096504644961853
 40
0.9416198378098612
 40
0.9717470206260791
 40
1.0
 40
1.0
 40
1.0
 40
1.0
 10
570.6011276637588
 20
459.7872639683188
 30
0.0
 10
570.4972035195439
 20
458.4819055970287
 30
0.0
 10
570.2824615965982
 20
455.7846000873092
 30
0.0
 10
570.4332542447172
 20
451.5934181894382
 30
0.0
 10
571.0070237638586
 20
447.1031180305947
 30
0.0
 10
572.1474936283886
 20
442.3344849975156
 30
0.0
 10
573.9699720553306
 20
437.3416876215679
 30
0.0
 10
576.3371900940055
 20
432.7298852493875
 30
0.0
 10
579.1127284266606
 20
428.5807094545786
 30
0.0
 10
582.1523077653907
 20
424.9309490744313
 30
0.0
 10
585.7148447161027
 20
421.4983057270529
 30
0.0
 10
589.7852001069288
 20
418.3844248301837
 30
0.0
 10
594.3228717636432
 20
415.6920576554567
 30
0.0
 10
599.2609686560941
 20
413.5171024872566
 30
0.0
 10
604.5077234041016
 20
411.9402584603361
 30
0.0
 10
609.9512680070036
 20
411.0193172071487
 30
0.0
 10
615.4671175742649
 20
410.7833436106999
 30
0.0
 10
620.927469664591
 20
411.2299075598061
 30
0.0
 10
626.2108542882553
 20
412.3258486192275
 30
0.0
 10
631.2106818967932
 20
414.0113946191801
 30
0.0
 10
635.8414994759507
 20
416.2067533690043
 30
0.0
 10
640.0422508161646
 20
418.8198706823196
 30
0.0
 10
643.7768960960979
 20
421.7545267313164
 30
0.0
 10
647.357723601162
 20
425.2328126929283
 30
0.0
 10
650.6357783185862
 20
429.2488289848479
 30
0.0
 10
653.4605515211967
 20
433.751063300093
 30
0.0
 10
655.5715501255147
 20
438.1764638948441
 30
0.0
 10
657.0702204228057
 20
442.4479225818713
 30
0.0
 10
658.092716269044
 20
446.5152590688941
 30
0.0
 10
658.4459119953576
 20
449.1977942387007
 30
0.0
 10
658.6168404614006
 20
450.4960025337638
 30
0.0
  0
ARC
  5
7F
330
1F
100
AcDbEntity
  8
0
  6
Continuous
 62
     7
370
    25
100
AcDbCircle
 10
614.6089812113
 20
455.1416335975
 30
0.0
 40
40.35476230894871
100
AcDbArc
 50
353.973964907
 51
173.973964907
  0
ARC
  5
80
330
1F
100
AcDbEntity
  8
0
  6
Continuous
 62
     7
370
    25
100
AcDbCircle
 10
614.6089812113
 20
455.1416335975
 30
0.0
 40
40.35476230894871
100
AcDbArc
 50
173.973964907
 51
353.973964907
  0
CIRCLE
  5
81
330
1F
100
AcDbEntity
  8
0
  6
Continuous
 62
     7
370
    25
100
AcDbCircle
 10
614.6089812113
 20
455.1416335975
 30
0.0
 40
39.93812333100002
  0
ARC
  5
82
330
1F
100
AcDbEntity
  8
0
  6
Continuous
 62
     7
370
    25
100
AcDbCircle
 10
984.6089812113
 20
645.1416335975
 30
0.0
 40
9.500000000000114
100
AcDbArc
 50
0.0
 51
90.0
  0
LINE
  5
83
330
1F
100
AcDbEntity
  8
0
  6
Continuous
 62
     7
370
    25
100
AcDbLine
 10
984.6089702045
 20
654.6416277674
 30
0.0
 11
984.6089702045
 21
655.1416213301
 31
0.0
  0
ARC
  5
84
330
1F
100
AcDbEntity
  8
0
  6
Continuous
 62
     7
370
    25
100
AcDbCircle
 10
984.6089812113
 20
645.1416335975
 30
0.0
 40
10.0
100
AcDbArc
 50
0.0
 51
90.0
  0
LINE
  5
85
330
1F
100
AcDbEntity
  8
0
  6
Continuous
 62
     7
370
    25
100
AcDbLine
 10
994.6089904701
 20
645.1416308669
 30
0.0
 11
994.1089671051
 21
645.1416308669
 31
0.0
  0
LINE
  5
86
330
1F
100
AcDbEntity
  8
0
  6
Continuous
 62
     7
370
    25
100
AcDbLine
 10
984.6089702045
 20
654.6416277674
 30
0.0
 11
244.6089904701
 21
654.6416277674
 31
0.0
  0
LINE
  5
87
330
1F
100
AcDbEntity
  8
0
  6
Continuous
 62
     7
370
    25
100
AcDbLine
 10
244.6089904701
 20
655.1416213301
 30
0.0
 11
244.6089904701
 21
654.6416277674
 31
0.0
  0
LINE
  5
88
330
1F
100
AcDbEntity
  8
0
  6
Continuous
 62
     7
370
    25
100
AcDbLine
 10
244.6089904701
 20
655.1416213301
 30
0.0
 11
984.6089702045
 21
655.1416213301
 31
0.0
  0
ARC
  5
89
330
1F
100
AcDbEntity
  8
0
  6
Continuous
 62
     7
370
    25
100
AcDbCircle
 10
244.6089812113
 20
645.1416335975
 30
0.0
 40
10.0
100
AcDbArc
 50
90.0
 51
180.0
  0
ARC
  5
8A
330
1F
100
AcDbEntity
  8
0
  6
Continuous
 62
     7
370
    25
100
AcDbCircle
 10
244.6089812113
 20
645.1416335975
 30
0.0
 40
9.5
100
AcDbArc
 50
90.0
 51
180.0
  0
LINE
  5
8B
330
1F
100
AcDbEntity
  8
0
  6
Continuous
 62
     7
370
    25
100
AcDbLine
 10
235.1089935695
 20
645.1416308669
 30
0.0
 11
234.6089702045
 21
645.1416308669
 31
0.0
  0
LINE
  5
8C
330
1F
100
AcDbEntity
  8
0
  6
Continuous
 62
     7
370
    25
100
AcDbLine
 10
244.6089904701
 20
150.6416345623
 30
0.0
 11
984.6089702045
 21
150.6416345623
 31
0.0
  0
ARC
  5
8D
330
1F
100
AcDbEntity
  8
0
  6
Continuous
 62
     7
370
    25
100
AcDbCircle
 10
244.6089812113
 20
160.1416335975
 30
0.0
 40
9.5
100
AcDbArc
 50
180.0
 51
270.0
  0
LINE
  5
8E
330
1F
100
AcDbEntity
  8
0
  6
Continuous
 62
     7
370
    25
100
AcDbLine
 10
235.1089935695
 20
645.1416308669
 30
0.0
 11
235.1089935695
 21
160.1416314629
 31
0.0
  0
LINE
  5
8F
330
1F
100
AcDbEntity
  8
0
  6
Continuous
 62
     7
370
    25
100
AcDbLine
 10
994.1089671051
 20
160.1416314629
 30
0.0
 11
994.1089671051
 21
645.1416308669
 31
0.0
  0
ARC
  5
90
330
1F
100
AcDbEntity
  8
0
  6
Continuous
 62
     7
370
    25
100
AcDbCircle
 10
984.6089812113
 20
160.1416335975
 30
0.0
 40
9.500000000000114
100
AcDbArc
 50
270.0
 51
0.0
  0
CIRCLE
  5
91
330
1F
100
AcDbEntity
  8
0
  6
Continuous
 62
     7
370
    25
100
AcDbCircle
 10
614.6092123809
 20
615.1411032538
 30
0.0
 40
17.99946965780055
  0
LINE
  5
92
330
1F
100
AcDbEntity
  8
0
  6
Continuous
 62
     7
370
    25
100
AcDbLine
 10
259.1089826023
 20
190.141632655
 30
0.0
 11
259.1089826023
 21
560.1416374234
 31
0.0
  0
ARC
  5
93
330
1F
100
AcDbEntity
  8
0
  6
Continuous
 62
     7
370
    25
100
AcDbCircle
 10
274.6089812113
 20
190.1416335975
 30
0.0
 40
15.5
100
AcDbArc
 50
180.0
 51
270.0
  0
LINE
  5
94
330
1F
100
AcDbEntity
  8
0
  6
Continuous
 62
     7
370
    25
100
AcDbLine
 10
954.6089839136
 20
174.6416384963
 30
0.0
 11
274.6089916622
 21
174.6416384963
 31
0.0
  0
ARC
  5
95
330
1F
100
AcDbEntity
  8
0
  6
Continuous
 62
     7
370
    25
100
AcDbCircle
 10
954.6089812113
 20
190.1416335975
 30
0.0
 40
15.5
100
AcDbArc
 50
270.0
 51
0.0
  0
LINE
  5
96
330
1F
100
AcDbEntity
  8
0
  6
Continuous
 62
     7
370
    25
100
AcDbLine
 10
970.1089780723
 20
560.1416374234
 30
0.0
 11
970.1089780723
 21
190.141632655
 31
0.0
  0
ARC
  5
97
330
1F
100
AcDbEntity
  8
0
  6
Continuous
 62
     7
370
    25
100
AcDbCircle
 10
954.6089812113
 20
560.1416335975
 30
0.0
 40
15.5
100
AcDbArc
 50
0.0
 51
90.0
  0
LINE
  5
98
330
1F
100
AcDbEntity
  8
0
  6
Continuous
 62
     7
370
    25
100
AcDbLine
 10
274.6089916622
 20
575.6416315821
 30
0.0
 11
954.6089839136
 21
575.6416315821
 31
0.0
  0
ARC
  5
99
330
1F
100
AcDbEntity
  8
0
  6
Continuous
 62
     7
370
    25
100
AcDbCircle
 10
274.6089812113
 20
560.1416335975
 30
0.0
 40
15.49999999999994
100
AcDbArc
 50
90.0
 51
180.0
  0
LINE
  5
9A
330
1F
100
AcDbEntity
  8
0
  6
Continuous
 62
     7
370
    25
100
AcDbLine
 10
234.6089702045
 20
160.1416314629
 30
0.0
 11
235.1089935695
 21
160.1416314629
 31
0.0
  0
LINE
  5
9B
330
1F
100
AcDbEntity
  8
0
  6
Continuous
 62
     7
370
    25
100
AcDbLine
 10
234.6089702045
 20
160.1416314629
 30
0.0
 11
234.6089702045
 21
645.1416308669
 31
0.0
  0
LINE
  5
9C
330
1F
100
AcDbEntity
  8
0
  6
Continuous
 62
     7
370
    25
100
AcDbLine
 10
994.1089671051
 20
160.1416314629
 30
0.0
 11
994.6089904701
 21
160.1416314629
 31
0.0
  0
LINE
  5
9D
330
1F
100
AcDbEntity
  8
0
  6
Continuous
 62
     7
370
    25
100
AcDbLine
 10
994.6089904701
 20
645.1416308669
 30
0.0
 11
994.6089904701
 21
160.1416314629
 31
0.0
  0
CIRCLE
  5
9E
330
1F
100
AcDbEntity
  8
0
  6
Continuous
 62
     7
370
    25
100
AcDbCircle
 10
614.6092123809
 20
615.1411032538
 30
0.0
 40
17.49946965780055
  0
LINE
  5
9F
330
1F
100
AcDbEntity
  8
0
  6
Continuous
 62
     7
370
    25
100
AcDbLine
 10
274.6089916622
 20
575.6416315821
 30
0.0
 11
274.6089916622
 21
575.1416380194
 31
0.0
  0
ARC
  5
A0
330
1F
100
AcDbEntity
  8
0
  6
Continuous
 62
     7
370
    25
100
AcDbCircle
 10
274.6089812113
 20
560.1416335975
 30
0.0
 40
15.0
100
AcDbArc
 50
90.0
 51
180.0
  0
LINE
  5
A1
330
1F
100
AcDbEntity
  8
0
  6
Continuous
 62
     7
370
    25
100
AcDbLine
 10
259.1089826023
 20
560.1416374234
 30
0.0
 11
259.608976165
 21
560.1416374234
 31
0.0
  0
LINE
  5
A2
330
1F
100
AcDbEntity
  8
0
  6
Continuous
 62
     7
370
    25
100
AcDbLine
 10
954.6089839136
 20
575.1416380194
 30
0.0
 11
274.6089916622
 21
575.1416380194
 31
0.0
  0
LINE
  5
A3
330
1F
100
AcDbEntity
  8
0
  6
Continuous
 62
     7
370
    25
100
AcDbLine
 10
954.6089839136
 20
575.1416380194
 30
0.0
 11
954.6089839136
 21
575.6416315821
 31
0.0
  0
ARC
  5
A4
330
1F
100
AcDbEntity
  8
0
  6
Continuous
 62
     7
370
    25
100
AcDbCircle
 10
954.6089812113
 20
560.1416335975
 30
0.0
 40
15.0
100
AcDbArc
 50
0.0
 51
90.0
  0
LINE
  5
A5
330
1F
100
AcDbEntity
  8
0
  6
Continuous
 62
     7
370
    25
100
AcDbLine
 10
969.6089845096
 20
560.1416374234
 30
0.0
 11
970.1089780723
 21
560.1416374234
 31
0.0
  0
LINE
  5
A6
330
1F
100
AcDbEntity
  8
0
  6
Continuous
 62
     7
370
    25
100
AcDbLine
 10
969.6089845096
 20
190.141632655
 30
0.0
 11
969.6089845096
 21
560.1416374234
 31
0.0
  0
LINE
  5
A7
330
1F
100
AcDbEntity
  8
0
  6
Continuous
 62
     7
370
    25
100
AcDbLine
 10
969.6089845096
 20
190.141632655
 30
0.0
 11
970.1089780723
 21
190.141632655
 31
0.0
  0
LINE
  5
A8
330
1F
100
AcDbEntity
  8
0
  6
Continuous
 62
     7
370
    25
100
AcDbLine
 10
259.608976165
 20
560.1416374234
 30
0.0
 11
259.608976165
 21
190.141632655
 31
0.0
  0
LINE
  5
A9
330
1F
100
AcDbEntity
  8
0
  6
Continuous
 62
     7
370
    25
100
AcDbLine
 10
259.1089826023
 20
190.141632655
 30
0.0
 11
259.608976165
 21
190.141632655
 31
0.0
  0
ARC
  5
AA
330
1F
100
AcDbEntity
  8
0
  6
Continuous
 62
     7
370
    25
100
AcDbCircle
 10
954.6089812113
 20
190.1416335975
 30
0.0
 40
15.0
100
AcDbArc
 50
270.0
 51
0.0
  0
LINE
  5
AB
330
1F
100
AcDbEntity
  8
0
  6
Continuous
 62
     7
370
    25
100
AcDbLine
 10
954.6089839136
 20
175.1416320589
 30
0.0
 11
954.6089839136
 21
174.6416384963
 31
0.0
  0
ARC
  5
AC
330
1F
100
AcDbEntity
  8
0
  6
Continuous
 62
     7
370
    25
100
AcDbCircle
 10
274.6089812113
 20
190.1416335975
 30
0.0
 40
15.0
100
AcDbArc
 50
180.0
 51
270.0
  0
LINE
  5
AD
330
1F
100
AcDbEntity
  8
0
  6
Continuous
 62
     7
370
    25
100
AcDbLine
 10
274.6089916622
 20
174.6416384963
 30
0.0
 11
274.6089916622
 21
175.1416320589
 31
0.0
  0
LINE
  5
AE
330
1F
100
AcDbEntity
  8
0
  6
Continuous
 62
     7
370
    25
100
AcDbLine
 10
274.6089916622
 20
175.1416320589
 30
0.0
 11
954.6089839136
 21
175.1416320589
 31
0.0
  0
ARC
  5
AF
330
1F
100
AcDbEntity
  8
0
  6
Continuous
 62
     7
370
    25
100
AcDbCircle
 10
244.6089812113
 20
160.1416335975
 30
0.0
 40
10.0
100
AcDbArc
 50
180.0
 51
270.0
  0
LINE
  5
B0
330
1F
100
AcDbEntity
  8
0
  6
Continuous
 62
     7
370
    25
100
AcDbLine
 10
244.6089904701
 20
150.6416345623
 30
0.0
 11
244.6089904701
 21
150.1416409996
 31
0.0
  0
ARC
  5
B1
330
1F
100
AcDbEntity
  8
0
  6
Continuous
 62
     7
370
    25
100
AcDbCircle
 10
984.6089812113
 20
160.1416335975
 30
0.0
 40
10.0
100
AcDbArc
 50
270.0
 51
0.0
  0
LINE
  5
B2
330
1F
100
AcDbEntity
  8
0
  6
Continuous
 62
     7
370
    25
100
AcDbLine
 10
984.6089702045
 20
150.1416409996
 30
0.0
 11
984.6089702045
 21
150.6416345623
 31
0.0
  0
LINE
  5
B3
330
1F
100
AcDbEntity
  8
0
  6
Continuous
 62
     7
370
    25
100
AcDbLine
 10
984.6089702045
 20
150.1416409996
 30
0.0
 11
244.6089904701
 21
150.1416409996
 31
0.0
  0
SPLINE
  5
B4
330
1F
100
AcDbEntity
  8
0
  6
Continuous
 62
     7
370
    25
100
AcDbSpline
210
0.0
220
0.0
230
1.0
 70
     8
 71
     3
 72
    14
 73
    10
 74
     0
 42
0.000000001
 43
0.00000001
 40
0.0
 40
0.0
 40
0.0
 40
0.0
 40
0.25
 40
0.25
 40
0.5
 40
0.5
 40
0.75
 40
0.75
 40
1.0
 40
1.0
 40
1.0
 40
1.0
 10
954.6089812113223
 20
175.1416335975068
 30
0.0
 10
954.6413628065411
 20
175.1416335975068
 30
0.0
 10
954.6737320283992
 20
175.5269550471891
 30
0.0
 10
954.733627757579
 20
177.0108562865875
 30
0.0
 10
954.7611311418742
 20
178.1088571659289
 30
0.0
 10
954.8071558325724
 20
180.853618424744
 30
0.0
 10
954.8256590869685
 20
182.499302395686
 30
0.0
 10
954.8508943064628
 20
186.0923927284681
 30
0.0
 10
954.8576161660205
 20
188.0384123471649
 30
0.0
 10
954.8579422666384
 20
189.9890949157653
 30
0.0
  0
SPLINE
  5
B5
330
1F
100
AcDbEntity
  8
0
  6
Continuous
 62
     7
370
    25
100
AcDbSpline
210
0.0
220
0.0
230
1.0
 70
     8
 71
     3
 72
    14
 73
    10
 74
     0
 42
0.000000001
 43
0.00000001
 40
0.0
 40
0.0
 40
0.0
 40
0.0
 40
0.25
 40
0.25
 40
0.5
 40
0.5
 40
0.75
 40
0.75
 40
1.0
 40
1.0
 40
1.0
 40
1.0
 10
954.8579422665548
 20
189.9890949146126
 30
0.0
 10
956.8004221792143
 20
189.9894131337962
 30
0.0
 10
958.7358305596325
 20
189.9936199637641
 30
0.0
 10
962.3067769706962
 20
190.009188321365
 30
0.0
 10
963.9409593122215
 20
190.0205438142579
 30
0.0
 10
966.6655237562179
 20
190.0487202978471
 30
0.0
 10
967.7548549906634
 20
190.0655304133484
 30
0.0
 10
969.226866134283
 20
190.1021116541741
 30
0.0
 10
969.6089812113222
 20
190.1218688822826
 30
0.0
 10
969.6089812113222
 20
190.1416335975068
 30
0.0
  0
SPLINE
  5
B6
330
1F
100
AcDbEntity
  8
0
  6
Continuous
 62
     7
370
    25
100
AcDbSpline
210
0.0
220
0.0
230
1.0
 70
     8
 71
     3
 72
    11
 73
     7
 74
     0
 42
0.000000001
 43
0.00000001
 40
0.0
 40
0.0
 40
0.0
 40
0.0
 40
0.2828852186250009
 40
0.4904731773426525
 40
0.7733101270922945
 40
1.0
 40
1.0
 40
1.0
 40
1.0
 10
274.359575616914
 20
189.9889435116062
 30
0.0
 10
275.7178078765247
 20
189.976553003653
 30
0.0
 10
278.0727435468245
 20
189.9550700437648
 30
0.0
 10
281.7857472087688
 20
189.9190215937479
 30
0.0
 10
285.2289536011102
 20
189.8824399678115
 30
0.0
 10
287.6753680322941
 20
189.8481949105034
 30
0.0
 10
288.7637844842335
 20
189.8329591911189
 30
0.0
  0
SPLINE
  5
B7
330
1F
100
AcDbEntity
  8
0
  6
Continuous
 62
     7
370
    25
100
AcDbSpline
210
0.0
220
0.0
230
1.0
 70
     8
 71
     3
 72
    11
 73
     7
 74
     0
 42
0.000000001
 43
0.00000001
 40
0.0
 40
0.0
 40
0.0
 40
0.0
 40
0.2287068266937704
 40
0.4961911124432196
 40
0.6819919956628989
 40
1.0
 40
1.0
 40
1.0
 40
1.0
 10
274.2698675773092
 20
198.6792697526704
 30
0.0
 10
274.2783893412686
 20
198.0167761089937
 30
0.0
 10
274.296877742337
 20
196.5794623969608
 30
0.0
 10
274.3173585062918
 20
194.6038819691879
 30
0.0
 10
274.3381298640508
 20
192.3695946607479
 30
0.0
 10
274.3512770273658
 20
190.9101537330421
 30
0.0
 10
274.359575616914
 20
189.9889435116062
 30
0.0
  0
SPLINE
  5
B8
330
1F
100
AcDbEntity
  8
0
  6
Continuous
 62
     7
370
    25
100
AcDbSpline
210
0.0
220
0.0
230
1.0
 70
     8
 71
     3
 72
    16
 73
    12
 74
     0
 42
0.000000001
 43
0.00000001
 40
0.0
 40
0.0
 40
0.0
 40
0.0
 40
0.0550788183489506
 40
0.1241656617635711
 40
0.2072605709179424
 40
0.3043636000934121
 40
0.4154747195597123
 40
0.5405939121974473
 40
0.6797212027813573
 40
0.8328565762880755
 40
0.9999999999999999
 40
0.9999999999999999
 40
0.9999999999999999
 40
0.9999999999999999
 10
274.2104228576196
 20
553.7536308972507
 30
0.0
 10
274.2110240547949
 20
547.2346066618095
 30
0.0
 10
274.212379349759
 20
532.5385949732841
 30
0.0
 10
274.2158264206166
 20
508.0076203260885
 30
0.0
 10
274.2204163576694
 20
478.5027459362568
 30
0.0
 10
274.2258298081369
 20
444.0239506180812
 30
0.0
 10
274.2323939019775
 20
404.5712418711071
 30
0.0
 10
274.2401776631754
 20
360.144620958396
 30
0.0
 10
274.24896298296
 20
310.7440875573438
 30
0.0
 10
274.2588473820565
 20
256.369644467028
 30
0.0
 10
274.2660886089212
 20
218.4620501244235
 30
0.0
 10
274.2698675773092
 20
198.6792697526704
 30
0.0
  0
SPLINE
  5
B9
330
1F
100
AcDbEntity
  8
0
  6
Continuous
 62
     7
370
    25
100
AcDbSpline
210
0.0
220
0.0
230
1.0
 70
     8
 71
     3
 72
     9
 73
     5
 74
     0
 42
0.000000001
 43
0.00000001
 40
0.0
 40
0.0
 40
0.0
 40
0.0
 40
0.5984296668220246
 40
1.0
 40
1.0
 40
1.0
 40
1.0
 10
274.2763894578461
 20
560.2911640804216
 30
0.0
 10
274.2643553312454
 20
558.9870679727709
 30
0.0
 10
274.2442458225297
 20
556.807871017887
 30
0.0
 10
274.2201136301526
 20
554.6287152178988
 30
0.0
 10
274.2104228576194
 20
553.7536308972507
 30
0.0
  0
SPLINE
  5
BA
330
1F
100
AcDbEntity
  8
0
  6
Continuous
 62
     7
370
    25
100
AcDbSpline
210
0.0
220
0.0
230
1.0
 70
     8
 71
     3
 72
    24
 73
    20
 74
     0
 42
0.000000001
 43
0.00000001
 40
0.0
 40
0.0
 40
0.0
 40
0.0
 40
0.0155909147485352
 40
0.0312735062072857
 40
0.0625447372992993
 40
0.125068815016143
 40
0.1875929254958353
 40
0.2501170866737819
 40
0.3126411515404026
 40
0.3751650036096258
 40
0.5000659465323088
 40
0.624966896747741
 40
0.7498680756721111
 40
0.8082142888298368
 40
0.8749157010160517
 40
0.9043622117422784
 40
0.9374580685627402
 40
0.9634942839713335
 40
0.9999999999999999
 40
0.9999999999999999
 40
0.9999999999999999
 40
0.9999999999999999
 10
259.6090039757132
 20
560.1416335974585
 30
0.0
 10
259.6096391113199
 20
560.1428588400087
 30
0.0
 10
259.6109131172177
 20
560.1453165297029
 30
0.0
 10
259.6282578094829
 20
560.1500280052993
 30
0.0
 10
259.6879938527946
 20
560.1585188504237
 30
0.0
 10
259.8617703856901
 20
560.1704300679218
 30
0.0
 10
260.2083288443526
 20
560.1845098703886
 30
0.0
 10
260.6900570224732
 20
560.1981739963222
 30
0.0
 10
261.3024583573875
 20
560.2113148964471
 30
0.0
 10
262.2843477614603
 20
560.2279470191196
 30
0.0
 10
263.8093247845484
 20
560.2468670107619
 30
0.0
 10
266.0416534296631
 20
560.2655076304577
 30
0.0
 10
268.1433258312013
 20
560.2773389580384
 30
0.0
 10
269.9540625555437
 20
560.2837162154858
 30
0.0
 10
271.1105847747035
 20
560.2872237500951
 30
0.0
 10
272.0933202455437
 20
560.2890212485091
 30
0.0
 10
272.772627092325
 20
560.2900772196264
 30
0.0
 10
273.5099447480719
 20
560.2906811028569
 30
0.0
 10
273.9941783820103
 20
560.2909201684251
 30
0.0
 10
274.2768254817376
 20
560.2910597109616
 30
0.0
  0
SPLINE
  5
BB
330
1F
100
AcDbEntity
  8
0
  6
Continuous
 62
     7
370
    25
100
AcDbSpline
210
0.0
220
0.0
230
1.0
 70
     8
 71
     3
 72
    21
 73
    17
 74
     0
 42
0.000000001
 43
0.00000001
 40
0.0
 40
0.0
 40
0.0
 40
0.0
 40
0.01057871518623
 40
0.0226693535335071
 40
0.0362763656000112
 40
0.0514028610556595
 40
0.0680510956807005
 40
0.0862227561615274
 40
0.1059191355184189
 40
0.127141245904693
 40
0.1863647129548358
 40
0.2575754106621559
 40
0.3699286786051533
 40
0.5102067179478925
 40
0.7129712892193198
 40
0.9999999999999999
 40
0.9999999999999999
 40
0.9999999999999999
 40
0.9999999999999999
 10
302.8270420932607
 20
560.9503272217819
 30
0.0
 10
302.7272265798679
 20
560.936698019576
 30
0.0
 10
302.513329795486
 20
560.9074917125957
 30
0.0
 10
302.1697974340004
 20
560.870800342519
 30
0.0
 10
301.7826899430937
 20
560.8350342838961
 30
0.0
 10
301.3518439867869
 20
560.8012872749846
 30
0.0
 10
300.8773011474829
 20
560.7692324668325
 30
0.0
 10
300.3590423131969
 20
560.7389917887148
 30
0.0
 10
299.7970708614484
 20
560.7105153383485
 30
0.0
 10
298.8443802038983
 20
560.6686855969014
 30
0.0
 10
297.4010613539678
 20
560.6190341690145
 30
0.0
 10
295.0899378858987
 20
560.5580038625121
 30
0.0
 10
292.0067903785053
 20
560.4979949832591
 30
0.0
 10
287.6709767641497
 20
560.432846152151
 30
0.0
 10
281.6719950638397
 20
560.3637624035182
 30
0.0
 10
277.0089989386742
 20
560.3179885051617
 30
0.0
 10
274.276389457846
 20
560.2911640804216
 30
0.0
  0
SPLINE
  5
BC
330
1F
100
AcDbEntity
  8
0
  6
Continuous
 62
     7
370
    25
100
AcDbSpline
210
0.0
220
0.0
230
1.0
 70
     8
 71
     3
 72
    16
 73
    12
 74
     0
 42
0.000000001
 43
0.00000001
 40
0.0
 40
0.0
 40
0.0
 40
0.0
 40
0.2500000000000012
 40
0.2500000000000012
 40
0.5000000000000024
 40
0.5000000000000024
 40
0.7500000000000037
 40
0.7500000000000037
 40
0.8750000000000018
 40
0.8750000000000018
 40
1.0
 40
1.0
 40
1.0
 40
1.0
 10
274.2768254624455
 20
560.2910597092784
 30
0.0
 10
274.277210594124
 20
562.2441824848428
 30
0.0
 10
274.2861483016505
 20
564.1927079145723
 30
0.0
 10
274.3197894134008
 20
567.7898598110426
 30
0.0
 10
274.3444793368924
 20
569.4370907267961
 30
0.0
 10
274.4059091806327
 20
572.1831504872954
 30
0.0
 10
274.4426248828118
 20
573.280895886415
 30
0.0
 10
274.5025868908429
 20
574.39181249871
 30
0.0
 10
274.5233770370597
 20
574.67358488938
 30
0.0
 10
274.5657735879096
 20
575.0493434987886
 30
0.0
 10
274.5873789872474
 20
575.1416335975068
 30
0.0
 10
274.6089812113223
 20
575.1416335975068
 30
0.0
  0
SPLINE
  5
BD
330
1F
100
AcDbEntity
  8
0
  6
Continuous
 62
     7
370
    25
100
AcDbSpline
210
0.0
220
0.0
230
1.0
 70
     8
 71
     3
 72
    13
 73
     9
 74
     0
 42
0.000000001
 43
0.00000001
 40
0.0
 40
0.0
 40
0.0
 40
0.0
 40
0.2285765086286466
 40
0.4323811908710291
 40
0.6114178560741926
 40
0.7656923715609012
 40
0.895214238686766
 40
1.0
 40
1.0
 40
1.0
 40
1.0
 10
288.7637844842337
 20
189.8329591911188
 30
0.0
 10
289.3934530605087
 20
189.8232286861821
 30
0.0
 10
290.5845503018537
 20
189.8048222132794
 30
0.0
 10
292.2687149400763
 20
189.7706999254285
 30
0.0
 10
293.7480711174977
 20
189.733823419614
 30
0.0
 10
295.0225620983841
 20
189.6929144532836
 30
0.0
 10
296.0923723026111
 20
189.6509096894705
 30
0.0
 10
296.7368279632111
 20
189.6132483025721
 30
0.0
 10
297.0250378583752
 20
189.5964055854803
 30
0.0
  0
SPLINE
  5
BE
330
1F
100
AcDbEntity
  8
0
  6
Continuous
 62
     7
370
    25
100
AcDbSpline
210
0.0
220
0.0
230
1.0
 70
     8
 71
     3
 72
     8
 73
     4
 74
     0
 42
0.000000001
 43
0.00000001
 40
0.0
 40
0.0
 40
0.0
 40
0.0
 40
1.0
 40
1.0
 40
1.0
 40
1.0
 10
561.7466304573275
 20
189.6382840950767
 30
0.0
 10
579.3672736643313
 20
189.6438343630007
 30
0.0
 10
596.9878772614961
 20
189.6493813661605
 30
0.0
 10
614.60897252104
 20
189.6549688942074
 30
0.0
  0
SPLINE
  5
BF
330
1F
100
AcDbEntity
  8
0
  6
Continuous
 62
     7
370
    25
100
AcDbSpline
210
0.0
220
0.0
230
1.0
 70
     8
 71
     3
 72
    47
 73
    43
 74
     0
 42
0.000000001
 43
0.00000001
 40
0.0
 40
0.0
 40
0.0
 40
0.0
 40
0.0209935037060939
 40
0.0421928261022132
 40
0.0635979012291399
 40
0.0852086470684086
 40
0.1070249785652982
 40
0.129046817396625
 40
0.151274098164921
 40
0.1737067713396662
 40
0.1963448036234415
 40
0.2191881765417649
 40
0.2422368840076386
 40
0.2654909294664095
 40
0.2889503230455253
 40
0.3126150789630687
 40
0.3364852133153189
 40
0.3605607422766391
 40
0.3848416807005934
 40
0.4093280410973226
 40
0.4340198329638923
 40
0.4589170624484784
 40
0.4840197323273008
 40
0.5093278422621665
 40
0.5348413892885047
 40
0.5605603684641606
 40
0.5864847739711917
 40
0.6126146011048271
 40
0.6389498457564018
 40
0.66549050425299
 40
0.6922365734598319
 40
0.7191880507897417
 40
0.7463449341433216
 40
0.7737072218123203
 40
0.8012749123845992
 40
0.8290480046927355
 40
0.8570264978490943
 40
0.8852103914081537
 40
0.9135996856920567
 40
0.9421943823082036
 40
0.970994484879438
 40
1.0
 40
1.0
 40
1.0
 40
1.0
 10
297.0250378583752
 20
189.5964055854803
 30
0.0
 10
298.8775050596991
 20
189.5963623995513
 30
0.0
 10
302.6006009078125
 20
189.5962756043017
 30
0.0
 10
308.212510797796
 20
189.5962347122284
 30
0.0
 10
313.8788896374894
 20
189.5962548109406
 30
0.0
 10
319.5997148348602
 20
189.5963404232988
 30
0.0
 10
325.3749618865334
 20
189.5964876490357
 30
0.0
 10
331.2046110832778
 20
189.5966952802421
 30
0.0
 10
337.088646166338
 20
189.5969618160465
 30
0.0
 10
343.0270548680026
 20
189.5972862794571
 30
0.0
 10
349.0198286607695
 20
189.5976679756382
 30
0.0
 10
355.0669624787852
 20
189.5981065181782
 30
0.0
 10
361.1684542518867
 20
189.5986017683553
 30
0.0
 10
367.3243043517109
 20
189.5991537891192
 30
0.0
 10
373.5345149827627
 20
189.5997627910349
 30
0.0
 10
379.7990895684731
 20
189.6004290807611
 30
0.0
 10
386.1180321721934
 20
189.6011530129568
 30
0.0
 10
392.4913469868139
 20
189.601934948427
 30
0.0
 10
398.9190379169959
 20
189.6027752200061
 30
0.0
 10
405.4011082681486
 20
189.6036741072188
 30
0.0
 10
411.9375605465372
 20
189.6046318200452
 30
0.0
 10
418.5283963661986
 20
189.6056484915025
 30
0.0
 10
425.1736164510935
 20
189.6067241781941
 30
0.0
 10
431.873220715403
 20
189.6078588675155
 30
0.0
 10
438.6272084012941
 20
189.6090524897094
 30
0.0
 10
445.4355782846166
 20
189.6103049333219
 30
0.0
 10
452.2983290063005
 20
189.6116160603641
 30
0.0
 10
459.2154592846953
 20
189.6129857750184
 30
0.0
 10
466.1869680310717
 20
189.6144139883121
 30
0.0
 10
473.2128542962407
 20
189.6159006209586
 30
0.0
 10
480.2931172637612
 20
189.6174456057099
 30
0.0
 10
487.4277562534007
 20
189.6190488873038
 30
0.0
 10
494.6167707078745
 20
189.6207104208933
 30
0.0
 10
501.8601601709154
 20
189.6224301703741
 30
0.0
 10
509.1579242662392
 20
189.6242081040705
 30
0.0
 10
516.5100626880263
 20
189.6260442015039
 30
0.0
 10
523.9165752139307
 20
189.6279384237871
 30
0.0
 10
531.3774617511541
 20
189.6298908311616
 30
0.0
 10
538.8927224255468
 20
189.6319011594331
 30
0.0
 10
546.4623577200783
 20
189.6339704558249
 30
0.0
 10
554.0863686736783
 20
189.6360949661203
 30
0.0
 10
559.1871679575884
 20
189.6375526587852
 30
0.0
 10
561.7466304573275
 20
189.6382840950767
 30
0.0
  0
SPLINE
  5
C0
330
1F
100
AcDbEntity
  8
0
  6
Continuous
 62
     7
370
    25
100
AcDbSpline
210
0.0
220
0.0
230
1.0
 70
     8
 71
     3
 72
    16
 73
    12
 74
     0
 42
0.000000001
 43
0.00000001
 40
0.0
 40
0.0
 40
0.0
 40
0.0
 40
0.4999999999999942
 40
0.4999999999999942
 40
0.7499999999999942
 40
0.7499999999999942
 40
0.874999999999997
 40
0.874999999999997
 40
0.9374999999999984
 40
0.9374999999999984
 40
1.0
 40
1.0
 40
1.0
 40
1.0
 10
954.8579422666384
 20
189.9890949157653
 30
0.0
 10
952.550163804665
 20
189.9681136001394
 30
0.0
 10
950.1942413908672
 20
189.9466543943869
 30
0.0
 10
946.593033730288
 20
189.9098761921003
 30
0.0
 10
945.3806273622874
 20
189.8968341602661
 30
0.0
 10
943.5456396728689
 20
189.8750050795925
 30
0.0
 10
942.9312815527886
 20
189.8673667226565
 30
0.0
 10
942.0062237433366
 20
189.8550799230427
 30
0.0
 10
941.6977879317872
 20
189.8508873366505
 30
0.0
 10
941.0777904370092
 20
189.8421468314702
 30
0.0
 10
940.7648687220477
 20
189.8375040307209
 30
0.0
 10
940.4543564688969
 20
189.8327684066836
 30
0.0
  0
SPLINE
  5
C1
330
1F
100
AcDbEntity
  8
0
  6
Continuous
 62
     7
370
    25
100
AcDbSpline
210
0.0
220
0.0
230
1.0
 70
     8
 71
     3
 72
    11
 73
     7
 74
     0
 42
0.000000001
 43
0.00000001
 40
0.0
 40
0.0
 40
0.0
 40
0.0
 40
0.3136843085816388
 40
0.5038086808772758
 40
0.770761069334145
 40
1.0
 40
1.0
 40
1.0
 40
1.0
 10
954.8583505397493
 20
189.9889394869647
 30
0.0
 10
954.8665217289232
 20
190.8976257309308
 30
0.0
 10
954.8796454840054
 20
192.3570676136755
 30
0.0
 10
954.9004438812062
 20
194.589815155193
 30
0.0
 10
954.9210595160421
 20
196.5779220883248
 30
0.0
 10
954.9395430305524
 20
198.0152378039752
 30
0.0
 10
954.9480823599159
 20
198.679273438995
 30
0.0
  0
SPLINE
  5
C2
330
1F
100
AcDbEntity
  8
0
  6
Continuous
 62
     7
370
    25
100
AcDbSpline
210
0.0
220
0.0
230
1.0
 70
     8
 71
     3
 72
    24
 73
    20
 74
     0
 42
0.000000001
 43
0.00000001
 40
0.0
 40
0.0
 40
0.0
 40
0.0
 40
0.0496678480027255
 40
0.0993357219056068
 40
0.1490036125351414
 40
0.1986715068760048
 40
0.2483394071677047
 40
0.2980073128347947
 40
0.3476752234745507
 40
0.3973431388258156
 40
0.447011058611357
 40
0.4966789826661761
 40
0.5757677782340151
 40
0.6524613023864965
 40
0.7267595579288885
 40
0.7986625513238376
 40
0.8681702808675082
 40
0.9352827508961399
 40
1.0
 40
1.0
 40
1.0
 40
1.0
 10
954.948082359916
 20
198.6792734389949
 30
0.0
 10
954.9491774599474
 20
204.5578640040326
 30
0.0
 10
954.951367660581
 20
216.3150481996004
 30
0.0
 10
954.9544753973374
 20
233.9508370858649
 30
0.0
 10
954.9575878687795
 20
251.5866301481671
 30
0.0
 10
954.9607655735551
 20
269.2224265896503
 30
0.0
 10
954.9639744439214
 20
286.8582247638068
 30
0.0
 10
954.9672274198313
 20
304.4940248755216
 30
0.0
 10
954.9705230508158
 20
322.1298267459213
 30
0.0
 10
954.9738655306471
 20
339.7656302606281
 30
0.0
 10
954.9772470085392
 20
357.4014353208827
 30
0.0
 10
954.9813851859741
 20
378.5194404329126
 30
0.0
 10
954.9860536197662
 20
402.8361452037637
 30
0.0
 10
954.9909304470152
 20
430.0680494727328
 30
0.0
 10
954.9953379345121
 20
456.4494554643632
 30
0.0
 10
954.9992127715261
 20
481.980365053672
 30
0.0
 10
955.002562168254
 20
506.6607783811738
 30
0.0
 10
955.0054717292415
 20
530.4907018677751
 30
0.0
 10
955.0068495554564
 20
546.0938183719704
 30
0.0
 10
955.0075259516661
 20
553.7536297122624
 30
0.0
  0
SPLINE
  5
C3
330
1F
100
AcDbEntity
  8
0
  6
Continuous
 62
     7
370
    25
100
AcDbSpline
210
0.0
220
0.0
230
1.0
 70
     8
 71
     3
 72
    14
 73
    10
 74
     0
 42
0.000000001
 43
0.00000001
 40
0.0
 40
0.0
 40
0.0
 40
0.0
 40
0.25
 40
0.25
 40
0.5
 40
0.5
 40
0.75
 40
0.75
 40
1.0
 40
1.0
 40
1.0
 40
1.0
 10
954.6089820691257
 20
575.1416335975069
 30
0.0
 10
954.6521837242352
 20
575.1416335975069
 30
0.0
 10
954.6953688746713
 20
574.7562090192761
 30
0.0
 10
954.7752773396728
 20
573.2719254588417
 30
0.0
 10
954.8119697925325
 20
572.1736458442214
 30
0.0
 10
954.873369755421
 20
569.4282356224368
 30
0.0
 10
954.8980531730723
 20
567.7821822541895
 30
0.0
 10
954.9317139588709
 20
564.1883815513198
 30
0.0
 10
954.9406779696066
 20
562.2420220282653
 30
0.0
 10
954.9411086068365
 20
560.2910774057866
 30
0.0
  0
SPLINE
  5
C4
330
1F
100
AcDbEntity
  8
0
  6
Continuous
 62
     7
370
    25
100
AcDbSpline
210
0.0
220
0.0
230
1.0
 70
     8
 71
     3
 72
    20
 73
    16
 74
     0
 42
0.000000001
 43
0.00000001
 40
0.0
 40
0.0
 40
0.0
 40
0.0
 40
0.1517430864854316
 40
0.2824159883499367
 40
0.3920197499975398
 40
0.4805549525808706
 40
0.6226987495811659
 40
0.7365860166005674
 40
0.8091184136192445
 40
0.8693366668467277
 40
0.9053839476223083
 40
0.9363962465394762
 40
0.9611242017293182
 40
0.9823209368344644
 40
1.0
 40
1.0
 40
1.0
 40
1.0
 10
954.941487203449
 20
560.2911727018292
 30
0.0
 10
953.4968672516428
 20
560.3052403287223
 30
0.0
 10
950.8082190836845
 20
560.3314222316001
 30
0.0
 10
947.0759289687027
 20
560.370391453527
 30
0.0
 10
943.9453477604861
 20
560.4054521095001
 30
0.0
 10
940.7055131847335
 20
560.4456709618248
 30
0.0
 10
937.4249107826776
 20
560.49435269827
 30
0.0
 10
934.2968030456275
 20
560.5541003917207
 30
0.0
 10
931.9489977449917
 20
560.6148298517226
 30
0.0
 10
930.3425075135912
 20
560.6690851217436
 30
0.0
 10
929.1316988561812
 20
560.7231952147802
 30
0.0
 10
928.2589677868854
 20
560.7720454842822
 30
0.0
 10
927.5282756459402
 20
560.8254294481019
 30
0.0
 10
926.9249241104059
 20
560.8799345918997
 30
0.0
 10
926.5578644817159
 20
560.928303794718
 30
0.0
 10
926.3909413405898
 20
560.9503000553717
 30
0.0
  0
SPLINE
  5
C5
330
1F
100
AcDbEntity
  8
0
  6
Continuous
 62
     7
370
    25
100
AcDbSpline
210
0.0
220
0.0
230
1.0
 70
     8
 71
     3
 72
     9
 73
     5
 74
     0
 42
0.000000001
 43
0.00000001
 40
0.0
 40
0.0
 40
0.0
 40
0.0
 40
0.4154789180240678
 40
1.0
 40
1.0
 40
1.0
 40
1.0
 10
955.0075259516661
 20
553.7536297122624
 30
0.0
 10
954.997494380002
 20
554.659024540136
 30
0.0
 10
954.9733497814934
 20
556.8381840319805
 30
0.0
 10
954.9532411326362
 20
559.0173842389873
 30
0.0
 10
954.941487203449
 20
560.2911727018293
 30
0.0
  0
SPLINE
  5
C6
330
1F
100
AcDbEntity
  8
0
  6
Continuous
 62
     7
370
    25
100
AcDbSpline
210
0.0
220
0.0
230
1.0
 70
     8
 71
     3
 72
    14
 73
    10
 74
     0
 42
0.000000001
 43
0.00000001
 40
0.0
 40
0.0
 40
0.0
 40
0.0
 40
0.25
 40
0.25
 40
0.5
 40
0.5
 40
0.75
 40
0.75
 40
1.0
 40
1.0
 40
1.0
 40
1.0
 10
969.6089812113222
 20
560.1416335975068
 30
0.0
 10
969.6089812113222
 20
560.1609258904999
 30
0.0
 10
969.2296208776016
 20
560.1802110120606
 30
0.0
 10
967.7678309424635
 20
560.2159393735787
 30
0.0
 10
966.6859542561331
 20
560.2323692383882
 30
0.0
 10
963.9787752046572
 20
560.2599517740924
 30
0.0
 10
962.3545020731012
 20
560.2710939571921
 30
0.0
 10
958.8026747033006
 20
560.2864470932436
 30
0.0
 10
956.8764497811015
 20
560.2906522137918
 30
0.0
 10
954.9411085941134
 20
560.2910774069244
 30
0.0
  0
LWPOLYLINE
  5
C7
330
1F
100
AcDbEntity
  8
0
  6
Continuous
 62
     7
370
    25
100
AcDbPolyline
 90
        3
 70
   128
 43
0.0
 10
661.2470965778
 20
189.6404320982
 10
637.9849459921
 20
189.6474654463
 10
614.6089803373
 20
189.6547521141
  0
SPLINE
  5
C8
330
1F
100
AcDbEntity
  8
0
  6
Continuous
 62
     7
370
    25
100
AcDbSpline
210
0.0
220
0.0
230
1.0
 70
     8
 71
     3
 72
    24
 73
    20
 74
     0
 42
0.000000001
 43
0.00000001
 40
0.0
 40
0.0
 40
0.0
 40
0.0
 40
0.0312500000000001
 40
0.0312500000000001
 40
0.0625000000000002
 40
0.0625000000000002
 40
0.1250000000000001
 40
0.1250000000000001
 40
0.2500000000000002
 40
0.2500000000000002
 40
0.5000000000000002
 40
0.5000000000000002
 40
0.75
 40
0.75
 40
0.875
 40
0.875
 40
0.9375
 40
0.9375
 40
1.0
 40
1.0
 40
1.0
 40
1.0
 10
932.1929301946903
 20
189.5960965576896
 30
0.0
 10
929.3484605867045
 20
189.5960433898614
 30
0.0
 10
926.5186845171239
 20
189.5960050730371
 30
0.0
 10
920.8682606560918
 20
189.5959646304074
 30
0.0
 10
918.0437953308926
 20
189.5959626430401
 30
0.0
 10
909.5702986021305
 20
189.5960117551912
 30
0.0
 10
903.922155274882
 20
189.5961178638349
 30
0.0
 10
886.9800491017531
 20
189.5966557589211
 30
0.0
 10
875.6884192534613
 20
189.5973077079338
 30
0.0
 10
841.820539016954
 20
189.6001166644361
 30
0.0
 10
819.2513417146932
 20
189.6031341506841
 30
0.0
 10
774.1169429914621
 20
189.6111097112478
 30
0.0
 10
751.5515738182413
 20
189.6160639404199
 30
0.0
 10
717.6955383962038
 20
189.6245375555764
 30
0.0
 10
706.4088885352611
 20
189.6275347606198
 30
0.0
 10
689.4759431500195
 20
189.6322331955357
 30
0.0
 10
683.8311356657006
 20
189.6338330949742
 30
0.0
 10
672.5404032189551
 20
189.6370909698823
 30
0.0
 10
666.8954653501879
 20
189.6387486278481
 30
0.0
 10
661.2470948904729
 20
189.6404315654105
 30
0.0
  0
SPLINE
  5
C9
330
1F
100
AcDbEntity
  8
0
  6
Continuous
 62
     7
370
    25
100
AcDbSpline
210
0.0
220
0.0
230
1.0
 70
     8
 71
     3
 72
    22
 73
    18
 74
     0
 42
0.000000001
 43
0.00000001
 40
0.0
 40
0.0
 40
0.0
 40
0.0
 40
0.2499999999999997
 40
0.2499999999999997
 40
0.4999999999999993
 40
0.4999999999999993
 40
0.749999999999999
 40
0.749999999999999
 40
0.874999999999999
 40
0.874999999999999
 40
0.9375000000000046
 40
0.9375000000000046
 40
0.9687500000000075
 40
0.9687500000000075
 40
0.9843750000000038
 40
0.9843750000000038
 40
1.0
 40
1.0
 40
1.0
 40
1.0
 10
940.4543564628262
 20
189.8327684085297
 30
0.0
 10
939.7587096981362
 20
189.8224522387453
 30
0.0
 10
939.0629613270016
 20
189.8106287155179
 30
0.0
 10
937.669682324748
 20
189.7846232139913
 30
0.0
 10
936.97221707614
 20
189.7701395962231
 30
0.0
 10
935.5819869247077
 20
189.7360624233156
 30
0.0
 10
934.8884081980437
 20
189.716579331692
 30
0.0
 10
933.8632194918923
 20
189.6797400309221
 30
0.0
 10
933.5241365250522
 20
189.6661662117041
 30
0.0
 10
933.0227347343956
 20
189.6428495938742
 30
0.0
 10
932.8569816689236
 20
189.6345866070232
 30
0.0
 10
932.6112782699935
 20
189.6212733056155
 30
0.0
 10
932.5298424519309
 20
189.6166807317112
 30
0.0
 10
932.4084770223513
 20
189.6095292596159
 30
0.0
 10
932.3695492446559
 20
189.6071871480164
 30
0.0
 10
932.2789981139102
 20
189.6016481345814
 30
0.0
 10
932.232768496562
 20
189.5986788682512
 30
0.0
 10
932.1929301945231
 20
189.5960965423171
 30
0.0
  0
SPLINE
  5
CA
330
1F
100
AcDbEntity
  8
0
  6
Continuous
 62
     7
370
    25
100
AcDbSpline
210
0.0
220
0.0
230
1.0
 70
     8
 71
     3
 72
    16
 73
    12
 74
     0
 42
0.000000001
 43
0.00000001
 40
0.0
 40
0.0
 40
0.0
 40
0.0
 40
0.0350566858552553
 40
0.0824653276945359
 40
0.1422253852107855
 40
0.2059933920901598
 40
0.2486409282349226
 40
0.3726934854290179
 40
0.497552759240785
 40
0.7247994121946562
 40
1.0
 40
1.0
 40
1.0
 40
1.0
 10
614.6089305864374
 20
561.5524025333632
 30
0.0
 10
613.337786158702
 20
561.549092319648
 30
0.0
 10
610.3476192555015
 20
561.5413055636527
 30
0.0
 10
605.1905433295963
 20
561.5262485003067
 30
0.0
 10
598.9924024534241
 20
561.5075629141554
 30
0.0
 10
592.9669097474579
 20
561.489137978306
 30
0.0
 10
584.6101948277052
 20
561.4639166317146
 30
0.0
 10
574.038333069649
 20
561.4330805171184
 30
0.0
 10
556.7729471152405
 20
561.3847703184773
 30
0.0
 10
534.0269387106672
 20
561.3259815432302
 30
0.0
 10
515.8082658679019
 20
561.2829497540084
 30
0.0
 10
505.8295276668797
 20
561.2593803665632
 30
0.0
  0
SPLINE
  5
CB
330
1F
100
AcDbEntity
  8
0
  6
Continuous
 62
     7
370
    25
100
AcDbSpline
210
0.0
220
0.0
230
1.0
 70
     8
 71
     3
 72
    22
 73
    18
 74
     0
 42
0.000000001
 43
0.00000001
 40
0.0
 40
0.0
 40
0.0
 40
0.0
 40
0.1373320408240616
 40
0.2504446825610818
 40
0.3746460217055423
 40
0.5027595030688827
 40
0.54796286792453
 40
0.5931661861853746
 40
0.6383695616575765
 40
0.6835731373321591
 40
0.7287770509219712
 40
0.7739813722524549
 40
0.8191860281339608
 40
0.864390739236452
 40
0.9095950157175751
 40
0.954798261398067
 40
0.9999999999999999
 40
0.9999999999999999
 40
0.9999999999999999
 40
0.9999999999999999
 10
505.8295276668797
 20
561.2593803665632
 30
0.0
 10
496.5366213098197
 20
561.2398962851619
 30
0.0
 10
479.5896731053191
 20
561.2043642669071
 30
0.0
 10
454.2383154533024
 20
561.1554463825744
 30
0.0
 10
429.5107416558584
 20
561.1127235415072
 30
0.0
 10
409.3784225642149
 20
561.0812224601101
 30
0.0
 10
394.5917096535625
 20
561.0596440667787
 30
0.0
 10
385.4153173414673
 20
561.0466885266134
 30
0.0
 10
376.2389091004858
 20
561.0341848720894
 30
0.0
 10
367.0624554347498
 20
561.0221254005916
 30
0.0
 10
357.8859313704609
 20
561.0105089067745
 30
0.0
 10
348.7093300771116
 20
560.9993336215186
 30
0.0
 10
339.5326746821504
 20
560.9886018346468
 30
0.0
 10
330.3560211702756
 20
560.9783149525979
 30
0.0
 10
321.1794652548195
 20
560.9684933526698
 30
0.0
 10
312.0031045401757
 20
560.9591035550942
 30
0.0
 10
305.8856955825437
 20
560.953252633707
 30
0.0
 10
302.8270420932607
 20
560.950327221782
 30
0.0
  0
SPLINE
  5
CC
330
1F
100
AcDbEntity
  8
0
  6
Continuous
 62
     7
370
    25
100
AcDbSpline
210
0.0
220
0.0
230
1.0
 70
     8
 71
     3
 72
    16
 73
    12
 74
     0
 42
0.000000001
 43
0.00000001
 40
0.0
 40
0.0
 40
0.0
 40
0.0
 40
0.176138681818416
 40
0.3437190775318304
 40
0.5027412466453594
 40
0.6180116475456262
 40
0.7521369437419299
 40
0.8356071575192751
 40
0.9047410466381264
 40
0.9595388089998379
 40
1.0
 40
1.0
 40
1.0
 40
1.0
 10
727.137494667613
 20
561.2512091633583
 30
0.0
 10
720.5306086269752
 20
561.2658940155811
 30
0.0
 10
707.6378541689447
 20
561.2945502074384
 30
0.0
 10
688.7802727528599
 20
561.34100648534
 30
0.0
 10
672.2058569749793
 20
561.3852244656948
 30
0.0
 10
656.8863446814765
 20
561.4293631612444
 30
0.0
 10
644.4007480356101
 20
561.4670662634674
 30
0.0
 10
633.6456896223688
 20
561.4997160127015
 30
0.0
 10
625.8661434095596
 20
561.522342707162
 30
0.0
 10
619.699833663481
 20
561.539705540922
 30
0.0
 10
616.1267301214361
 20
561.5484382149737
 30
0.0
 10
614.609056246427
 20
561.5521474137449
 30
0.0
  0
SPLINE
  5
CD
330
1F
100
AcDbEntity
  8
0
  6
Continuous
 62
     7
370
    25
100
AcDbSpline
210
0.0
220
0.0
230
1.0
 70
     8
 71
     3
 72
    34
 73
    30
 74
     0
 42
0.000000001
 43
0.00000001
 40
0.0
 40
0.0
 40
0.0
 40
0.0
 40
0.0241309718111233
 40
0.0479831640202803
 40
0.0715564961543825
 40
0.0948508695169522
 40
0.1178661851202336
 40
0.1406023545564145
 40
0.1630593053490944
 40
0.1852369824276769
 40
0.2071353471692375
 40
0.2287543751342851
 40
0.2500940532921216
 40
0.271154377243948
 40
0.2919353487287488
 40
0.3124369735393897
 40
0.3326592598752023
 40
0.3526022170996067
 40
0.3722658548441823
 40
0.3916501823929811
 40
0.4107552082844296
 40
0.429580940076921
 40
0.448127384234518
 40
0.4663945460988876
 40
0.4843824299218027
 40
0.5020910389389368
 40
0.6761433970713516
 40
0.8421132760923331
 40
1.0
 40
1.0
 40
1.0
 40
1.0
 10
926.3909413405897
 20
560.9503000553717
 30
0.0
 10
924.7882369943443
 20
560.9519227185021
 30
0.0
 10
921.6013439788519
 20
560.9551492985065
 30
0.0
 10
916.8487307256507
 20
560.9600641533017
 30
0.0
 10
912.1516707526193
 20
560.964994869577
 30
0.0
 10
907.5101865658788
 20
560.969946343784
 30
0.0
 10
902.9243033164651
 20
560.9749145995082
 30
0.0
 10
898.3940395727931
 20
560.9798985399277
 30
0.0
 10
893.9194102009856
 20
560.9848968008897
 30
0.0
 10
889.5004261854995
 20
560.9899085164321
 30
0.0
 10
885.1370953262149
 20
560.994933051828
 30
0.0
 10
880.8294227283886
 20
560.9999700096095
 30
0.0
 10
876.5774113323179
 20
561.0050191679857
 30
0.0
 10
872.3810623896138
 20
561.0100804429511
 30
0.0
 10
868.2403758918349
 20
561.0151538509581
 30
0.0
 10
864.1553509394456
 20
561.0202394785599
 30
0.0
 10
860.1259860503975
 20
561.0253374570331
 30
0.0
 10
856.152279409702
 20
561.0304479426791
 30
0.0
 10
852.2342290643548
 20
561.0355710997778
 30
0.0
 10
848.3718330694899
 20
561.0407070944608
 30
0.0
 10
844.565089592267
 20
561.0458560667238
 30
0.0
 10
840.8139969808989
 20
561.0510181975136
 30
0.0
 10
837.1185538034069
 20
561.0561934413694
 30
0.0
 10
833.478758869639
 20
561.061382489715
 30
0.0
 10
829.8946112149873
 20
561.0665832524675
 30
0.0
 10
815.9635525758448
 20
561.0871943323727
 30
0.0
 10
792.2038499042815
 20
561.1250816487769
 30
0.0
 10
759.1338180579668
 20
561.1841610884517
 30
0.0
 10
737.6239807189489
 20
561.229234804189
 30
0.0
 10
727.137494667613
 20
561.2512091633583
 30
0.0
  0
SPLINE
  5
CE
330
1F
100
AcDbEntity
  8
0
  6
Continuous
 62
     7
370
    25
100
AcDbSpline
210
0.0
220
0.0
230
1.0
 70
     8
 71
     3
 72
    71
 73
    67
 74
     0
 42
0.000000001
 43
0.00000001
 40
0.0
 40
0.0
 40
0.0
 40
0.0
 40
0.0624999999999999
 40
0.0624999999999999
 40
0.0937499999999998
 40
0.0937499999999998
 40
0.1093749999999998
 40
0.1093749999999998
 40
0.1249999999999998
 40
0.1249999999999998
 40
0.1874999999999998
 40
0.1874999999999998
 40
0.2031249999999998
 40
0.2031249999999998
 40
0.2187499999999998
 40
0.2187499999999998
 40
0.2499999999999999
 40
0.2499999999999999
 40
0.3125000000000001
 40
0.3125000000000001
 40
0.3281250000000001
 40
0.3281250000000001
 40
0.3437500000000002
 40
0.3437500000000002
 40
0.3750000000000003
 40
0.4062500000000005
 40
0.4062500000000005
 40
0.4218750000000006
 40
0.4218750000000006
 40
0.4375000000000007
 40
0.4375000000000007
 40
0.5000000000000008
 40
0.5000000000000008
 40
0.5312500000000008
 40
0.5312500000000008
 40
0.5468750000000009
 40
0.5468750000000009
 40
0.562500000000001
 40
0.562500000000001
 40
0.6250000000000011
 40
0.6250000000000011
 40
0.640625000000001
 40
0.640625000000001
 40
0.656250000000001
 40
0.656250000000001
 40
0.687500000000001
 40
0.687500000000001
 40
0.7500000000000008
 40
0.7500000000000008
 40
0.7656250000000008
 40
0.7656250000000008
 40
0.7812500000000008
 40
0.7812500000000008
 40
0.8125000000000006
 40
0.8125000000000006
 40
0.8437500000000004
 40
0.8437500000000004
 40
0.8750000000000002
 40
0.8750000000000002
 40
0.9374999999999999
 40
0.9374999999999999
 40
0.9531249999999999
 40
0.9531249999999999
 40
0.9687499999999999
 40
0.9687499999999999
 40
1.0
 40
1.0
 40
1.0
 40
1.0
 10
614.608892997039
 20
515.1416335974419
 30
0.0
 10
618.5724168614668
 20
515.1416394247655
 30
0.0
 10
622.469713501355
 20
514.7527668686301
 30
0.0
 10
628.2203911439174
 20
513.609993418419
 30
0.0
 10
630.1212877186338
 20
513.1351315044678
 30
0.0
 10
632.9480922292871
 20
512.2787176168731
 30
0.0
 10
633.8878719525361
 20
511.9686004343271
 30
0.0
 10
635.751862105344
 20
511.301747340144
 30
0.0
 10
636.6718354955203
 20
510.9466238984724
 30
0.0
 10
641.2128151162377
 20
509.0647244590825
 30
0.0
 10
644.6588362285568
 20
507.2221265366787
 30
0.0
 10
648.7349956925775
 20
504.5012917844731
 30
0.0
 10
649.538555048693
 20
503.9360575133993
 30
0.0
 10
651.1219553558851
 20
502.7627807158053
 30
0.0
 10
651.9038088760921
 20
502.1530541217123
 30
0.0
 10
654.1971651495409
 20
500.2713024802717
 30
0.0
 10
655.652329345252
 20
498.951142702294
 30
0.0
 10
659.803506453289
 20
494.7998350738073
 30
0.0
 10
662.2872324176013
 20
491.7796651350586
 30
0.0
 10
665.028762358794
 20
487.6811208569243
 30
0.0
 10
665.5601058381143
 20
486.8427197275256
 30
0.0
 10
666.5761300234839
 20
485.1481563366116
 30
0.0
 10
667.0613350792826
 20
484.2914963351189
 30
0.0
 10
668.4497912345726
 20
481.693900387477
 30
0.0
 10
670.1222932838349
 20
478.1569273189349
 30
0.0
 10
671.4426536699029
 20
474.475152757947
 30
0.0
 10
672.2990725348819
 20
471.6587818121179
 30
0.0
 10
672.5621974056031
 20
470.710801911326
 30
0.0
 10
673.0429514927426
 20
468.7961341887096
 30
0.0
 10
673.2608827302469
 20
467.8273983320884
 30
0.0
 10
674.2246737154287
 20
462.987401007034
 30
0.0
 10
674.6063177472868
 20
459.0948408430019
 30
0.0
 10
674.6102923046395
 20
453.225980492984
 30
0.0
 10
674.5161866194637
 20
451.2646543468739
 30
0.0
 10
674.2275306876082
 20
448.3148762908189
 30
0.0
 10
674.1064326913543
 20
447.3297360592873
 30
0.0
 10
673.8175783982743
 20
445.3787193338428
 30
0.0
 10
673.6496098074211
 20
444.4100981087086
 30
0.0
 10
672.6940144668632
 20
439.600855778495
 30
0.0
 10
671.5624306430151
 20
435.860860602819
 30
0.0
 10
669.6865255891396
 20
431.3208584023197
 30
0.0
 10
669.2880663217859
 20
430.4196681075003
 30
0.0
 10
668.4436693334936
 20
428.6311775283457
 30
0.0
 10
667.9982941416986
 20
427.7454273386701
 30
0.0
 10
666.6057759370747
 20
425.138021340557
 30
0.0
 10
665.5980377123008
 20
423.4566676607766
 30
0.0
 10
662.3423681717428
 20
418.5792544849049
 30
0.0
 10
659.8642503011525
 20
415.5482166969559
 30
0.0
 10
656.3670353419577
 20
412.0458705474832
 30
0.0
 10
655.6506692662284
 20
411.3632239657368
 30
0.0
 10
654.1922489148376
 20
410.0402563879901
 30
0.0
 10
653.4490268549605
 20
409.3987588787377
 30
0.0
 10
651.1779463521889
 20
407.5333389307812
 30
0.0
 10
649.6087709858859
 20
406.3683501437548
 30
0.0
 10
646.3610574028658
 20
404.1943655583851
 30
0.0
 10
644.6825225520702
 20
403.1853649610553
 30
0.0
 10
641.2137999912663
 20
401.3266230792219
 30
0.0
 10
639.4155754301618
 20
400.4744199006748
 30
0.0
 10
633.9633039463404
 20
398.2127685822812
 30
0.0
 10
630.2239367705616
 20
397.0767579391295
 30
0.0
 10
625.4207086413634
 20
396.1156533949321
 30
0.0
 10
624.4535538774956
 20
395.9465848933145
 30
0.0
 10
622.5060301041547
 20
395.6554501524791
 30
0.0
 10
621.5245241219443
 20
395.5332744154897
 30
0.0
 10
618.5673790454114
 20
395.239580551963
 30
0.0
 10
616.5907930433098
 20
395.1416358135106
 30
0.0
 10
614.6090483026986
 20
395.1416335975443
 30
0.0
  0
SPLINE
  5
CF
330
1F
100
AcDbEntity
  8
0
  6
Continuous
 62
     7
370
    25
100
AcDbSpline
210
0.0
220
0.0
230
1.0
 70
     8
 71
     3
 72
    72
 73
    68
 74
     0
 42
0.000000001
 43
0.00000001
 40
0.0
 40
0.0
 40
0.0
 40
0.0
 40
0.0624999999999985
 40
0.0624999999999985
 40
0.0937499999999978
 40
0.0937499999999978
 40
0.1093749999999974
 40
0.1093749999999974
 40
0.124999999999997
 40
0.124999999999997
 40
0.1874999999999955
 40
0.1874999999999955
 40
0.2031249999999952
 40
0.2031249999999952
 40
0.2187499999999949
 40
0.2187499999999949
 40
0.2499999999999947
 40
0.2499999999999947
 40
0.3124999999999945
 40
0.3124999999999945
 40
0.3281249999999944
 40
0.3281249999999944
 40
0.3437499999999944
 40
0.3437499999999944
 40
0.3749999999999943
 40
0.3749999999999943
 40
0.4062499999999941
 40
0.4062499999999941
 40
0.4218749999999941
 40
0.4218749999999941
 40
0.4374999999999941
 40
0.4374999999999941
 40
0.4999999999999942
 40
0.4999999999999942
 40
0.5312499999999942
 40
0.5312499999999942
 40
0.5468749999999943
 40
0.5468749999999943
 40
0.5624999999999943
 40
0.5624999999999943
 40
0.6249999999999949
 40
0.6249999999999949
 40
0.640624999999995
 40
0.640624999999995
 40
0.656249999999995
 40
0.656249999999995
 40
0.6874999999999952
 40
0.6874999999999952
 40
0.749999999999996
 40
0.749999999999996
 40
0.7656249999999963
 40
0.7656249999999963
 40
0.7812499999999966
 40
0.7812499999999966
 40
0.8124999999999971
 40
0.8124999999999971
 40
0.8437499999999978
 40
0.8437499999999978
 40
0.8749999999999983
 40
0.8749999999999983
 40
0.9374999999999992
 40
0.9374999999999992
 40
0.9531249999999994
 40
0.9531249999999994
 40
0.9687499999999997
 40
0.9687499999999997
 40
1.0
 40
1.0
 40
1.0
 40
1.0
 10
614.6090035770793
 20
395.1416335975109
 30
0.0
 10
610.6455010325266
 20
395.1416321200653
 30
0.0
 10
606.7482097672861
 20
395.530505722207
 30
0.0
 10
600.9975380296577
 20
396.6732815762851
 30
0.0
 10
599.0966429731259
 20
397.1481442486888
 30
0.0
 10
596.2698418884432
 20
398.0045586810136
 30
0.0
 10
595.3300712668181
 20
398.3146730689097
 30
0.0
 10
593.4660591337137
 20
398.9815351504136
 30
0.0
 10
592.5460767050325
 20
399.3366630090525
 30
0.0
 10
588.0050615016128
 20
401.2185826991222
 30
0.0
 10
584.5590431805699
 20
403.0611907333267
 30
0.0
 10
580.4829168629263
 20
405.782010031018
 30
0.0
 10
579.6793655927057
 20
406.3472398167461
 30
0.0
 10
578.0959840519865
 20
407.5205043570258
 30
0.0
 10
577.3141465041705
 20
408.1302183612687
 30
0.0
 10
575.020758001233
 20
410.0119979191717
 30
0.0
 10
573.5655814753956
 20
411.332172377281
 30
0.0
 10
569.4143881338953
 20
415.4835073971445
 30
0.0
 10
566.9306790396599
 20
418.5036737260847
 30
0.0
 10
564.1891862026141
 20
422.6021681920277
 30
0.0
 10
563.6578482710684
 20
423.4405603694846
 30
0.0
 10
562.6418097644612
 20
425.135149572943
 30
0.0
 10
562.1565994497992
 20
425.9918207171091
 30
0.0
 10
560.7681321481499
 20
428.5894445007153
 30
0.0
 10
559.9318802141232
 20
430.3579422967073
 30
0.0
 10
558.4354533191622
 20
433.9673215165926
 30
0.0
 10
557.775279108041
 20
435.8082032518622
 30
0.0
 10
556.9188710427604
 20
438.6245516923143
 30
0.0
 10
556.6557500762815
 20
439.5725217215708
 30
0.0
 10
556.1750037655164
 20
441.4871646052712
 30
0.0
 10
555.9570724205479
 20
442.4559013689633
 30
0.0
 10
554.9932712841517
 20
447.2959697320844
 30
0.0
 10
554.6116375939553
 20
451.1885501482843
 30
0.0
 10
554.6076735498395
 20
457.0573857699754
 30
0.0
 10
554.701781977037
 20
459.0186944277214
 30
0.0
 10
554.9904366361957
 20
461.9684317443716
 30
0.0
 10
555.1115364730865
 20
462.9535842093263
 30
0.0
 10
555.400396956301
 20
464.9046276698688
 30
0.0
 10
555.5683689410147
 20
465.873259718255
 30
0.0
 10
556.5239810601239
 20
470.6825441438198
 30
0.0
 10
557.655577761927
 20
474.4225348559696
 30
0.0
 10
559.5314725944178
 20
478.9624910950414
 30
0.0
 10
559.9299284899627
 20
479.8636701600486
 30
0.0
 10
560.7743153396874
 20
481.6521343244697
 30
0.0
 10
561.2197017421678
 20
482.5379055357284
 30
0.0
 10
562.612242216785
 20
485.1453441568339
 30
0.0
 10
563.6199929180669
 20
486.8267097730971
 30
0.0
 10
566.875686462422
 20
491.7041347442456
 30
0.0
 10
569.3538028575559
 20
494.7351484057195
 30
0.0
 10
572.8509709603054
 20
498.2374388318298
 30
0.0
 10
573.5673631263556
 20
498.9201090978252
 30
0.0
 10
575.0258038292251
 20
500.2430903422913
 30
0.0
 10
575.7690344234711
 20
500.8845923995192
 30
0.0
 10
578.0401349183957
 20
502.750020112775
 30
0.0
 10
579.6093161270663
 20
503.9150062384595
 30
0.0
 10
582.8570229471301
 20
506.088974854655
 30
0.0
 10
584.5355451975366
 20
507.0979621274219
 30
0.0
 10
588.0042207253513
 20
508.9566718997123
 30
0.0
 10
589.8024387756361
 20
509.808871350391
 30
0.0
 10
595.2547559707331
 20
512.07053390229
 30
0.0
 10
598.9941224710971
 20
513.206533967623
 30
0.0
 10
603.7973278203259
 20
514.1676272802246
 30
0.0
 10
604.7644769938968
 20
514.3366935769866
 30
0.0
 10
606.7119882044369
 20
514.6278243539364
 30
0.0
 10
607.6934762976737
 20
514.749997365753
 30
0.0
 10
610.6506535854974
 20
515.0436919908518
 30
0.0
 10
612.6272473820546
 20
515.1416336090958
 30
0.0
 10
614.6089815621975
 20
515.1416335975067
 30
0.0
  0
LINE
  5
D0
330
1F
100
AcDbEntity
  8
0
  6
Continuous
 62
     8
370
    25
100
AcDbLine
 10
600.5901168977
 20
513.4414280442
 30
0.0
 11
599.8589765226
 21
513.4414280442
 31
0.0
  0
SPLINE
  5
D1
330
1F
100
AcDbEntity
  8
0
  6
Continuous
 62
     8
370
    25
100
AcDbSpline
210
0.0
220
0.0
230
1.0
 70
     8
 71
     3
 72
    14
 73
    10
 74
     0
 42
0.000000001
 43
0.00000001
 40
0.0
 40
0.0
 40
0.0
 40
0.0
 40
0.25
 40
0.25
 40
0.5
 40
0.5
 40
0.75
 40
0.75
 40
1.0
 40
1.0
 40
1.0
 40
1.0
 10
274.3600274576825
 20
189.9891124202405
 30
0.0
 10
272.6598059772867
 20
189.98938398647
 30
0.0
 10
270.9648022325498
 20
189.9926262136015
 30
0.0
 10
267.7779489976368
 20
190.0046820635277
 30
0.0
 10
266.2867959346221
 20
190.0134925572931
 30
0.0
 10
263.6786087386984
 20
190.0356764786156
 30
0.0
 10
262.5621219399171
 20
190.049044607438
 30
0.0
 10
260.8313665016196
 20
190.0788120686533
 30
0.0
 10
260.217438298696
 20
190.0952046859608
 30
0.0
 10
259.8898831405648
 20
190.1121734717758
 30
0.0
  0
SPLINE
  5
D2
330
1F
100
AcDbEntity
  8
0
  6
Continuous
 62
     8
370
    25
100
AcDbSpline
210
0.0
220
0.0
230
1.0
 70
     8
 71
     3
 72
    15
 73
    11
 74
     0
 42
0.000000001
 43
0.00000001
 40
0.0
 40
0.0
 40
0.0
 40
0.0
 40
0.1329594609594923
 40
0.2638452401505955
 40
0.392552172279605
 40
0.5189789287658022
 40
0.6430281763487079
 40
0.7646067072071235
 40
0.8836255410521496
 40
1.0
 40
1.0
 40
1.0
 40
1.0
 10
274.3600274072924
 20
189.9891122831869
 30
0.0
 10
274.3600565154792
 20
189.8681143758324
 30
0.0
 10
274.3601142778715
 20
189.628005686362
 30
0.0
 10
274.3604134969503
 20
189.2710879315522
 30
0.0
 10
274.3608338472054
 20
188.9205862397569
 30
0.0
 10
274.361372952607
 20
188.5769493705359
 30
0.0
 10
274.3620125401637
 20
188.2405715429263
 30
0.0
 10
274.3627512893706
 20
187.9118594634735
 30
0.0
 10
274.363575612904
 20
187.5910292588217
 30
0.0
 10
274.3642267730455
 20
187.3804820547733
 30
0.0
 10
274.3645486955958
 20
187.2763910814774
 30
0.0
  0
ENDSEC
  0
SECTION
  2
OBJECTS
  0
DICTIONARY
  5
C
330
0
100
AcDbDictionary
281
     1
  3
ACAD_GROUP
350
D
  3
ACAD_LAYOUT
350
1A
  3
ACAD_MLINESTYLE
350
17
  3
ACAD_PLOTSETTINGS
350
19
  3
ACAD_PLOTSTYLENAME
350
E
  3
ACAD_SCALELIST
350
47
  0
DICTIONARY
  5
D
102
{ACAD_REACTORS
330
C
102
}
330
C
100
AcDbDictionary
281
     1
  0
DICTIONARY
  5
1A
102
{ACAD_REACTORS
330
C
102
}
330
C
100
AcDbDictionary
281
     1
  3
Layout1
350
1E
  3
Layout2
350
26
  3
Model
350
22
  0
DICTIONARY
  5
17
102
{ACAD_REACTORS
330
C
102
}
330
C
100
AcDbDictionary
281
     1
  3
Standard
350
18
  0
DICTIONARY
  5
19
102
{ACAD_REACTORS
330
C
102
}
330
C
100
AcDbDictionary
281
     1
  0
ACDBDICTIONARYWDFLT
  5
E
102
{ACAD_REACTORS
330
C
102
}
330
C
100
AcDbDictionary
281
     1
  3
Normal
350
F
100
AcDbDictionaryWithDefault
340
F
  0
DICTIONARY
  5
47
102
{ACAD_REACTORS
330
C
102
}
330
C
100
AcDbDictionary
281
     1
  3
A0
350
48
  3
A1
350
49
  3
A2
350
4A
  3
A3
350
4B
  3
A4
350
4C
  3
A5
350
4D
  3
A6
350
4E
  3
A7
350
4F
  3
A8
350
50
  3
A9
350
51
  3
B0
350
52
  3
B1
350
53
  3
B2
350
54
  3
B3
350
55
  3
B4
350
56
  3
B5
350
57
  3
B6
350
58
  3
B7
350
59
  3
B8
350
5A
  3
B9
350
5B
  3
C0
350
5C
  3
C1
350
5D
  3
C2
350
5E
  3
C3
350
5F
  3
C4
350
60
  3
C5
350
61
  3
C6
350
62
  3
C7
350
63
  3
C8
350
64
  3
C9
350
65
  3
D0
350
66
  3
D1
350
67
  3
D2
350
68
  0
LAYOUT
  5
1E
102
{ACAD_REACTORS
330
1A
102
}
330
1A
100
AcDbPlotSettings
  1

  2
none_device
  4

  6

 40
0.0
 41
0.0
 42
0.0
 43
0.0
 44
0.0
 45
0.0
 46
0.0
 47
0.0
 48
0.0
 49
0.0
140
0.0
141
0.0
142
1.0
143
1.0
 70
   688
 72
     1
 73
     0
 74
     5
  7

 75
    16
147
1.0
148
0.0
149
0.0
100
AcDbLayout
  1
Layout1
 70
     1
 71
     1
 10
0.0
 20
0.0
 11
420.0
 21
297.0
 12
0.0
 22
0.0
 32
0.0
 14
1.0000000000E+20
 24
1.0000000000E+20
 34
1.0000000000E+20
 15
-1.0000000000E+20
 25
-1.0000000000E+20
 35
-1.0000000000E+20
146
0.0
 13
0.0
 23
0.0
 33
0.0
 16
1.0
 26
0.0
 36
0.0
 17
0.0
 27
1.0
 37
0.0
 76
     0
330
1B
  0
LAYOUT
  5
26
102
{ACAD_REACTORS
330
1A
102
}
330
1A
100
AcDbPlotSettings
  1

  2
none_device
  4

  6

 40
0.0
 41
0.0
 42
0.0
 43
0.0
 44
0.0
 45
0.0
 46
0.0
 47
0.0
 48
0.0
 49
0.0
140
0.0
141
0.0
142
1.0
143
1.0
 70
   688
 72
     1
 73
     0
 74
     5
  7

 75
    16
147
1.0
148
0.0
149
0.0
100
AcDbLayout
  1
Layout2
 70
     1
 71
     2
 10
0.0
 20
0.0
 11
0.0
 21
0.0
 12
0.0
 22
0.0
 32
0.0
 14
0.0
 24
0.0
 34
0.0
 15
0.0
 25
0.0
 35
0.0
146
0.0
 13
0.0
 23
0.0
 33
0.0
 16
1.0
 26
0.0
 36
0.0
 17
0.0
 27
1.0
 37
0.0
 76
     0
330
23
  0
LAYOUT
  5
22
102
{ACAD_REACTORS
330
1A
102
}
330
1A
100
AcDbPlotSettings
  1

  2
none_device
  4
Letter_(8.50_x_11.00_Inches)
  6

 40
6.35
 41
6.35
 42
6.35000508
 43
6.35000508
 44
215.9
 45
279.4
 46
0.0
 47
0.0
 48
0.0
 49
0.0
140
0.0
141
0.0
142
1.0
143
1.0
 70
  1712
 72
     1
 73
     0
 74
     0
  7

 75
     0
147
1.0
148
0.0
149
0.0
100
AcDbLayout
  1
Model
 70
     1
 71
     0
 10
0.0
 20
0.0
 11
1200.0
 21
800.0
 12
0.0
 22
0.0
 32
0.0
 14
0.0
 24
0.0
 34
0.0
 15
1200.0
 25
800.0
 35
0.0
146
0.0
 13
0.0
 23
0.0
 33
0.0
 16
1.0
 26
0.0
 36
0.0
 17
0.0
 27
1.0
 37
0.0
 76
     0
330
1F
331
29
  0
MLINESTYLE
  5
18
102
{ACAD_REACTORS
330
17
102
}
330
17
100
AcDbMlineStyle
  2
Standard
 70
     0
  3

 62
   256
 51
90.0
 52
90.0
 71
     2
 49
0.5
 62
   256
  6
BYLAYER
 49
-0.5
 62
   256
  6
BYLAYER
  0
ACDBPLACEHOLDER
  5
F
102
{ACAD_REACTORS
330
E
102
}
330
E
  0
SCALE
  5
48
102
{ACAD_REACTORS
330
47
102
}
330
47
100
AcDbScale
 70
     0
300
1:1
140
1.0
141
1.0
290
     1
  0
SCALE
  5
49
102
{ACAD_REACTORS
330
47
102
}
330
47
100
AcDbScale
 70
     0
300
1:2
140
1.0
141
2.0
290
     0
  0
SCALE
  5
4A
102
{ACAD_REACTORS
330
47
102
}
330
47
100
AcDbScale
 70
     0
300
1:4
140
1.0
141
4.0
290
     0
  0
SCALE
  5
4B
102
{ACAD_REACTORS
330
47
102
}
330
47
100
AcDbScale
 70
     0
300
1:5
140
1.0
141
5.0
290
     0
  0
SCALE
  5
4C
102
{ACAD_REACTORS
330
47
102
}
330
47
100
AcDbScale
 70
     0
300
1:8
140
1.0
141
8.0
290
     0
  0
SCALE
  5
4D
102
{ACAD_REACTORS
330
47
102
}
330
47
100
AcDbScale
 70
     0
300
1:10
140
1.0
141
10.0
290
     0
  0
SCALE
  5
4E
102
{ACAD_REACTORS
330
47
102
}
330
47
100
AcDbScale
 70
     0
300
1:16
140
1.0
141
16.0
290
     0
  0
SCALE
  5
4F
102
{ACAD_REACTORS
330
47
102
}
330
47
100
AcDbScale
 70
     0
300
1:20
140
1.0
141
20.0
290
     0
  0
SCALE
  5
50
102
{ACAD_REACTORS
330
47
102
}
330
47
100
AcDbScale
 70
     0
300
1:30
140
1.0
141
30.0
290
     0
  0
SCALE
  5
51
102
{ACAD_REACTORS
330
47
102
}
330
47
100
AcDbScale
 70
     0
300
1:40
140
1.0
141
40.0
290
     0
  0
SCALE
  5
52
102
{ACAD_REACTORS
330
47
102
}
330
47
100
AcDbScale
 70
     0
300
1:50
140
1.0
141
50.0
290
     0
  0
SCALE
  5
53
102
{ACAD_REACTORS
330
47
102
}
330
47
100
AcDbScale
 70
     0
300
1:100
140
1.0
141
100.0
290
     0
  0
SCALE
  5
54
102
{ACAD_REACTORS
330
47
102
}
330
47
100
AcDbScale
 70
     0
300
2:1
140
2.0
141
1.0
290
     0
  0
SCALE
  5
55
102
{ACAD_REACTORS
330
47
102
}
330
47
100
AcDbScale
 70
     0
300
4:1
140
4.0
141
1.0
290
     0
  0
SCALE
  5
56
102
{ACAD_REACTORS
330
47
102
}
330
47
100
AcDbScale
 70
     0
300
8:1
140
8.0
141
1.0
290
     0
  0
SCALE
  5
57
102
{ACAD_REACTORS
330
47
102
}
330
47
100
AcDbScale
 70
     0
300
10:1
140
10.0
141
1.0
290
     0
  0
SCALE
  5
58
102
{ACAD_REACTORS
330
47
102
}
330
47
100
AcDbScale
 70
     0
300
100:1
140
100.0
141
1.0
290
     0
  0
SCALE
  5
59
102
{ACAD_REACTORS
330
47
102
}
330
47
100
AcDbScale
 70
     0
300
1/128" = 1'-0"
140
0.0078125
141
12.0
290
     0
  0
SCALE
  5
5A
102
{ACAD_REACTORS
330
47
102
}
330
47
100
AcDbScale
 70
     0
300
1/64" = 1'-0"
140
0.015625
141
12.0
290
     0
  0
SCALE
  5
5B
102
{ACAD_REACTORS
330
47
102
}
330
47
100
AcDbScale
 70
     0
300
1/32" = 1'-0"
140
0.03125
141
12.0
290
     0
  0
SCALE
  5
5C
102
{ACAD_REACTORS
330
47
102
}
330
47
100
AcDbScale
 70
     0
300
1/16" = 1'-0"
140
0.0625
141
12.0
290
     0
  0
SCALE
  5
5D
102
{ACAD_REACTORS
330
47
102
}
330
47
100
AcDbScale
 70
     0
300
3/32" = 1'-0"
140
0.09375
141
12.0
290
     0
  0
SCALE
  5
5E
102
{ACAD_REACTORS
330
47
102
}
330
47
100
AcDbScale
 70
     0
300
1/8" = 1'-0"
140
0.125
141
12.0
290
     0
  0
SCALE
  5
5F
102
{ACAD_REACTORS
330
47
102
}
330
47
100
AcDbScale
 70
     0
300
3/16" = 1'-0"
140
0.1875
141
12.0
290
     0
  0
SCALE
  5
60
102
{ACAD_REACTORS
330
47
102
}
330
47
100
AcDbScale
 70
     0
300
1/4" = 1'-0"
140
0.25
141
12.0
290
     0
  0
SCALE
  5
61
102
{ACAD_REACTORS
330
47
102
}
330
47
100
AcDbScale
 70
     0
300
3/8" = 1'-0"
140
0.375
141
12.0
290
     0
  0
SCALE
  5
62
102
{ACAD_REACTORS
330
47
102
}
330
47
100
AcDbScale
 70
     0
300
1/2" = 1'-0"
140
0.5
141
12.0
290
     0
  0
SCALE
  5
63
102
{ACAD_REACTORS
330
47
102
}
330
47
100
AcDbScale
 70
     0
300
3/4" = 1'-0"
140
0.75
141
12.0
290
     0
  0
SCALE
  5
64
102
{ACAD_REACTORS
330
47
102
}
330
47
100
AcDbScale
 70
     0
300
1" = 1'-0"
140
1.0
141
12.0
290
     0
  0
SCALE
  5
65
102
{ACAD_REACTORS
330
47
102
}
330
47
100
AcDbScale
 70
     0
300
1-1/2" = 1'-0"
140
1.5
141
12.0
290
     0
  0
SCALE
  5
66
102
{ACAD_REACTORS
330
47
102
}
330
47
100
AcDbScale
 70
     0
300
3" = 1'-0"
140
3.0
141
12.0
290
     0
  0
SCALE
  5
67
102
{ACAD_REACTORS
330
47
102
}
330
47
100
AcDbScale
 70
     0
300
6" = 1'-0"
140
6.0
141
12.0
290
     0
  0
SCALE
  5
68
102
{ACAD_REACTORS
330
47
102
}
330
47
100
AcDbScale
 70
     0
300
1'-0" = 1'-0"
140
12.0
141
12.0
290
     0
  0
ENDSEC
  0
EOF
