  0
SECTION
  2
HEADER
  9
$ACADVER
  1
AC1015
  9
$ACADMAINTVER
 70
     6
  9
$DWGCODEPAGE
  3
ANSI_1252
  9
$INSBASE
 10
0.0
 20
0.0
 30
0.0
  9
$EXTMIN
 10
0.0
 20
0.0
 30
0.0
  9
$EXTMAX
 10
600.0
 20
600.0
 30
0.0
  9
$LIMMIN
 10
0.0
 20
0.0
  9
$LIMMAX
 10
600.0
 20
600.0
  9
$ORTHOMODE
 70
     0
  9
$REGENMODE
 70
     1
  9
$FILLMODE
 70
     1
  9
$QTEXTMODE
 70
     0
  9
$MIRRTEXT
 70
     1
  9
$LTSCALE
 40
1.0
  9
$ATTMODE
 70
     1
  9
$TEXTSIZE
 40
3.5
  9
$TRACEWID
 40
1.0
  9
$TEXTSTYLE
  7
Standard
  9
$CLAYER
  8
0
  9
$CELTYPE
  6
ByLayer
  9
$CECOLOR
 62
   256
  9
$CELTSCALE
 40
1.0
  9
$DISPSILH
 70
     0
  9
$DIMSCALE
 40
1.0
  9
$DIMASZ
 40
3.302
  9
$DIMEXO
 40
1.0
  9
$DIMDLI
 40
3.75
  9
$DIMRND
 40
0.0
  9
$DIMDLE
 40
0.0
  9
$DIMEXE
 40
1.0
  9
$DIMTP
 40
0.0
  9
$DIMTM
 40
0.0
  9
$DIMTXT
 40
3.5
  9
$DIMCEN
 40
2.5
  9
$DIMTSZ
 40
0.0
  9
$DIMTOL
 70
     0
  9
$DIMLIM
 70
     0
  9
$DIMTIH
 70
     1
  9
$DIMTOH
 70
     1
  9
$DIMSE1
 70
     0
  9
$DIMSE2
 70
     0
  9
$DIMTAD
 70
     1
  9
$DIMZIN
 70
     1
  9
$DIMBLK
  1

  9
$DIMASO
 70
     1
  9
$DIMSHO
 70
     1
  9
$DIMPOST
  1

  9
$DIMAPOST
  1

  9
$DIMALT
 70
     0
  9
$DIMALTD
 70
     3
  9
$DIMALTF
 40
0.0393700787
  9
$DIMLFAC
 40
1.0
  9
$DIMTOFL
 70
     1
  9
$DIMTVP
 40
0.0
  9
$DIMTIX
 70
     0
  9
$DIMSOXD
 70
     0
  9
$DIMSAH
 70
     0
  9
$DIMBLK1
  1

  9
$DIMBLK2
  1

  9
$DIMSTYLE
  2
ISO-25
  9
$DIMCLRD
 70
     0
  9
$DIMCLRE
 70
     0
  9
$DIMCLRT
 70
     0
  9
$DIMTFAC
 40
1.0
  9
$DIMGAP
 40
1.524
  9
$DIMJUST
 70
     0
  9
$DIMSD1
 70
     0
  9
$DIMSD2
 70
     0
  9
$DIMTOLJ
 70
     0
  9
$DIMTZIN
 70
     1
  9
$DIMALTZ
 70
     0
  9
$DIMALTTZ
 70
     0
  9
$DIMUPT
 70
     0
  9
$DIMDEC
 70
     2
  9
$DIMTDEC
 70
     2
  9
$DIMALTU
 70
     2
  9
$DIMALTTD
 70
     3
  9
$DIMTXSTY
  7
Standard
  9
$DIMAUNIT
 70
     0
  9
$DIMADEC
 70
     2
  9
$DIMALTRND
 40
0.0
  9
$DIMAZIN
 70
     0
  9
$DIMDSEP
 70
    44
  9
$DIMATFIT
 70
     3
  9
$DIMFRAC
 70
     0
  9
$DIMLDRBLK
  1

  9
$DIMLUNIT
 70
     2
  9
$DIMLWD
 70
    -2
  9
$DIMLWE
 70
    -2
  9
$DIMTMOVE
 70
     0
  9
$LUNITS
 70
     2
  9
$LUPREC
 70
     2
  9
$SKETCHINC
 40
1.0
  9
$FILLETRAD
 40
10.0
  9
$AUNITS
 70
     0
  9
$AUPREC
 70
     2
  9
$MENU
  1
.
  9
$ELEVATION
 40
0.0
  9
$PELEVATION
 40
0.0
  9
$THICKNESS
 40
0.0
  9
$LIMCHECK
 70
     0
  9
$CHAMFERA
 40
0.0
  9
$CHAMFERB
 40
0.0
  9
$CHAMFERC
 40
0.0
  9
$CHAMFERD
 40
0.0
  9
$SKPOLY
 70
     0
  9
$TDCREATE
 40
2459704.592909514
  9
$TDUCREATE
 40
2459704.467909514
  9
$TDUPDATE
 40
2459704.592909699
  9
$TDUUPDATE
 40
2459704.467909699
  9
$TDINDWG
 40
0.0000000116
  9
$TDUSRTIMER
 40
0.0000000116
  9
$USRTIMER
 70
     1
  9
$ANGBASE
 50
0.0
  9
$ANGDIR
 70
     0
  9
$PDMODE
 70
     0
  9
$PDSIZE
 40
-1.0
  9
$PLINEWID
 40
0.0
  9
$SPLFRAME
 70
     0
  9
$SPLINETYPE
 70
     6
  9
$SPLINESEGS
 70
     8
  9
$HANDSEED
  5
FC
  9
$SURFTAB1
 70
     6
  9
$SURFTAB2
 70
     6
  9
$SURFTYPE
 70
     6
  9
$SURFU
 70
     6
  9
$SURFV
 70
     6
  9
$UCSBASE
  2

  9
$UCSNAME
  2

  9
$UCSORG
 10
0.0
 20
0.0
 30
0.0
  9
$UCSXDIR
 10
1.0
 20
0.0
 30
0.0
  9
$UCSYDIR
 10
0.0
 20
1.0
 30
0.0
  9
$UCSORTHOREF
  2

  9
$UCSORTHOVIEW
 70
     0
  9
$UCSORGTOP
 10
0.0
 20
0.0
 30
0.0
  9
$UCSORGBOTTOM
 10
0.0
 20
0.0
 30
0.0
  9
$UCSORGLEFT
 10
0.0
 20
0.0
 30
0.0
  9
$UCSORGRIGHT
 10
0.0
 20
0.0
 30
0.0
  9
$UCSORGFRONT
 10
0.0
 20
0.0
 30
0.0
  9
$UCSORGBACK
 10
0.0
 20
0.0
 30
0.0
  9
$PUCSBASE
  2

  9
$PUCSNAME
  2

  9
$PUCSORG
 10
0.0
 20
0.0
 30
0.0
  9
$PUCSXDIR
 10
1.0
 20
0.0
 30
0.0
  9
$PUCSYDIR
 10
0.0
 20
1.0
 30
0.0
  9
$PUCSORTHOREF
  2

  9
$PUCSORTHOVIEW
 70
     0
  9
$PUCSORGTOP
 10
0.0
 20
0.0
 30
0.0
  9
$PUCSORGBOTTOM
 10
0.0
 20
0.0
 30
0.0
  9
$PUCSORGLEFT
 10
0.0
 20
0.0
 30
0.0
  9
$PUCSORGRIGHT
 10
0.0
 20
0.0
 30
0.0
  9
$PUCSORGFRONT
 10
0.0
 20
0.0
 30
0.0
  9
$PUCSORGBACK
 10
0.0
 20
0.0
 30
0.0
  9
$USERI1
 70
     0
  9
$USERI2
 70
     0
  9
$USERI3
 70
     0
  9
$USERI4
 70
     0
  9
$USERI5
 70
     0
  9
$USERR1
 40
0.0
  9
$USERR2
 40
0.0
  9
$USERR3
 40
0.0
  9
$USERR4
 40
0.0
  9
$USERR5
 40
0.0
  9
$WORLDVIEW
 70
     1
  9
$SHADEDGE
 70
     3
  9
$SHADEDIF
 70
    70
  9
$TILEMODE
 70
     1
  9
$MAXACTVP
 70
    64
  9
$PINSBASE
 10
0.0
 20
0.0
 30
0.0
  9
$PLIMCHECK
 70
     0
  9
$PEXTMIN
 10
1.0000000000E+20
 20
1.0000000000E+20
 30
1.0000000000E+20
  9
$PEXTMAX
 10
-1.0000000000E+20
 20
-1.0000000000E+20
 30
-1.0000000000E+20
  9
$PLIMMIN
 10
0.0
 20
0.0
  9
$PLIMMAX
 10
420.0
 20
297.0
  9
$UNITMODE
 70
     0
  9
$VISRETAIN
 70
     1
  9
$PLINEGEN
 70
     0
  9
$PSLTSCALE
 70
     1
  9
$TREEDEPTH
 70
  3020
  9
$CMLSTYLE
  2
Standard
  9
$CMLJUST
 70
     0
  9
$CMLSCALE
 40
20.0
  9
$PROXYGRAPHICS
 70
     1
  9
$MEASUREMENT
 70
     1
  9
$CELWEIGHT
370
    -1
  9
$ENDCAPS
280
     0
  9
$JOINSTYLE
280
     0
  9
$LWDISPLAY
290
     1
  9
$INSUNITS
 70
     4
  9
$HYPERLINKBASE
  1

  9
$STYLESHEET
  1

  9
$XEDIT
290
     1
  9
$CEPSNTYPE
380
     0
  9
$PSTYLEMODE
290
     1
  9
$FINGERPRINTGUID
  2
{0b2b5dcc-2499-4d7c-aad5-97df9a265f3c}
  9
$VERSIONGUID
  2
{FAEB1C32-E019-11D5-929B-00C0DF256EC4}
  9
$EXTNAMES
290
     1
  9
$PSVPSCALE
 40
0.0
  9
$OLESTARTUP
290
     0
  0
ENDSEC
  0
SECTION
  2
CLASSES
  0
CLASS
  1
ACDBDICTIONARYWDFLT
  2
AcDbDictionaryWithDefault
  3
ObjectDBX Classes
 90
        0
280
     0
281
     0
  0
CLASS
  1
VISUALSTYLE
  2
AcDbVisualStyle
  3
ObjectDBX Classes
 90
     4095
280
     0
281
     0
  0
CLASS
  1
MATERIAL
  2
AcDbMaterial
  3
ObjectDBX Classes
 90
     1153
280
     0
281
     0
  0
CLASS
  1
SCALE
  2
AcDbScale
  3
ObjectDBX Classes
 90
     1153
280
     0
281
     0
  0
CLASS
  1
TABLESTYLE
  2
AcDbTableStyle
  3
ObjectDBX Classes
 90
     4095
280
     0
281
     0
  0
CLASS
  1
MLEADERSTYLE
  2
AcDbMLeaderStyle
  3
ACDB_MLEADERSTYLE_CLASS
 90
     4095
280
     0
281
     0
  0
CLASS
  1
SUN
  2
AcDbSun
  3
SCENEOE
 90
     1153
280
     0
281
     0
  0
CLASS
  1
ACDBPLACEHOLDER
  2
AcDbPlaceHolder
  3
ObjectDBX Classes
 90
        0
280
     0
281
     0
  0
CLASS
  1
LAYOUT
  2
AcDbLayout
  3
ObjectDBX Classes
 90
        0
280
     0
281
     0
  0
ENDSEC
  0
SECTION
  2
TABLES
  0
TABLE
  2
VPORT
  5
8
330
0
100
AcDbSymbolTable
 70
     1
  0
VPORT
  5
29
330
8
100
AcDbSymbolTableRecord
100
AcDbViewportTableRecord
  2
*Active
 70
     0
 10
0.0
 20
0.0
 11
1.0
 21
1.0
 12
300.0
 22
300.0
 13
0.0
 23
0.0
 14
10.0
 24
10.0
 15
10.0
 25
10.0
 16
0.0
 26
0.0
 36
1.0
 17
0.0
 27
0.0
 37
0.0
 40
600.0
 41
1.0
 42
50.0
 43
0.0
 44
0.0
 50
0.0
 51
0.0
 71
     0
 72
  2000
 73
     1
 74
     3
 75
     0
 76
     0
 77
     0
 78
     0
281
     0
 65
     1
110
0.0
120
0.0
130
0.0
111
1.0
121
0.0
131
0.0
112
0.0
122
1.0
132
0.0
 79
     0
146
0.0
  0
ENDTAB
  0
TABLE
  2
LTYPE
  5
5
330
0
100
AcDbSymbolTable
 70
     6
  0
LTYPE
  5
14
330
5
100
AcDbSymbolTableRecord
100
AcDbLinetypeTableRecord
  2
ByBlock
 70
     0
  3

 72
    65
 73
     0
 40
0.0
  0
LTYPE
  5
15
330
5
100
AcDbSymbolTableRecord
100
AcDbLinetypeTableRecord
  2
ByLayer
 70
     0
  3

 72
    65
 73
     0
 40
0.0
  0
LTYPE
  5
16
330
5
100
AcDbSymbolTableRecord
100
AcDbLinetypeTableRecord
  2
Continuous
 70
     0
  3
Solid line
 72
    65
 73
     0
 40
0.0
  0
LTYPE
  5
6E
330
5
100
AcDbSymbolTableRecord
100
AcDbLinetypeTableRecord
  2
HIDDEN
 70
     0
  3
Hidden __ __ __ __ __ __ __ __ __ __ __ __ __ __
 72
    65
 73
     2
 40
1.905
 49
1.27
 74
     0
 49
-0.635
 74
     0
  0
LTYPE
  5
6F
330
5
100
AcDbSymbolTableRecord
100
AcDbLinetypeTableRecord
  2
PHANTOM
 70
     0
  3
Phantom ______  __  __  ______  __  __  ______
 72
    65
 73
     6
 40
12.7
 49
6.35
 74
     0
 49
-1.27
 74
     0
 49
1.27
 74
     0
 49
-1.27
 74
     0
 49
1.27
 74
     0
 49
-1.27
 74
     0
  0
LTYPE
  5
70
330
5
100
AcDbSymbolTableRecord
100
AcDbLinetypeTableRecord
  2
CENTER
 70
     0
  3
Center ____ _ ____ _ ____ _ ____ _ ____ _ ____
 72
    65
 73
     4
 40
10.16
 49
6.35
 74
     0
 49
-1.27
 74
     0
 49
1.27
 74
     0
 49
-1.27
 74
     0
  0
LTYPE
  5
71
330
5
100
AcDbSymbolTableRecord
100
AcDbLinetypeTableRecord
  2
CENTERX2
 70
     0
  3
Center (2x) ________  __  ________  __  _____
 72
    65
 73
     4
 40
20.32
 49
12.7
 74
     0
 49
-2.54
 74
     0
 49
2.54
 74
     0
 49
-2.54
 74
     0
  0
LTYPE
  5
72
330
5
100
AcDbSymbolTableRecord
100
AcDbLinetypeTableRecord
  2
DOT2
 70
     0
  3
Dot (.5x) ........................................
 72
    65
 73
     2
 40
0.635
 49
0.0
 74
     0
 49
-0.635
 74
     0
  0
ENDTAB
  0
TABLE
  2
LAYER
  5
2
330
0
100
AcDbSymbolTable
 70
     2
  0
LAYER
  5
10
330
2
100
AcDbSymbolTableRecord
100
AcDbLayerTableRecord
  2
0
 70
     0
 62
     7
  6
Continuous
370
    -3
390
F
  0
LAYER
  5
73
330
2
100
AcDbSymbolTableRecord
100
AcDbLayerTableRecord
  2
TABLE_BL1
 70
     0
 62
   179
  6
Continuous
370
    -3
390
F
  0
ENDTAB
  0
TABLE
  2
STYLE
  5
3
330
0
100
AcDbSymbolTable
 70
     1
  0
STYLE
  5
11
330
3
100
AcDbSymbolTableRecord
100
AcDbTextStyleTableRecord
  2
Standard
 70
     0
 40
0.0
 41
1.0
 50
0.0
 71
     0
 42
3.5
  3
txt
  4

  0
ENDTAB
  0
TABLE
  2
VIEW
  5
6
330
0
100
AcDbSymbolTable
 70
     0
  0
ENDTAB
  0
TABLE
  2
UCS
  5
7
330
0
100
AcDbSymbolTable
 70
     0
  0
ENDTAB
  0
TABLE
  2
APPID
  5
9
330
0
100
AcDbSymbolTable
 70
     1
  0
APPID
  5
12
330
9
100
AcDbSymbolTableRecord
100
AcDbRegAppTableRecord
  2
ACAD
 70
     0
  0
ENDTAB
  0
TABLE
  2
DIMSTYLE
  5
A
330
0
100
AcDbSymbolTable
 70
     1
100
AcDbDimStyleTable
  0
DIMSTYLE
105
27
330
A
100
AcDbSymbolTableRecord
100
AcDbDimStyleTableRecord
  2
ISO-25
 70
     0
 41
2.5
 42
0.625
 43
3.75
 44
1.25
 73
     0
 74
     0
 77
     1
 78
     8
140
2.5
141
2.5
143
0.0393700787
147
0.625
171
     3
172
     1
178
     0
271
     2
272
     2
274
     3
278
    44
283
     0
284
     8
340
11
  0
ENDTAB
  0
TABLE
  2
BLOCK_RECORD
  5
1
330
0
100
AcDbSymbolTable
 70
     1
  0
BLOCK_RECORD
  5
1F
330
1
100
AcDbSymbolTableRecord
100
AcDbBlockTableRecord
  2
*Model_Space
340
22
  0
BLOCK_RECORD
  5
1B
330
1
100
AcDbSymbolTableRecord
100
AcDbBlockTableRecord
  2
*Paper_Space
340
1E
  0
BLOCK_RECORD
  5
23
330
1
100
AcDbSymbolTableRecord
100
AcDbBlockTableRecord
  2
*Paper_Space0
340
26
  0
ENDTAB
  0
ENDSEC
  0
SECTION
  2
BLOCKS
  0
BLOCK
  5
20
330
1F
100
AcDbEntity
  8
0
100
AcDbBlockBegin
  2
*Model_Space
 70
     0
 10
0.0
 20
0.0
 30
0.0
  3
*Model_Space
  1

  0
ENDBLK
  5
21
330
1F
100
AcDbEntity
  8
0
100
AcDbBlockEnd
  0
BLOCK
  5
1C
330
1B
100
AcDbEntity
 67
     1
  8
0
100
AcDbBlockBegin
  2
*Paper_Space
 70
     0
 10
0.0
 20
0.0
 30
0.0
  3
*Paper_Space
  1

  0
ENDBLK
  5
1D
330
1B
100
AcDbEntity
 67
     1
  8
0
100
AcDbBlockEnd
  0
BLOCK
  5
24
330
23
100
AcDbEntity
  8
0
100
AcDbBlockBegin
  2
*Paper_Space0
 70
     0
 10
0.0
 20
0.0
 30
0.0
  3
*Paper_Space0
  1

  0
ENDBLK
  5
25
330
23
100
AcDbEntity
  8
0
100
AcDbBlockEnd
  0
ENDSEC
  0
SECTION
  2
ENTITIES
  0
SPLINE
  5
74
330
1F
100
AcDbEntity
  8
0
  6
Continuous
 62
     7
370
    25
100
AcDbSpline
210
0.0
220
0.0
230
1.0
 70
     8
 71
     3
 72
    29
 73
    25
 74
     0
 42
0.00000001
 43
0.00000001
 40
0.0
 40
0.0
 40
0.0
 40
0.0
 40
0.0349321406882635
 40
0.0633980643159913
 40
0.0838985515737896
 40
0.1410481598295767
 40
0.1993926718331193
 40
0.2579538570990186
 40
0.3167358876867429
 40
0.3756685440136572
 40
0.4347110736298802
 40
0.4938368192040538
 40
0.5530116495173842
 40
0.6120983013386022
 40
0.6710428299972754
 40
0.7298261731686599
 40
0.7884258360426925
 40
0.8467958145206171
 40
0.8655669647427026
 40
0.8834823951604174
 40
0.9012873219477362
 40
0.9267778521638325
 40
0.9604934909203237
 40
1.0
 40
1.0
 40
1.0
 40
1.0
 10
246.2619332041226
 20
385.882810584479
 30
0.0
 10
246.0345716967012
 20
384.5394962587658
 30
0.0
 10
245.6219351051132
 20
382.1015257725548
 30
0.0
 10
245.4948043203775
 20
378.8275588126804
 30
0.0
 10
245.6239776672232
 20
374.6942092848487
 30
0.0
 10
246.4452048482482
 20
369.4264586792818
 30
0.0
 10
248.6913583513297
 20
362.9887541689048
 30
0.0
 10
252.1087587752064
 20
357.012444796174
 30
0.0
 10
256.5786086917364
 20
351.7464908959163
 30
0.0
 10
261.9555317950573
 20
347.3802461436626
 30
0.0
 10
268.0570088616261
 20
344.0733279336044
 30
0.0
 10
274.6732370189278
 20
341.9466555496832
 30
0.0
 10
281.5703120046396
 20
341.0791243566508
 30
0.0
 10
288.5017343189447
 20
341.5003396358763
 30
0.0
 10
295.2215076194033
 20
343.1885422528986
 30
0.0
 10
301.4988459653255
 20
346.0761553942413
 30
0.0
 10
307.1207454316538
 20
350.0514882331581
 30
0.0
 10
310.8308198782967
 20
353.8672976498714
 30
0.0
 10
313.0738350120232
 20
356.816194270555
 30
0.0
 10
314.2604299980308
 20
358.5782033903888
 30
0.0
 10
315.4811627633994
 20
360.6286637649933
 30
0.0
 10
316.833636199044
 20
363.3093484944948
 30
0.0
 10
318.2732309864865
 20
366.8886229850413
 30
0.0
 10
318.9362428823279
 20
369.6672599335434
 30
0.0
 10
319.2939664162182
 20
371.1664544952864
 30
0.0
  0
SPLINE
  5
75
330
1F
100
AcDbEntity
  8
0
  6
Continuous
 62
     7
370
    25
100
AcDbSpline
210
0.0
220
0.0
230
1.0
 70
     8
 71
     3
 72
    29
 73
    25
 74
     0
 42
0.00000001
 43
0.00000001
 40
0.0
 40
0.0
 40
0.0
 40
0.0
 40
0.0349321406882635
 40
0.0633980643159913
 40
0.0838985515737896
 40
0.1410481598295769
 40
0.1993926718331193
 40
0.2579538570990187
 40
0.3167358876867429
 40
0.3756685440136571
 40
0.4347110736298801
 40
0.4938368192040537
 40
0.5530116495173842
 40
0.6120983013386023
 40
0.6710428299972755
 40
0.7298261731686599
 40
0.7884258360426926
 40
0.8467958145206169
 40
0.8655669647427026
 40
0.8834823951604174
 40
0.9012873219477363
 40
0.9267778521638321
 40
0.9604934909203235
 40
1.0
 40
1.0
 40
1.0
 40
1.0
 10
319.2939664162182
 20
371.1664544952864
 30
0.0
 10
319.5213279236395
 20
372.5097688209996
 30
0.0
 10
319.9339645152276
 20
374.9477393072107
 30
0.0
 10
320.0610952999633
 20
378.221706267085
 30
0.0
 10
319.9319219531175
 20
382.3550557949167
 30
0.0
 10
319.1106947720926
 20
387.6228064004836
 30
0.0
 10
316.8645412690111
 20
394.0605109108606
 30
0.0
 10
313.4471408451344
 20
400.0368202835914
 30
0.0
 10
308.9772909286043
 20
405.3027741838491
 30
0.0
 10
303.6003678252835
 20
409.6690189361028
 30
0.0
 10
297.4988907587147
 20
412.975937146161
 30
0.0
 10
290.882662601413
 20
415.1026095300822
 30
0.0
 10
283.9855876157012
 20
415.9701407231147
 30
0.0
 10
277.054165301396
 20
415.5489254438891
 30
0.0
 10
270.3343920009375
 20
413.8607228268668
 30
0.0
 10
264.0570536550153
 20
410.9731096855242
 30
0.0
 10
258.435154188687
 20
406.9977768466072
 30
0.0
 10
254.725079742044
 20
403.1819674298941
 30
0.0
 10
252.4820646083175
 20
400.2330708092104
 30
0.0
 10
251.2954696223099
 20
398.4710616893765
 30
0.0
 10
250.0747368569413
 20
396.4206013147721
 30
0.0
 10
248.7222634212968
 20
393.7399165852706
 30
0.0
 10
247.2826686338542
 20
390.1606420947241
 30
0.0
 10
246.6196567380128
 20
387.382005146222
 30
0.0
 10
246.2619332041226
 20
385.882810584479
 30
0.0
  0
CIRCLE
  5
76
330
1F
100
AcDbEntity
  8
0
  6
Continuous
 62
     7
370
    25
100
AcDbCircle
 10
282.7779498102
 20
378.5246325399
 30
0.0
 40
46.09611899300018
  0
ARC
  5
77
330
1F
100
AcDbEntity
  8
0
  6
Continuous
 62
     7
370
    25
100
AcDbCircle
 10
282.7779498102
 20
378.5246325399
 30
0.0
 40
38.29899805700005
100
AcDbArc
 50
196.3719887255
 51
16.3719887255
  0
ARC
  5
78
330
1F
100
AcDbEntity
  8
0
  6
Continuous
 62
     7
370
    25
100
AcDbCircle
 10
282.7779498102
 20
378.5246325399
 30
0.0
 40
39.50000000000013
100
AcDbArc
 50
196.3719887255
 51
16.371988749
  0
ARC
  5
79
330
1F
100
AcDbEntity
  8
0
  6
Continuous
 62
     7
370
    25
100
AcDbCircle
 10
282.7779498102
 20
378.5246325399
 30
0.0
 40
38.29899805700005
100
AcDbArc
 50
16.3719887255
 51
196.3719887255
  0
ARC
  5
7A
330
1F
100
AcDbEntity
  8
0
  6
Continuous
 62
     7
370
    25
100
AcDbCircle
 10
282.7779498102
 20
378.5246325399
 30
0.0
 40
39.50000000000013
100
AcDbArc
 50
16.371988749
 51
196.3719887152
  0
ARC
  5
7B
330
1F
100
AcDbEntity
  8
0
  6
Continuous
 62
     7
370
    25
100
AcDbCircle
 10
282.7779498102
 20
378.5246325399
 30
0.0
 40
36.31056399417612
100
AcDbArc
 50
348.6071506453
 51
168.6071506622
  0
ARC
  5
7C
330
1F
100
AcDbEntity
  8
0
  6
Continuous
 62
     7
370
    25
100
AcDbCircle
 10
282.7779498102
 20
378.5246325399
 30
0.0
 40
36.31056399417612
100
AcDbArc
 50
168.6071506622
 51
348.6071506453
  0
SPLINE
  5
7D
330
1F
100
AcDbEntity
  8
0
  6
Continuous
 62
     7
370
    25
100
AcDbSpline
210
0.0
220
0.0
230
1.0
 70
     8
 71
     3
 72
    14
 73
    10
 74
     0
 42
0.00000001
 43
0.00000001
 40
0.0
 40
0.0
 40
0.0
 40
0.0
 40
0.25
 40
0.25
 40
0.5
 40
0.5
 40
0.75
 40
0.75
 40
1.0
 40
1.0
 40
1.0
 40
1.0
 10
82.77796284101294
 20
110.5246325414228
 30
0.0
 10
82.77796284397112
 20
110.5246075313677
 30
0.0
 10
82.72590680216005
 20
110.5245915859848
 30
0.0
 10
82.52553431099399
 20
110.5245746595401
 30
0.0
 10
82.37729809886346
 20
110.5245736503607
 30
0.0
 10
82.00705930160332
 20
110.5245813073368
 30
0.0
 10
81.78520576348173
 20
110.524589938115
 30
0.0
 10
81.30146481113879
 20
110.5246104521934
 30
0.0
 10
81.03976903285482
 20
110.5246222995086
 30
0.0
 10
80.77797067038884
 20
110.5246325367516
 30
0.0
  0
LINE
  5
7E
330
1F
100
AcDbEntity
  8
0
  6
Continuous
 62
     7
370
    25
100
AcDbLine
 10
80.7779498102
 20
486.5246191198
 30
0.0
 11
80.7779498102
 21
110.5246325399
 31
0.0
  0
SPLINE
  5
7F
330
1F
100
AcDbEntity
  8
0
  6
Continuous
 62
     7
370
    25
100
AcDbSpline
210
0.0
220
0.0
230
1.0
 70
     8
 71
     3
 72
    14
 73
    10
 74
     0
 42
0.00000001
 43
0.00000001
 40
0.0
 40
0.0
 40
0.0
 40
0.0
 40
0.25
 40
0.25
 40
0.5
 40
0.5
 40
0.75
 40
0.75
 40
1.0
 40
1.0
 40
1.0
 40
1.0
 10
82.77794981017017
 20
486.5246325398825
 30
0.0
 10
82.77794981017014
 20
486.5246314215382
 30
0.0
 10
82.72589516350676
 20
486.5246303031939
 30
0.0
 10
82.52552258687871
 20
486.5246280665054
 30
0.0
 10
82.3772834949665
 20
486.524626948161
 30
0.0
 10
82.00704325012
 20
486.5246247114724
 30
0.0
 10
81.78518777091193
 20
486.5246235931282
 30
0.0
 10
81.30144557888869
 20
486.5246213564396
 30
0.0
 10
81.0397491979693
 20
486.5246202380953
 30
0.0
 10
80.77794981017017
 20
486.524619119751
 30
0.0
  0
LINE
  5
80
330
1F
100
AcDbEntity
  8
0
  6
Continuous
 62
     7
370
    25
100
AcDbLine
 10
82.7779498102
 20
486.5246325399
 30
0.0
 11
82.7779498102
 21
110.5246325399
 31
0.0
  0
ARC
  5
81
330
1F
100
AcDbEntity
  8
0
  6
Continuous
 62
     7
370
    25
100
AcDbCircle
 10
72.7779498102
 20
88.5246325399
 30
0.0
 40
9.500000000000014
100
AcDbArc
 50
180.0
 51
270.0
  0
LINE
  5
82
330
1F
100
AcDbEntity
  8
0
  6
Continuous
 62
     7
370
    25
100
AcDbLine
 10
63.2779498102
 20
508.5246325399
 30
0.0
 11
63.2779498102
 21
88.5246325399
 31
0.0
  0
ARC
  5
83
330
1F
100
AcDbEntity
  8
0
  6
Continuous
 62
     7
370
    25
100
AcDbCircle
 10
72.7779498102
 20
508.5246325399
 30
0.0
 40
9.500000000000007
100
AcDbArc
 50
90.0
 51
180.0
  0
LINE
  5
84
330
1F
100
AcDbEntity
  8
0
  6
Continuous
 62
     7
370
    25
100
AcDbLine
 10
492.7779498102
 20
518.0246325399
 30
0.0
 11
72.7779498102
 21
518.0246325399
 31
0.0
  0
ARC
  5
85
330
1F
100
AcDbEntity
  8
0
  6
Continuous
 62
     7
370
    25
100
AcDbCircle
 10
492.7779498102
 20
508.5246325399
 30
0.0
 40
9.5
100
AcDbArc
 50
0.0
 51
90.0
  0
LINE
  5
86
330
1F
100
AcDbEntity
  8
0
  6
Continuous
 62
     7
370
    25
100
AcDbLine
 10
502.2779498102
 20
88.5246325399
 30
0.0
 11
502.2779498102
 21
508.5246325399
 31
0.0
  0
ARC
  5
87
330
1F
100
AcDbEntity
  8
0
  6
Continuous
 62
     7
370
    25
100
AcDbCircle
 10
492.7779498102
 20
88.5246325399
 30
0.0
 40
9.500000000000014
100
AcDbArc
 50
270.0
 51
0.0
  0
LINE
  5
88
330
1F
100
AcDbEntity
  8
0
  6
Continuous
 62
     7
370
    25
100
AcDbLine
 10
72.7779498102
 20
79.0246325399
 30
0.0
 11
492.7779498102
 21
79.0246325399
 31
0.0
  0
SPLINE
  5
89
330
1F
100
AcDbEntity
  8
0
  6
Continuous
 62
     7
370
    25
100
AcDbSpline
210
0.0
220
0.0
230
1.0
 70
     8
 71
     3
 72
    14
 73
    10
 74
     0
 42
0.00000001
 43
0.00000001
 40
0.0
 40
0.0
 40
0.0
 40
0.0
 40
0.25
 40
0.25
 40
0.5
 40
0.5
 40
0.75
 40
0.75
 40
1.0
 40
1.0
 40
1.0
 40
1.0
 10
80.77794981017017
 20
110.5246325398825
 30
0.0
 10
80.77794980577113
 20
108.6909780272223
 30
0.0
 10
81.14275021954818
 20
106.8584595005256
 30
0.0
 10
82.54571755485554
 20
103.4725623081965
 30
0.0
 10
83.58322407959298
 20
101.9203869563179
 30
0.0
 10
86.17377923974439
 20
99.32984979807138
 30
0.0
 10
87.72598380867109
 20
98.29234867085138
 30
0.0
 10
91.11179161633102
 20
96.8894370524719
 30
0.0
 10
92.94476066700209
 20
96.52463647705697
 30
0.0
 10
94.7779632204322
 20
96.52463335487302
 30
0.0
  0
LINE
  5
8A
330
1F
100
AcDbEntity
  8
0
  6
Continuous
 62
     7
370
    25
100
AcDbLine
 10
94.7779632204
 20
96.5246325399
 30
0.0
 11
470.7779498102
 21
96.5246325399
 31
0.0
  0
SPLINE
  5
8B
330
1F
100
AcDbEntity
  8
0
  6
Continuous
 62
     7
370
    25
100
AcDbSpline
210
0.0
220
0.0
230
1.0
 70
     8
 71
     3
 72
    14
 73
    10
 74
     0
 42
0.00000001
 43
0.00000001
 40
0.0
 40
0.0
 40
0.0
 40
0.0
 40
0.25
 40
0.25
 40
0.5
 40
0.5
 40
0.75
 40
0.75
 40
1.0
 40
1.0
 40
1.0
 40
1.0
 10
470.7779498101702
 20
96.5246325398825
 30
0.0
 10
472.6112092227345
 20
96.52465179939215
 30
0.0
 10
474.4441226613767
 20
96.88943830173977
 30
0.0
 10
477.829962278071
 20
98.2923725936767
 30
0.0
 10
479.382155500789
 20
99.32987707089715
 30
0.0
 10
481.9726976702757
 20
101.920416956954
 30
0.0
 10
483.010202738713
 20
103.4726048430791
 30
0.0
 10
484.41314792985
 20
106.8584675477363
 30
0.0
 10
484.777947831112
 20
108.6912258125734
 30
0.0
 10
484.7779498146157
 20
110.524629059238
 30
0.0
  0
LINE
  5
8C
330
1F
100
AcDbEntity
  8
0
  6
Continuous
 62
     7
370
    25
100
AcDbLine
 10
484.7779498102
 20
110.5246290592
 30
0.0
 11
484.7779498102
 21
486.5246325399
 31
0.0
  0
SPLINE
  5
8D
330
1F
100
AcDbEntity
  8
0
  6
Continuous
 62
     7
370
    25
100
AcDbSpline
210
0.0
220
0.0
230
1.0
 70
     8
 71
     3
 72
    14
 73
    10
 74
     0
 42
0.00000001
 43
0.00000001
 40
0.0
 40
0.0
 40
0.0
 40
0.0
 40
0.25
 40
0.25
 40
0.5
 40
0.5
 40
0.75
 40
0.75
 40
1.0
 40
1.0
 40
1.0
 40
1.0
 10
484.7779498101702
 20
486.5246325398825
 30
0.0
 10
484.7779498075965
 20
488.3582889326578
 30
0.0
 10
484.4131474538529
 20
490.1908078267832
 30
0.0
 10
483.0101788879954
 20
493.5767048362092
 30
0.0
 10
481.9726728824363
 20
495.1288799066652
 30
0.0
 10
479.3821194148848
 20
497.7194171088079
 30
0.0
 10
477.829915762141
 20
498.7569183530711
 30
0.0
 10
474.444108729338
 20
500.1598291180331
 30
0.0
 10
472.611139655761
 20
500.524628609179
 30
0.0
 10
470.7779363886542
 20
500.5246317249648
 30
0.0
  0
LINE
  5
8E
330
1F
100
AcDbEntity
  8
0
  6
Continuous
 62
     7
370
    25
100
AcDbLine
 10
470.7779363887
 20
500.5246325399
 30
0.0
 11
94.7779498102
 21
500.5246325399
 31
0.0
  0
SPLINE
  5
8F
330
1F
100
AcDbEntity
  8
0
  6
Continuous
 62
     7
370
    25
100
AcDbSpline
210
0.0
220
0.0
230
1.0
 70
     8
 71
     3
 72
    14
 73
    10
 74
     0
 42
0.00000001
 43
0.00000001
 40
0.0
 40
0.0
 40
0.0
 40
0.0
 40
0.25
 40
0.25
 40
0.5
 40
0.5
 40
0.75
 40
0.75
 40
1.0
 40
1.0
 40
1.0
 40
1.0
 10
94.77794981017018
 20
500.5246325398825
 30
0.0
 10
92.94429112204911
 20
500.5246325442814
 30
0.0
 10
91.11177091339448
 20
500.1598305433968
 30
0.0
 10
87.72587372730706
 20
498.7568611870792
 30
0.0
 10
86.17369996069152
 20
497.7193543697065
 30
0.0
 10
83.58316554607428
 20
495.1288011781882
 30
0.0
 10
82.54566543535516
 20
493.5765988698143
 30
0.0
 10
81.14275439183169
 20
490.1907938079834
 30
0.0
 10
80.77795374074057
 20
488.3578252611553
 30
0.0
 10
80.77795062513069
 20
486.5246191197509
 30
0.0
  0
SPLINE
  5
90
330
1F
100
AcDbEntity
  8
0
  6
Continuous
 62
     7
370
    25
100
AcDbSpline
210
0.0
220
0.0
230
1.0
 70
     8
 71
     3
 72
    14
 73
    10
 74
     0
 42
0.00000001
 43
0.00000001
 40
0.0
 40
0.0
 40
0.0
 40
0.0
 40
0.25
 40
0.25
 40
0.5
 40
0.5
 40
0.75
 40
0.75
 40
1.0
 40
1.0
 40
1.0
 40
1.0
 10
470.7779498101702
 20
498.5246325398825
 30
0.0
 10
470.7779486917104
 20
498.5246325398825
 30
0.0
 10
470.7779475732509
 20
498.5766871592081
 30
0.0
 10
470.7779453363315
 20
498.7770596345841
 30
0.0
 10
470.7779442178719
 20
498.9252986527032
 30
0.0
 10
470.7779419809524
 20
499.2955387260819
 30
0.0
 10
470.7779408624928
 20
499.5173941078332
 30
0.0
 10
470.7779386255735
 20
500.0011361131428
 30
0.0
 10
470.7779375071138
 20
500.2628324050755
 30
0.0
 10
470.7779363886542
 20
500.5246317249648
 30
0.0
  0
LINE
  5
91
330
1F
100
AcDbEntity
  8
0
  6
Continuous
 62
     7
370
    25
100
AcDbLine
 10
470.7779498102
 20
498.5246325399
 30
0.0
 11
94.7779498102
 21
498.5246325399
 31
0.0
  0
SPLINE
  5
92
330
1F
100
AcDbEntity
  8
0
  6
Continuous
 62
     7
370
    25
100
AcDbSpline
210
0.0
220
0.0
230
1.0
 70
     8
 71
     3
 72
    14
 73
    10
 74
     0
 42
0.00000001
 43
0.00000001
 40
0.0
 40
0.0
 40
0.0
 40
0.0
 40
0.25
 40
0.25
 40
0.5
 40
0.5
 40
0.75
 40
0.75
 40
1.0
 40
1.0
 40
1.0
 40
1.0
 10
94.77794981171164
 20
498.5246195088976
 30
0.0
 10
94.77792480143773
 20
498.5246195059397
 30
0.0
 10
94.77790885591544
 20
498.5766755477488
 30
0.0
 10
94.77789192932177
 20
498.7770480389073
 30
0.0
 10
94.77789092013278
 20
498.925284251032
 30
0.0
 10
94.7778985771752
 20
499.295523048278
 30
0.0
 10
94.77790720802875
 20
499.517376586391
 30
0.0
 10
94.77792772228702
 20
500.001117538715
 30
0.0
 10
94.77793956970656
 20
500.2628133169886
 30
0.0
 10
94.77794980703993
 20
500.5246116794443
 30
0.0
  0
LINE
  5
93
330
1F
100
AcDbEntity
  8
0
  6
Continuous
 62
     7
370
    25
100
AcDbLine
 10
470.7779498102
 20
98.5246325399
 30
0.0
 11
470.7779498102
 21
96.5246325399
 31
0.0
  0
SPLINE
  5
94
330
1F
100
AcDbEntity
  8
0
  6
Continuous
 62
     7
370
    25
100
AcDbSpline
210
0.0
220
0.0
230
1.0
 70
     8
 71
     3
 72
    14
 73
    10
 74
     0
 42
0.00000001
 43
0.00000001
 40
0.0
 40
0.0
 40
0.0
 40
0.0
 40
0.25
 40
0.25
 40
0.5
 40
0.5
 40
0.75
 40
0.75
 40
1.0
 40
1.0
 40
1.0
 40
1.0
 10
94.77794981017016
 20
98.5246325398825
 30
0.0
 10
94.777950927692
 20
98.5246325398825
 30
0.0
 10
94.77795204521381
 20
98.47257789321908
 30
0.0
 10
94.7779542802575
 20
98.27220531659106
 30
0.0
 10
94.77795539777934
 20
98.12396622467881
 30
0.0
 10
94.77795763282299
 20
97.75372597983231
 30
0.0
 10
94.77795875034484
 20
97.53187050062431
 30
0.0
 10
94.77796098538846
 20
97.04812830860102
 30
0.0
 10
94.77796210291034
 20
96.78643192768158
 30
0.0
 10
94.77796322043217
 20
96.5246325398825
 30
0.0
  0
LINE
  5
95
330
1F
100
AcDbEntity
  8
0
  6
Continuous
 62
     7
370
    25
100
AcDbLine
 10
94.7779498102
 20
98.5246325399
 30
0.0
 11
470.7779498102
 21
98.5246325399
 31
0.0
  0
SPLINE
  5
96
330
1F
100
AcDbEntity
  8
0
  6
Continuous
 62
     7
370
    25
100
AcDbSpline
210
0.0
220
0.0
230
1.0
 70
     8
 71
     3
 72
    14
 73
    10
 74
     0
 42
0.00000001
 43
0.00000001
 40
0.0
 40
0.0
 40
0.0
 40
0.0
 40
0.25
 40
0.25
 40
0.5
 40
0.5
 40
0.75
 40
0.75
 40
1.0
 40
1.0
 40
1.0
 40
1.0
 10
482.7779498101702
 20
110.5246325398825
 30
0.0
 10
482.7779498101702
 20
110.5246322498289
 30
0.0
 10
482.8300044569827
 20
110.524631959775
 30
0.0
 10
483.0303770341632
 20
110.5246313796678
 30
0.0
 10
483.1786161264779
 20
110.5246310896139
 30
0.0
 10
483.5488563722599
 20
110.5246305095065
 30
0.0
 10
483.7707118519995
 20
110.5246302194528
 30
0.0
 10
484.2544540450414
 20
110.5246296393453
 30
0.0
 10
484.5161504264462
 20
110.5246293492917
 30
0.0
 10
484.7779498146159
 20
110.524629059238
 30
0.0
  0
LINE
  5
97
330
1F
100
AcDbEntity
  8
0
  6
Continuous
 62
     7
370
    25
100
AcDbLine
 10
482.7779498102
 20
110.5246325399
 30
0.0
 11
482.7779498102
 21
486.5246325399
 31
0.0
  0
SPLINE
  5
98
330
1F
100
AcDbEntity
  8
0
  6
Continuous
 62
     7
370
    25
100
AcDbSpline
210
0.0
220
0.0
230
1.0
 70
     8
 71
     3
 72
    14
 73
    10
 74
     0
 42
0.00000001
 43
0.00000001
 40
0.0
 40
0.0
 40
0.0
 40
0.0
 40
0.25
 40
0.25
 40
0.5
 40
0.5
 40
0.75
 40
0.75
 40
1.0
 40
1.0
 40
1.0
 40
1.0
 10
482.7779367792375
 20
486.5246325383408
 30
0.0
 10
482.7779367762792
 20
486.5246575481162
 30
0.0
 10
482.8299928180875
 20
486.5246734933143
 30
0.0
 10
483.0303653092425
 20
486.5246904195553
 30
0.0
 10
483.1786015213648
 20
486.5246914287149
 30
0.0
 10
483.5488403186049
 20
486.5246837718142
 30
0.0
 10
483.7706938567146
 20
486.5246751411309
 30
0.0
 10
484.2544348090312
 20
486.5246546272921
 30
0.0
 10
484.5161305873008
 20
486.5246427801214
 30
0.0
 10
484.7779289497526
 20
486.5246325430127
 30
0.0
  0
SPLINE
  5
99
330
1F
100
AcDbEntity
  8
0
  6
Continuous
 62
     7
370
    25
100
AcDbSpline
210
0.0
220
0.0
230
1.0
 70
     8
 71
     3
 72
    14
 73
    10
 74
     0
 42
0.00000001
 43
0.00000001
 40
0.0
 40
0.0
 40
0.0
 40
0.0
 40
0.25
 40
0.25
 40
0.5
 40
0.5
 40
0.75
 40
0.75
 40
1.0
 40
1.0
 40
1.0
 40
1.0
 10
82.77794981017017
 20
110.5246325398825
 30
0.0
 10
82.77794980639686
 20
108.9517684044864
 30
0.0
 10
83.09119968026779
 20
107.380140088677
 30
0.0
 10
84.29412938584383
 20
104.4783753038428
 30
0.0
 10
85.1831148550496
 20
103.1489334937783
 30
0.0
 10
87.40223768923109
 20
100.9298082908972
 30
0.0
 10
88.73168069170758
 20
100.0408195570406
 30
0.0
 10
91.6334518657286
 20
98.83788435315691
 30
0.0
 10
93.20508567477395
 20
98.52463254209034
 30
0.0
 10
94.77794981017018
 20
98.5246325398825
 30
0.0
  0
SPLINE
  5
9A
330
1F
100
AcDbEntity
  8
0
  6
Continuous
 62
     7
370
    25
100
AcDbSpline
210
0.0
220
0.0
230
1.0
 70
     8
 71
     3
 72
    14
 73
    10
 74
     0
 42
0.00000001
 43
0.00000001
 40
0.0
 40
0.0
 40
0.0
 40
0.0
 40
0.2500000000000001
 40
0.2500000000000001
 40
0.5000000000000001
 40
0.5000000000000001
 40
0.7500000000000002
 40
0.7500000000000002
 40
1.0
 40
1.0
 40
1.0
 40
1.0
 10
94.77794981017018
 20
498.5246325398825
 30
0.0
 10
93.20507723659641
 20
498.5246325436559
 30
0.0
 10
91.63344561749922
 20
498.2113795530501
 30
0.0
 10
88.73168073258026
 20
497.0084459606293
 30
0.0
 10
87.40224192815153
 20
496.1194598199132
 30
0.0
 10
85.1831225219076
 20
493.9003404160214
 30
0.0
 10
84.29413638148561
 20
492.5709016139445
 30
0.0
 10
83.09120279303367
 20
489.6691367321124
 30
0.0
 10
82.7779498063968
 20
488.0975051134563
 30
0.0
 10
82.77794981017017
 20
486.5246325398825
 30
0.0
  0
SPLINE
  5
9B
330
1F
100
AcDbEntity
  8
0
  6
Continuous
 62
     7
370
    25
100
AcDbSpline
210
0.0
220
0.0
230
1.0
 70
     8
 71
     3
 72
    14
 73
    10
 74
     0
 42
0.00000001
 43
0.00000001
 40
0.0
 40
0.0
 40
0.0
 40
0.0
 40
0.25
 40
0.25
 40
0.5
 40
0.5
 40
0.75
 40
0.75
 40
1.0
 40
1.0
 40
1.0
 40
1.0
 10
482.7779498101702
 20
486.5246325398825
 30
0.0
 10
482.7779498079622
 20
488.0974992984832
 30
0.0
 10
482.4646976627753
 20
489.6691287853294
 30
0.0
 10
481.2617656984692
 20
492.5708943641222
 30
0.0
 10
480.3727801452306
 20
493.9003357929335
 30
0.0
 10
478.1536593985928
 20
496.1194597206014
 30
0.0
 10
476.8242184710738
 20
497.0084475563227
 30
0.0
 10
473.9224499232228
 20
498.2113812994176
 30
0.0
 10
472.3508165687708
 20
498.5246325436559
 30
0.0
 10
470.7779498101702
 20
498.5246325398824
 30
0.0
  0
SPLINE
  5
9C
330
1F
100
AcDbEntity
  8
0
  6
Continuous
 62
     7
370
    25
100
AcDbSpline
210
0.0
220
0.0
230
1.0
 70
     8
 71
     3
 72
    14
 73
    10
 74
     0
 42
0.00000001
 43
0.00000001
 40
0.0
 40
0.0
 40
0.0
 40
0.0
 40
0.25
 40
0.25
 40
0.5
 40
0.5
 40
0.75
 40
0.75
 40
1.0
 40
1.0
 40
1.0
 40
1.0
 10
470.7779498101702
 20
98.5246325398825
 30
0.0
 10
472.3508178501589
 20
98.52463254209046
 30
0.0
 10
473.9224500437613
 20
98.83788525009071
 30
0.0
 10
476.8242168089287
 20
100.0408184464228
 30
0.0
 10
478.1536570381611
 20
100.9298045923511
 30
0.0
 10
480.3727777557252
 20
103.1489253104799
 30
0.0
 10
481.2617639017241
 20
104.4783655402771
 30
0.0
 10
482.4646970990091
 20
107.3801323061855
 30
0.0
 10
482.7779498079623
 20
108.9517644998937
 30
0.0
 10
482.7779498101702
 20
110.5246325398825
 30
0.0
  0
LINE
  5
9D
330
1F
100
AcDbEntity
  8
0
  6
Continuous
 62
     7
370
    25
100
AcDbLine
 10
63.2779498102
 20
508.5246325399
 30
0.0
 11
62.7779498102
 21
508.5246325399
 31
0.0
  0
ARC
  5
9E
330
1F
100
AcDbEntity
  8
0
  6
Continuous
 62
     7
370
    25
100
AcDbCircle
 10
72.7779498102
 20
508.5246325399
 30
0.0
 40
10.00000000000001
100
AcDbArc
 50
90.0
 51
180.0
  0
LINE
  5
9F
330
1F
100
AcDbEntity
  8
0
  6
Continuous
 62
     7
370
    25
100
AcDbLine
 10
72.7779498102
 20
518.5246325399
 30
0.0
 11
72.7779498102
 21
518.0246325399
 31
0.0
  0
LINE
  5
A0
330
1F
100
AcDbEntity
  8
0
  6
Continuous
 62
     7
370
    25
100
AcDbLine
 10
72.7779498102
 20
518.5246325399
 30
0.0
 11
492.7779498102
 21
518.5246325399
 31
0.0
  0
LINE
  5
A1
330
1F
100
AcDbEntity
  8
0
  6
Continuous
 62
     7
370
    25
100
AcDbLine
 10
492.7779498102
 20
518.5246325399
 30
0.0
 11
492.7779498102
 21
518.0246325399
 31
0.0
  0
LINE
  5
A2
330
1F
100
AcDbEntity
  8
0
  6
Continuous
 62
     7
370
    25
100
AcDbLine
 10
502.7779498102
 20
88.5246325399
 30
0.0
 11
502.2779498102
 21
88.5246325399
 31
0.0
  0
ARC
  5
A3
330
1F
100
AcDbEntity
  8
0
  6
Continuous
 62
     7
370
    25
100
AcDbCircle
 10
492.7779498102
 20
88.5246325399
 30
0.0
 40
10.00000000000001
100
AcDbArc
 50
270.0
 51
0.0
  0
LINE
  5
A4
330
1F
100
AcDbEntity
  8
0
  6
Continuous
 62
     7
370
    25
100
AcDbLine
 10
492.7779498102
 20
79.0246325399
 30
0.0
 11
492.7779498102
 21
78.5246325399
 31
0.0
  0
LINE
  5
A5
330
1F
100
AcDbEntity
  8
0
  6
Continuous
 62
     7
370
    25
100
AcDbLine
 10
63.2779498102
 20
88.5246325399
 30
0.0
 11
62.7779498102
 21
88.5246325399
 31
0.0
  0
LINE
  5
A6
330
1F
100
AcDbEntity
  8
0
  6
Continuous
 62
     7
370
    25
100
AcDbLine
 10
62.7779498102
 20
88.5246325399
 30
0.0
 11
62.7779498102
 21
508.5246325399
 31
0.0
  0
ARC
  5
A7
330
1F
100
AcDbEntity
  8
0
  6
Continuous
 62
     7
370
    25
100
AcDbCircle
 10
492.7779498102
 20
508.5246325399
 30
0.0
 40
10.0
100
AcDbArc
 50
0.0
 51
90.0
  0
LINE
  5
A8
330
1F
100
AcDbEntity
  8
0
  6
Continuous
 62
     7
370
    25
100
AcDbLine
 10
502.7779498102
 20
508.5246325399
 30
0.0
 11
502.2779498102
 21
508.5246325399
 31
0.0
  0
LINE
  5
A9
330
1F
100
AcDbEntity
  8
0
  6
Continuous
 62
     7
370
    25
100
AcDbLine
 10
492.7779498102
 20
78.5246325399
 30
0.0
 11
72.7779498102
 21
78.5246325399
 31
0.0
  0
LINE
  5
AA
330
1F
100
AcDbEntity
  8
0
  6
Continuous
 62
     7
370
    25
100
AcDbLine
 10
72.7779498102
 20
79.0246325399
 30
0.0
 11
72.7779498102
 21
78.5246325399
 31
0.0
  0
ARC
  5
AB
330
1F
100
AcDbEntity
  8
0
  6
Continuous
 62
     7
370
    25
100
AcDbCircle
 10
72.7779498102
 20
88.5246325399
 30
0.0
 40
10.00000000000001
100
AcDbArc
 50
180.0
 51
270.0
  0
LINE
  5
AC
330
1F
100
AcDbEntity
  8
0
  6
Continuous
 62
     7
370
    25
100
AcDbLine
 10
502.7779498102
 20
508.5246325399
 30
0.0
 11
502.7779498102
 21
88.5246325399
 31
0.0
  0
SPLINE
  5
AD
330
1F
100
AcDbEntity
  8
0
  6
Continuous
 62
     7
370
    25
100
AcDbSpline
210
0.0
220
0.0
230
1.0
 70
     8
 71
     3
 72
    50
 73
    46
 74
     0
 42
0.00000001
 43
0.00000001
 40
0.0
 40
0.0
 40
0.0
 40
0.0
 40
0.015763660386915
 40
0.0315273172092596
 40
0.0472909775721671
 40
0.0746103788044226
 40
0.0950342655331076
 40
0.1192897882674812
 40
0.137926990643394
 40
0.1946784216153583
 40
0.2477956381632985
 40
0.3021183950057664
 40
0.3206472588617258
 40
0.3312113998292893
 40
0.3395191963681312
 40
0.3537053716953976
 40
0.3685867035956539
 40
0.3869027835663692
 40
0.4037053038973497
 40
0.4125083831637975
 40
0.4217965951331989
 40
0.4399580591760099
 40
0.4527237341232101
 40
0.4587411773863792
 40
0.4649599121905961
 40
0.4781397234457431
 40
0.4903465608928069
 40
0.5099283159000404
 40
0.529705602373588
 40
0.5491318848569168
 40
0.565484192661768
 40
0.5856324964022882
 40
0.6025326218906587
 40
0.6133308093182415
 40
0.624739612399912
 40
0.6469894274618285
 40
0.6704618665333965
 40
0.6939343056177905
 40
0.7445390478520582
 40
0.7951437900863204
 40
0.8738569309141067
 40
0.9379347794101255
 40
0.9681818078068325
 40
0.981442645906054
 40
1.0
 40
1.0
 40
1.0
 40
1.0
 10
482.7779498270151
 20
110.5246325398822
 30
0.0
 10
482.7772418969272
 20
110.5246562943308
 30
0.0
 10
482.7758260369113
 20
110.5247038032223
 30
0.0
 10
482.7643800276469
 20
110.5249465777693
 30
0.0
 10
482.7416413042518
 20
110.5258859570321
 30
0.0
 10
482.7034421080832
 20
110.5250244588013
 30
0.0
 10
482.6433685849563
 20
110.5247859598771
 30
0.0
 10
482.5767149481551
 20
110.5250998367766
 30
0.0
 10
482.4511271983199
 20
110.5249616708242
 30
0.0
 10
482.2423370634242
 20
110.5243850672428
 30
0.0
 10
481.8906910492172
 20
110.5251237120457
 30
0.0
 10
481.5589726101313
 20
110.5233570114654
 30
0.0
 10
481.3127329762039
 20
110.5255211439394
 30
0.0
 10
481.1976243611832
 20
110.5245537541651
 30
0.0
 10
481.0932120987817
 20
110.5250747792509
 30
0.0
 10
480.9715894671134
 20
110.5250208879099
 30
0.0
 10
480.8116275613874
 20
110.5250694815944
 30
0.0
 10
480.6359749087875
 20
110.5245898726546
 30
0.0
 10
480.4754287985874
 20
110.5253061570456
 30
0.0
 10
480.3443347184739
 20
110.5251857699008
 30
0.0
 10
480.2055565553947
 20
110.5241415322196
 30
0.0
 10
480.0473069137551
 20
110.5259955502477
 30
0.0
 10
479.8975899141378
 20
110.5242211986559
 30
0.0
 10
479.7945172091556
 20
110.5251286178896
 30
0.0
 10
479.6885836760864
 20
110.5254257658525
 30
0.0
 10
479.5545962139566
 20
110.5247358686729
 30
0.0
 10
479.3598446593056
 20
110.5251858543871
 30
0.0
 10
479.1307055112224
 20
110.524785079203
 30
0.0
 10
478.8615441002052
 20
110.5257128650232
 30
0.0
 10
478.5999312622064
 20
110.5242026584709
 30
0.0
 10
478.3301565675939
 20
110.5259155915026
 30
0.0
 10
478.0664920321428
 20
110.5240775459751
 30
0.0
 10
477.8249569912397
 20
110.52555201448
 30
0.0
 10
477.6244189747765
 20
110.525240934904
 30
0.0
 10
477.3936704388855
 20
110.5241609634091
 30
0.0
 10
477.0918451106412
 20
110.5258493716977
 30
0.0
 10
476.7180638469559
 20
110.5246095629838
 30
0.0
 10
476.1799668021668
 20
110.5250274739004
 30
0.0
 10
475.4708351351541
 20
110.5252781622672
 30
0.0
 10
474.4126875591377
 20
110.5248339922342
 30
0.0
 10
473.2353388711109
 20
110.5242690282942
 30
0.0
 10
472.1583051823467
 20
110.5253824444255
 30
0.0
 10
471.4840435085215
 20
110.5248753144325
 30
0.0
 10
471.0944262557939
 20
110.5246327821028
 30
0.0
 10
470.8945334682483
 20
110.5246326291117
 30
0.0
 10
470.7779498101702
 20
110.5246325398826
 30
0.0
  0
LINE
  5
AE
330
1F
100
AcDbEntity
  8
0
  6
Continuous
 62
     7
370
    25
100
AcDbLine
 10
470.7779498102
 20
110.5246325399
 30
0.0
 11
470.7779498102
 21
486.5246325399
 31
0.0
  0
SPLINE
  5
AF
330
1F
100
AcDbEntity
  8
0
  6
Continuous
 62
     7
370
    25
100
AcDbSpline
210
0.0
220
0.0
230
1.0
 70
     8
 71
     3
 72
    52
 73
    48
 74
     0
 42
0.00000001
 43
0.00000001
 40
0.0
 40
0.0
 40
0.0
 40
0.0
 40
0.0186606717589441
 40
0.037321253750011
 40
0.0559817459731985
 40
0.0746421484285093
 40
0.0933024611159409
 40
0.1119626840354946
 40
0.1306228171871706
 40
0.1492828605709674
 40
0.1679428141868852
 40
0.1866026780349249
 40
0.2052624521150861
 40
0.2239221364273686
 40
0.242581730971772
 40
0.2612412357482963
 40
0.2799006507569413
 40
0.2985599759977079
 40
0.3172192114705952
 40
0.3358783571756028
 40
0.3545374131127311
 40
0.3731963792819802
 40
0.391855255683349
 40
0.4550136909216639
 40
0.5180058518161463
 40
0.5529791720739056
 40
0.5879525038194293
 40
0.6252965176988794
 40
0.636451892206474
 40
0.6626438872576613
 40
0.6638113908199069
 40
0.6673137123239998
 40
0.6731508399952773
 40
0.681322754209545
 40
0.6918294274931572
 40
0.7046708245230965
 40
0.7198469021270987
 40
0.7373576092837983
 40
0.7572028871228962
 40
0.7793826689253592
 40
0.8038968801236471
 40
0.8307454383019636
 40
0.8599282531965241
 40
0.8914452266958719
 40
0.9252962528412011
 40
0.9614812178267125
 40
1.0
 40
1.0
 40
1.0
 40
1.0
 10
482.7779498101702
 20
486.5246325398825
 30
0.0
 10
482.7769577660794
 20
486.5246325628394
 30
0.0
 10
482.7749736826701
 20
486.524632608753
 30
0.0
 10
482.7589299953646
 20
486.5246326690721
 30
0.0
 10
482.7333348275396
 20
486.5246327231308
 30
0.0
 10
482.6972719237721
 20
486.5246327703152
 30
0.0
 10
482.6510238486803
 20
486.5246328107899
 30
0.0
 10
482.5945631035147
 20
486.5246328445106
 30
0.0
 10
482.5279563855424
 20
486.5246328714894
 30
0.0
 10
482.4512562165162
 20
486.5246328917228
 30
0.0
 10
482.3645299196969
 20
486.5246329052119
 30
0.0
 10
482.2678517852374
 20
486.5246329119566
 30
0.0
 10
482.161305089837
 20
486.5246329119565
 30
0.0
 10
482.0449814663546
 20
486.5246329052124
 30
0.0
 10
481.918980975356
 20
486.5246328917215
 30
0.0
 10
481.7834119753076
 20
486.5246328714947
 30
0.0
 10
481.638391053014
 20
486.5246328444912
 30
0.0
 10
481.4840428716387
 20
486.524632810863
 30
0.0
 10
481.3205002458439
 20
486.5246327700429
 30
0.0
 10
481.1479033490805
 20
486.5246327241481
 30
0.0
 10
480.9664021239114
 20
486.5246326652764
 30
0.0
 10
480.7761467074831
 20
486.52463262292
 30
0.0
 10
480.4192636429011
 20
486.5246323789703
 30
0.0
 10
479.8568121558044
 20
486.5246338265952
 30
0.0
 10
479.1551503355894
 20
486.5246282606414
 30
0.0
 10
478.5323013966886
 20
486.5246408899678
 30
0.0
 10
478.0056780730647
 20
486.5257594987767
 30
0.0
 10
477.5779428408334
 20
486.5249197393832
 30
0.0
 10
477.1853788877837
 20
486.5245974468647
 30
0.0
 10
476.9790743592807
 20
486.524632965349
 30
0.0
 10
476.8116862976386
 20
486.524632498228
 30
0.0
 10
476.7545765104769
 20
486.5246325665124
 30
0.0
 10
476.6589919652992
 20
486.5246325275743
 30
0.0
 10
476.5243419031589
 20
486.524632544796
 30
0.0
 10
476.3498267678912
 20
486.5246325380793
 30
0.0
 10
476.1344654831981
 20
486.5246325405091
 30
0.0
 10
475.8771317797361
 20
486.5246325396731
 30
0.0
 10
475.5765992281857
 20
486.5246325399506
 30
0.0
 10
475.2315957326228
 20
486.5246325398609
 30
0.0
 10
474.8408677955402
 20
486.5246325398893
 30
0.0
 10
474.4032549650496
 20
486.5246325398804
 30
0.0
 10
473.9177747124902
 20
486.5246325398832
 30
0.0
 10
473.3837177830372
 20
486.5246325398823
 30
0.0
 10
472.8007539798879
 20
486.5246325398825
 30
0.0
 10
472.1690472431956
 20
486.5246325398825
 30
0.0
 10
471.4893816269311
 20
486.5246325398825
 30
0.0
 10
471.0199819158174
 20
486.5246325398825
 30
0.0
 10
470.7779498101701
 20
486.5246325398825
 30
0.0
  0
SPLINE
  5
B0
330
1F
100
AcDbEntity
  8
0
  6
Continuous
 62
     7
370
    25
100
AcDbSpline
210
0.0
220
0.0
230
1.0
 70
     8
 71
     3
 72
    64
 73
    60
 74
     0
 42
0.00000001
 43
0.00000001
 40
0.0
 40
0.0
 40
0.0
 40
0.0
 40
0.0186585016902269
 40
0.0373170033130389
 40
0.0559755048685151
 40
0.0746340063568651
 40
0.0932925077784949
 40
0.1119510091340687
 40
0.1306095104245696
 40
0.1492680116513575
 40
0.1679265128162233
 40
0.1865850139214386
 40
0.2052435149698043
 40
0.2239020159646899
 40
0.2425605169100717
 40
0.2612190178105627
 40
0.2798775186714392
 40
0.2985360194986589
 40
0.3171945202988747
 40
0.3358530210794401
 40
0.3545115218484095
 40
0.37317002261453
 40
0.3918285233872276
 40
0.4053802713010821
 40
0.4191754943647801
 40
0.4296384100950231
 40
0.4402260668852201
 40
0.4617970732126073
 40
0.4801723266125164
 40
0.4988853889091469
 40
0.5083994534595776
 40
0.518019019284897
 40
0.5374808475348376
 40
0.5473917075805347
 40
0.5573791709878751
 40
0.5776343912534021
 40
0.598296211004959
 40
0.6193657719449267
 40
0.640790723291575
 40
0.6516704259121945
 40
0.6626584756754795
 40
0.6848445550436383
 40
0.6961163941244716
 40
0.7074566098585554
 40
0.7247357829334707
 40
0.7420149539425172
 40
0.7595487024858251
 40
0.7773110028384663
 40
0.7952121863934287
 40
0.8132857206470012
 40
0.8498593623482409
 40
0.8683626978171165
 40
0.8776392831507216
 40
0.8869420569495393
 40
0.9244056309332894
 40
0.945920968828087
 40
0.9675281345123343
 40
0.9844598600184215
 40
1.0
 40
1.0
 40
1.0
 40
1.0
 10
470.7779498161417
 20
498.5246325339108
 30
0.0
 10
470.7779357602248
 20
498.523640584836
 30
0.0
 10
470.7779076483911
 20
498.5216566866899
 30
0.0
 10
470.7778660904305
 20
498.5056144385546
 30
0.0
 10
470.7778257503759
 20
498.4800213852659
 30
0.0
 10
470.7777872330005
 20
498.4439612006876
 30
0.0
 10
470.7777511380695
 20
498.3977162772169
 30
0.0
 10
470.7777180586815
 20
498.3412589685743
 30
0.0
 10
470.777688579641
 20
498.2746558188306
 30
0.0
 10
470.7776632757706
 20
498.1979591987717
 30
0.0
 10
470.7776427105172
 20
498.1112362815492
 30
0.0
 10
470.7776274335562
 20
498.0145612089291
 30
0.0
 10
470.7776179822284
 20
497.9080171111883
 30
0.0
 10
470.7776148687918
 20
497.7916954774493
 30
0.0
 10
470.7776186207378
 20
497.6656962265673
 30
0.0
 10
470.7776296232128
 20
497.530127581687
 30
0.0
 10
470.7776487001422
 20
497.3851059862953
 30
0.0
 10
470.777674938647
 20
497.2307560077882
 30
0.0
 10
470.777713801814
 20
497.0672102071303
 30
0.0
 10
470.7777468449967
 20
496.8946091147943
 30
0.0
 10
470.7778447298924
 20
496.713100774198
 30
0.0
 10
470.7777454442577
 20
496.5228418681737
 30
0.0
 10
470.7783660940605
 20
496.3421342795205
 30
0.0
 10
470.7768902983223
 20
496.1727381141051
 30
0.0
 10
470.7782043587785
 20
496.0294145948628
 30
0.0
 10
470.7774954214871
 20
495.8940291606493
 30
0.0
 10
470.7772572094797
 20
495.7249773127921
 30
0.0
 10
470.7773780862519
 20
495.5183501489575
 30
0.0
 10
470.7780851679419
 20
495.2698583658333
 30
0.0
 10
470.7771216380496
 20
495.0662201864723
 30
0.0
 10
470.7773703563669
 20
494.8971146238962
 30
0.0
 10
470.7784667425739
 20
494.7221226083253
 30
0.0
 10
470.7766659993507
 20
494.5414748759426
 30
0.0
 10
470.7779742429032
 20
494.3553462495787
 30
0.0
 10
470.7776978554647
 20
494.1628910603271
 30
0.0
 10
470.7774170023254
 20
493.9140280355232
 30
0.0
 10
470.7773109787104
 20
493.6032816991547
 30
0.0
 10
470.7781089720448
 20
493.2789975748422
 30
0.0
 10
470.7770955478091
 20
492.9986341246185
 30
0.0
 10
470.7773777699646
 20
492.7675482375545
 30
0.0
 10
470.7784504787285
 20
492.5299287029749
 30
0.0
 10
470.7767484426959
 20
492.2864935420995
 30
0.0
 10
470.7779587841629
 20
492.0376383397024
 30
0.0
 10
470.7778359121585
 20
491.813992913448
 30
0.0
 10
470.7770489442224
 20
491.5537867708745
 30
0.0
 10
470.778425115467
 20
491.2547484016607
 30
0.0
 10
470.7769415742812
 20
490.9493743279397
 30
0.0
 10
470.7781308768092
 20
490.636970764849
 30
0.0
 10
470.7774431502727
 20
490.3181517115436
 30
0.0
 10
470.7778024890173
 20
489.8836726378377
 30
0.0
 10
470.7771530904531
 20
489.4397733193785
 30
0.0
 10
470.7780997659895
 20
489.0452617281848
 30
0.0
 10
470.7777856948686
 20
488.8168852723302
 30
0.0
 10
470.7774650328149
 20
488.4707702392952
 30
0.0
 10
470.7780664726816
 20
488.0461575608884
 30
0.0
 10
470.7772226817659
 20
487.5423913453211
 30
0.0
 10
470.7776275593498
 20
487.1658668819768
 30
0.0
 10
470.7779003188065
 20
486.8262961869586
 30
0.0
 10
470.7779337912032
 20
486.6222726042184
 30
0.0
 10
470.77794981017
 20
486.5246325398823
 30
0.0
  0
SPLINE
  5
B1
330
1F
100
AcDbEntity
  8
0
  6
Continuous
 62
     7
370
    25
100
AcDbSpline
210
0.0
220
0.0
230
1.0
 70
     8
 71
     3
 72
     8
 73
     4
 74
     0
 42
0.00000001
 43
0.00000001
 40
0.0
 40
0.0
 40
0.0
 40
0.0
 40
1.0
 40
1.0
 40
1.0
 40
1.0
 10
82.8948760105687
 20
486.5246325391137
 30
0.0
 10
82.93430122281872
 20
486.5246340571102
 30
0.0
 10
82.98399547231733
 20
486.5246312193703
 30
0.0
 10
83.04479992211716
 20
486.5246325397356
 30
0.0
  0
SPLINE
  5
B2
330
1F
100
AcDbEntity
  8
0
  6
Continuous
 62
     7
370
    25
100
AcDbSpline
210
0.0
220
0.0
230
1.0
 70
     8
 71
     3
 72
     8
 73
     4
 74
     0
 42
0.00000001
 43
0.00000001
 40
0.0
 40
0.0
 40
0.0
 40
0.0
 40
1.0
 40
1.0
 40
1.0
 40
1.0
 10
83.04479992211716
 20
486.5246325397356
 30
0.0
 10
83.10559915019614
 20
486.5246338599248
 30
0.0
 10
83.17750472902772
 20
486.524631382868
 30
0.0
 10
83.26172635967869
 20
486.5246325402738
 30
0.0
  0
SPLINE
  5
B3
330
1F
100
AcDbEntity
  8
0
  6
Continuous
 62
     7
370
    25
100
AcDbSpline
210
0.0
220
0.0
230
1.0
 70
     8
 71
     3
 72
     8
 73
     4
 74
     0
 42
0.00000001
 43
0.00000001
 40
0.0
 40
0.0
 40
0.0
 40
0.0
 40
1.0
 40
1.0
 40
1.0
 40
1.0
 10
83.26172635967869
 20
486.5246325402738
 30
0.0
 10
83.30383775684075
 20
486.5246331190814
 30
0.0
 10
83.34903397545878
 20
486.5246321239487
 30
0.0
 10
83.39750282826516
 20
486.5246325406307
 30
0.0
  0
SPLINE
  5
B4
330
1F
100
AcDbEntity
  8
0
  6
Continuous
 62
     7
370
    25
100
AcDbSpline
210
0.0
220
0.0
230
1.0
 70
     8
 71
     3
 72
     8
 73
     4
 74
     0
 42
0.00000001
 43
0.00000001
 40
0.0
 40
0.0
 40
0.0
 40
0.0
 40
1.0
 40
1.0
 40
1.0
 40
1.0
 10
83.39750282826516
 20
486.5246325406307
 30
0.0
 10
83.445969375617
 20
486.5246329573774
 30
0.0
 10
83.49770795859199
 20
486.5246321895641
 30
0.0
 10
83.55293133964167
 20
486.5246325409609
 30
0.0
  0
SPLINE
  5
B5
330
1F
100
AcDbEntity
  8
0
  6
Continuous
 62
     7
370
    25
100
AcDbSpline
210
0.0
220
0.0
230
1.0
 70
     8
 71
     3
 72
     8
 73
     4
 74
     0
 42
0.00000001
 43
0.00000001
 40
0.0
 40
0.0
 40
0.0
 40
0.0
 40
1.0
 40
1.0
 40
1.0
 40
1.0
 10
83.55293133964167
 20
486.5246325409609
 30
0.0
 10
83.60815417806192
 20
486.5246328923297
 30
0.0
 10
83.66686148281616
 20
486.5246322472636
 30
0.0
 10
83.72929117741967
 20
486.5246325413285
 30
0.0
  0
SPLINE
  5
B6
330
1F
100
AcDbEntity
  8
0
  6
Continuous
 62
     7
370
    25
100
AcDbSpline
210
0.0
220
0.0
230
1.0
 70
     8
 71
     3
 72
     8
 73
     4
 74
     0
 42
0.00000001
 43
0.00000001
 40
0.0
 40
0.0
 40
0.0
 40
0.0
 40
1.0
 40
1.0
 40
1.0
 40
1.0
 10
83.72929117741967
 20
486.5246325413285
 30
0.0
 10
83.7917204579349
 20
486.5246328355271
 30
0.0
 10
83.8578718593146
 20
486.5246322992098
 30
0.0
 10
83.9280081573822
 20
486.5246325417419
 30
0.0
  0
SPLINE
  5
B7
330
1F
100
AcDbEntity
  8
0
  6
Continuous
 62
     7
370
    25
100
AcDbSpline
210
0.0
220
0.0
230
1.0
 70
     8
 71
     3
 72
     8
 73
     4
 74
     0
 42
0.00000001
 43
0.00000001
 40
0.0
 40
0.0
 40
0.0
 40
0.0
 40
1.0
 40
1.0
 40
1.0
 40
1.0
 10
83.9280081573822
 20
486.5246325417419
 30
0.0
 10
83.9981438924931
 20
486.5246327842258
 30
0.0
 10
84.07226429796444
 20
486.5246323298945
 30
0.0
 10
84.1506559718287
 20
486.5246325422054
 30
0.0
  0
SPLINE
  5
B8
330
1F
100
AcDbEntity
  8
0
  6
Continuous
 62
     7
370
    25
100
AcDbSpline
210
0.0
220
0.0
230
1.0
 70
     8
 71
     3
 72
     8
 73
     4
 74
     0
 42
0.00000001
 43
0.00000001
 40
0.0
 40
0.0
 40
0.0
 40
0.0
 40
1.0
 40
1.0
 40
1.0
 40
1.0
 10
84.1506559718287
 20
486.5246325422054
 30
0.0
 10
84.2290476417501
 20
486.5246327553144
 30
0.0
 10
84.31171048145197
 20
486.5246323710301
 30
0.0
 10
84.39895284675819
 20
486.5246325427295
 30
0.0
  0
SPLINE
  5
B9
330
1F
100
AcDbEntity
  8
0
  6
Continuous
 62
     7
370
    25
100
AcDbSpline
210
0.0
220
0.0
230
1.0
 70
     8
 71
     3
 72
     8
 73
     4
 74
     0
 42
0.00000001
 43
0.00000001
 40
0.0
 40
0.0
 40
0.0
 40
0.0
 40
1.0
 40
1.0
 40
1.0
 40
1.0
 10
84.39895284675819
 20
486.5246325427295
 30
0.0
 10
84.48619502103769
 20
486.5246327130836
 30
0.0
 10
84.57801671440309
 20
486.5246324100016
 30
0.0
 10
84.67474453769869
 20
486.5246325433172
 30
0.0
  0
SPLINE
  5
BA
330
1F
100
AcDbEntity
  8
0
  6
Continuous
 62
     7
370
    25
100
AcDbSpline
210
0.0
220
0.0
230
1.0
 70
     8
 71
     3
 72
     8
 73
     4
 74
     0
 42
0.00000001
 43
0.00000001
 40
0.0
 40
0.0
 40
0.0
 40
0.0
 40
1.0
 40
1.0
 40
1.0
 40
1.0
 10
84.67474453769869
 20
486.5246325433172
 30
0.0
 10
84.77147215032795
 20
486.5246326773008
 30
0.0
 10
84.87310612850956
 20
486.5246324462307
 30
0.0
 10
84.97998592529119
 20
486.5246325439741
 30
0.0
  0
SPLINE
  5
BB
330
1F
100
AcDbEntity
  8
0
  6
Continuous
 62
     7
370
    25
100
AcDbSpline
210
0.0
220
0.0
230
1.0
 70
     8
 71
     3
 72
     8
 73
     4
 74
     0
 42
0.00000001
 43
0.00000001
 40
0.0
 40
0.0
 40
0.0
 40
0.0
 40
1.0
 40
1.0
 40
1.0
 40
1.0
 10
84.97998592529119
 20
486.5246325439741
 30
0.0
 10
85.08686559788117
 20
486.5246326412354
 30
0.0
 10
85.19899150204674
 20
486.5246324812956
 30
0.0
 10
85.31670858936369
 20
486.5246325447055
 30
0.0
  0
SPLINE
  5
BC
330
1F
100
AcDbEntity
  8
0
  6
Continuous
 62
     7
370
    25
100
AcDbSpline
210
0.0
220
0.0
230
1.0
 70
     8
 71
     3
 72
     8
 73
     4
 74
     0
 42
0.00000001
 43
0.00000001
 40
0.0
 40
0.0
 40
0.0
 40
0.0
 40
1.0
 40
1.0
 40
1.0
 40
1.0
 10
85.31670858936369
 20
486.5246325447055
 30
0.0
 10
85.43442559292144
 20
486.5246326090358
 30
0.0
 10
85.55773647872364
 20
486.5246325452329
 30
0.0
 10
85.68697503062067
 20
486.524632545517
 30
0.0
  0
SPLINE
  5
BD
330
1F
100
AcDbEntity
  8
0
  6
Continuous
 62
     7
370
    25
100
AcDbSpline
210
0.0
220
0.0
230
1.0
 70
    24
 71
     3
 72
     8
 73
     4
 74
     0
 42
0.00000001
 43
0.00000001
 40
0.0
 40
0.0
 40
0.0
 40
0.0
 40
1.0
 40
1.0
 40
1.0
 40
1.0
 10
85.68697503062067
 20
486.524632545517
 30
0.0
 10
85.81621767285402
 20
486.5246325458016
 30
0.0
 10
85.95138914150965
 20
486.5246325461001
 30
0.0
 10
86.0928165641097
 20
486.524632546414
 30
0.0
  0
SPLINE
  5
BE
330
1F
100
AcDbEntity
  8
0
  6
Continuous
 62
     7
370
    25
100
AcDbSpline
210
0.0
220
0.0
230
1.0
 70
    24
 71
     3
 72
     8
 73
     4
 74
     0
 42
0.00000001
 43
0.00000001
 40
0.0
 40
0.0
 40
0.0
 40
0.0
 40
1.0
 40
1.0
 40
1.0
 40
1.0
 10
86.0928165641097
 20
486.524632546414
 30
0.0
 10
86.23424302596133
 20
486.5246325467278
 30
0.0
 10
86.38192554745333
 20
486.5246325470568
 30
0.0
 10
86.5361497446642
 20
486.5246325474018
 30
0.0
  0
SPLINE
  5
BF
330
1F
100
AcDbEntity
  8
0
  6
Continuous
 62
     7
370
    25
100
AcDbSpline
210
0.0
220
0.0
230
1.0
 70
    24
 71
     3
 72
     8
 73
     4
 74
     0
 42
0.00000001
 43
0.00000001
 40
0.0
 40
0.0
 40
0.0
 40
0.0
 40
1.0
 40
1.0
 40
1.0
 40
1.0
 10
86.5361497446642
 20
486.5246325474018
 30
0.0
 10
86.69037348898415
 20
486.5246325477468
 30
0.0
 10
86.85114079357884
 20
486.5246325481077
 30
0.0
 10
87.01868037615468
 20
486.5246325484853
 30
0.0
  0
SPLINE
  5
C0
330
1F
100
AcDbEntity
  8
0
  6
Continuous
 62
     7
370
    25
100
AcDbSpline
210
0.0
220
0.0
230
1.0
 70
    24
 71
     3
 72
     8
 73
     4
 74
     0
 42
0.00000001
 43
0.00000001
 40
0.0
 40
0.0
 40
0.0
 40
0.0
 40
1.0
 40
1.0
 40
1.0
 40
1.0
 10
87.01868037615468
 20
486.5246325484853
 30
0.0
 10
87.18622096683134
 20
486.5246325488628
 30
0.0
 10
87.36053553759184
 20
486.5246325492571
 30
0.0
 10
87.54177543560269
 20
486.5246325496684
 30
0.0
  0
SPLINE
  5
C1
330
1F
100
AcDbEntity
  8
0
  6
Continuous
 62
     7
370
    25
100
AcDbSpline
210
0.0
220
0.0
230
1.0
 70
    24
 71
     3
 72
     8
 73
     4
 74
     0
 42
0.00000001
 43
0.00000001
 40
0.0
 40
0.0
 40
0.0
 40
0.0
 40
1.0
 40
1.0
 40
1.0
 40
1.0
 10
87.54177543560269
 20
486.5246325496684
 30
0.0
 10
87.72301494953597
 20
486.5246325500796
 30
0.0
 10
87.91118158039168
 20
486.5246325505081
 30
0.0
 10
88.10631799562918
 20
486.5246325509538
 30
0.0
  0
SPLINE
  5
C2
330
1F
100
AcDbEntity
  8
0
  6
Continuous
 62
     7
370
    25
100
AcDbSpline
210
0.0
220
0.0
230
1.0
 70
    24
 71
     3
 72
     8
 73
     4
 74
     0
 42
0.00000001
 43
0.00000001
 40
0.0
 40
0.0
 40
0.0
 40
0.0
 40
1.0
 40
1.0
 40
1.0
 40
1.0
 10
88.10631799562918
 20
486.5246325509538
 30
0.0
 10
88.30145533451167
 20
486.5246325513996
 30
0.0
 10
88.50356081023733
 20
486.5246325518632
 30
0.0
 10
88.71256152272319
 20
486.5246325523423
 30
0.0
  0
SPLINE
  5
C3
330
1F
100
AcDbEntity
  8
0
  6
Continuous
 62
     7
370
    25
100
AcDbSpline
210
0.0
220
0.0
230
1.0
 70
     8
 71
     3
 72
     8
 73
     4
 74
     0
 42
0.00000001
 43
0.00000001
 40
0.0
 40
0.0
 40
0.0
 40
0.0
 40
1.0
 40
1.0
 40
1.0
 40
1.0
 10
88.71256152272319
 20
486.5246325523423
 30
0.0
 10
88.92154953494932
 20
486.524632552824
 30
0.0
 10
89.13743653335088
 20
486.5246327215814
 30
0.0
 10
89.3599519633537
 20
486.5246325538297
 30
0.0
  0
SPLINE
  5
C4
330
1F
100
AcDbEntity
  8
0
  6
Continuous
 62
     7
370
    25
100
AcDbSpline
210
0.0
220
0.0
230
1.0
 70
     8
 71
     3
 72
     8
 73
     4
 74
     0
 42
0.00000001
 43
0.00000001
 40
0.0
 40
0.0
 40
0.0
 40
0.0
 40
1.0
 40
1.0
 40
1.0
 40
1.0
 10
89.3599519633537
 20
486.5246325538297
 30
0.0
 10
89.5824688440679
 20
486.524632386891
 30
0.0
 10
89.81162336471569
 20
486.5246328496104
 30
0.0
 10
90.04698539776467
 20
486.5246325554089
 30
0.0
  0
SPLINE
  5
C5
330
1F
100
AcDbEntity
  8
0
  6
Continuous
 62
     7
370
    25
100
AcDbSpline
210
0.0
220
0.0
230
1.0
 70
     8
 71
     3
 72
     8
 73
     4
 74
     0
 42
0.00000001
 43
0.00000001
 40
0.0
 40
0.0
 40
0.0
 40
0.0
 40
1.0
 40
1.0
 40
1.0
 40
1.0
 10
90.04698539776467
 20
486.5246325554089
 30
0.0
 10
90.28235041046287
 20
486.5246322607841
 30
0.0
 10
90.52392515644233
 20
486.5246330161963
 30
0.0
 10
90.7710851412587
 20
486.5246325570628
 30
0.0
  0
SPLINE
  5
C6
330
1F
100
AcDbEntity
  8
0
  6
Continuous
 62
     7
370
    25
100
AcDbSpline
210
0.0
220
0.0
230
1.0
 70
     8
 71
     3
 72
     8
 73
     4
 74
     0
 42
0.00000001
 43
0.00000001
 40
0.0
 40
0.0
 40
0.0
 40
0.0
 40
1.0
 40
1.0
 40
1.0
 40
1.0
 10
90.7710851412587
 20
486.5246325570628
 30
0.0
 10
91.01825200802483
 20
486.5246320977461
 30
0.0
 10
91.27100662047785
 20
486.5246332479016
 30
0.0
 10
91.52852791030966
 20
486.524632558747
 30
0.0
  0
SPLINE
  5
C7
330
1F
100
AcDbEntity
  8
0
  6
Continuous
 62
     7
370
    25
100
AcDbSpline
210
0.0
220
0.0
230
1.0
 70
     8
 71
     3
 72
     8
 73
     4
 74
     0
 42
0.00000001
 43
0.00000001
 40
0.0
 40
0.0
 40
0.0
 40
0.0
 40
1.0
 40
1.0
 40
1.0
 40
1.0
 10
91.52852791030966
 20
486.524632558747
 30
0.0
 10
91.78606603374142
 20
486.5246318694277
 30
0.0
 10
92.04837408305622
 20
486.5246335831349
 30
0.0
 10
92.31444606083267
 20
486.524632560333
 30
0.0
  0
SPLINE
  5
C8
330
1F
100
AcDbEntity
  8
0
  6
Continuous
 62
     7
370
    25
100
AcDbSpline
210
0.0
220
0.0
230
1.0
 70
     8
 71
     3
 72
     8
 73
     4
 74
     0
 42
0.00000001
 43
0.00000001
 40
0.0
 40
0.0
 40
0.0
 40
0.0
 40
1.0
 40
1.0
 40
1.0
 40
1.0
 10
92.31444606083267
 20
486.524632560333
 30
0.0
 10
92.58059464273762
 20
486.5246315371685
 30
0.0
 10
92.85051328834915
 20
486.5246343471904
 30
0.0
 10
93.1230362250812
 20
486.5246325608273
 30
0.0
  0
SPLINE
  5
C9
330
1F
100
AcDbEntity
  8
0
  6
Continuous
 62
     7
370
    25
100
AcDbSpline
210
0.0
220
0.0
230
1.0
 70
     8
 71
     3
 72
    13
 73
     9
 74
     0
 42
0.00000001
 43
0.00000001
 40
0.0
 40
0.0
 40
0.0
 40
0.0
 40
0.1661716871540897
 40
0.332343361628003
 40
0.4985150487065993
 40
0.7491670261990502
 40
0.8263297537690768
 40
0.9999999999999999
 40
0.9999999999999999
 40
0.9999999999999999
 40
0.9999999999999999
 10
93.1230362250815
 20
486.5246325608273
 30
0.0
 10
93.21420079215324
 20
486.5246184194615
 30
0.0
 10
93.39652991934014
 20
486.5245901367308
 30
0.0
 10
93.6709890870382
 20
486.5244683285193
 30
0.0
 10
93.99256481112661
 20
486.5239413254812
 30
0.0
 10
94.26563103842587
 20
486.5244248121262
 30
0.0
 10
94.5430275877877
 20
486.5246543766455
 30
0.0
 10
94.68183982023126
 20
486.5246414736097
 30
0.0
 10
94.77794981017007
 20
486.5246325398825
 30
0.0
  0
LINE
  5
CA
330
1F
100
AcDbEntity
  8
0
  6
Continuous
 62
     7
370
    25
100
AcDbLine
 10
94.7779498102
 20
486.5246325399
 30
0.0
 11
94.7779498102
 21
110.5246325399
 31
0.0
  0
SPLINE
  5
CB
330
1F
100
AcDbEntity
  8
0
  6
Continuous
 62
     7
370
    25
100
AcDbSpline
210
0.0
220
0.0
230
1.0
 70
     8
 71
     3
 72
    52
 73
    48
 74
     0
 42
0.00000001
 43
0.00000001
 40
0.0
 40
0.0
 40
0.0
 40
0.0
 40
0.0186562688996758
 40
0.0373128883185245
 40
0.0559698582565441
 40
0.0746271787137333
 40
0.0932848496900907
 40
0.111942871185615
 40
0.1306012432003051
 40
0.149259965734159
 40
0.1679190387871755
 40
0.1865784623593534
 40
0.2052382364506913
 40
0.2238983610611874
 40
0.2425588361908405
 40
0.2612196618396495
 40
0.279880838007612
 40
0.2985423646947278
 40
0.3172042419009951
 40
0.3358664696264125
 40
0.3545290478709782
 40
0.3731919766346914
 40
0.3918552559175497
 40
0.4547754994136944
 40
0.5180058514554831
 40
0.5529791717348634
 40
0.5879525035020908
 40
0.6252965174034454
 40
0.6364518891368368
 40
0.6626438869839235
 40
0.6638114428548223
 40
0.6673138101302856
 40
0.6731509770355615
 40
0.6813229239464362
 40
0.6918296233893049
 40
0.7046710400412619
 40
0.7198471307302186
 40
0.7373578444350503
 40
0.7572031222857661
 40
0.7793828975637072
 40
0.8038970957017736
 40
0.8307456342846712
 40
0.8599284230491908
 40
0.8914453638845122
 40
0.9252963508325297
 40
0.9614812700882172
 40
1.0
 40
1.0
 40
1.0
 40
1.0
 10
82.77794981017014
 20
110.5246325398819
 30
0.0
 10
82.77894138792341
 20
110.5246325170551
 30
0.0
 10
82.78092456206002
 20
110.524632471401
 30
0.0
 10
82.7969611858867
 20
110.5246324114243
 30
0.0
 10
82.82254597543576
 20
110.5246323576721
 30
0.0
 10
82.85859553313895
 20
110.5246323107555
 30
0.0
 10
82.90482813960287
 20
110.5246322705103
 30
0.0
 10
82.96127201763304
 20
110.524632236981
 30
0.0
 10
83.02786122184122
 20
110.5246322101551
 30
0.0
 10
83.10454397143057
 20
110.5246321900366
 30
0.0
 10
83.19125367988397
 20
110.524632176624
 30
0.0
 10
83.28791678543091
 20
110.5246321699178
 30
0.0
 10
83.39445072982949
 20
110.524632169918
 30
0.0
 10
83.51076458661183
 20
110.5246321766238
 30
0.0
 10
83.63675898757315
 20
110.5246321900383
 30
0.0
 10
83.77232625055665
 20
110.5246322101507
 30
0.0
 10
83.91735044724591
 20
110.524632237001
 30
0.0
 10
84.07170755261618
 20
110.524632270438
 30
0.0
 10
84.23526537027226
 20
110.5246323110292
 30
0.0
 10
84.40788431462417
 20
110.5246323566547
 30
0.0
 10
84.58941503124271
 20
110.5246324152266
 30
0.0
 10
84.77970784888659
 20
110.5246324572159
 30
0.0
 10
85.13577313397913
 20
110.5246327000221
 30
0.0
 10
85.69809735683943
 20
110.5246312549394
 30
0.0
 10
86.39963380224869
 20
110.5246368364332
 30
0.0
 10
87.0235981242444
 20
110.5246241929721
 30
0.0
 10
87.55022157691955
 20
110.5235055800517
 30
0.0
 10
87.9779567632375
 20
110.5243453403906
 30
0.0
 10
88.37052071853951
 20
110.5246676329159
 30
0.0
 10
88.57682552616875
 20
110.5246321143947
 30
0.0
 10
88.74421413885756
 20
110.5246325815388
 30
0.0
 10
88.80132467626417
 20
110.5246325132512
 30
0.0
 10
88.89690987394033
 20
110.5246325521909
 30
0.0
 10
89.0315604928276
 20
110.5246325349685
 30
0.0
 10
89.20607608945167
 20
110.5246325416856
 30
0.0
 10
89.4214377388797
 20
110.5246325392557
 30
0.0
 10
89.67877170773097
 20
110.5246325400918
 30
0.0
 10
89.97930442127777
 20
110.5246325398142
 30
0.0
 10
90.32430797031229
 20
110.524632539904
 30
0.0
 10
90.71503584644428
 20
110.5246325398757
 30
0.0
 10
91.15264849529578
 20
110.5246325398845
 30
0.0
 10
91.63812843937785
 20
110.5246325398819
 30
0.0
 10
92.17218492805337
 20
110.5246325398827
 30
0.0
 10
92.75514815401468
 20
110.5246325398825
 30
0.0
 10
93.38685417509524
 20
110.5246325398826
 30
0.0
 10
94.06651893824794
 20
110.5246325398824
 30
0.0
 10
94.53591803315467
 20
110.5246325398825
 30
0.0
 10
94.77794981017021
 20
110.5246325398825
 30
0.0
  0
LINE
  5
CC
330
1F
100
AcDbEntity
  8
0
  6
Continuous
 62
     7
370
    25
100
AcDbLine
 10
94.7779498102
 20
98.5246325399
 30
0.0
 11
94.7779498102
 21
110.5246325399
 31
0.0
  0
LINE
  5
CD
330
1F
100
AcDbEntity
  8
0
  6
Continuous
 62
     7
370
    25
100
AcDbLine
 10
93.1230362251
 20
486.5246325687
 30
0.0
 11
92.3144460608
 21
486.5246325687
 31
0.0
  0
LINE
  5
CE
330
1F
100
AcDbEntity
  8
0
  6
Continuous
 62
     7
370
    25
100
AcDbLine
 10
92.3144460608
 20
486.5246325603
 30
0.0
 11
91.5285279103
 21
486.5246325587
 31
0.0
  0
LINE
  5
CF
330
1F
100
AcDbEntity
  8
0
  6
Continuous
 62
     7
370
    25
100
AcDbLine
 10
91.5285279103
 20
486.5246325587
 30
0.0
 11
90.7710851413
 21
486.5246325571
 31
0.0
  0
LINE
  5
D0
330
1F
100
AcDbEntity
  8
0
  6
Continuous
 62
     7
370
    25
100
AcDbLine
 10
90.7710851413
 20
486.5246325571
 30
0.0
 11
90.0469853978
 21
486.5246325554
 31
0.0
  0
LINE
  5
D1
330
1F
100
AcDbEntity
  8
0
  6
Continuous
 62
     7
370
    25
100
AcDbLine
 10
90.0469853978
 20
486.5246325554
 30
0.0
 11
89.3599519634
 21
486.5246325538
 31
0.0
  0
LINE
  5
D2
330
1F
100
AcDbEntity
  8
0
  6
Continuous
 62
     7
370
    25
100
AcDbLine
 10
89.3599519634
 20
486.5246325538
 30
0.0
 11
88.7125615227
 21
486.5246325523
 31
0.0
  0
LINE
  5
D3
330
1F
100
AcDbEntity
  8
0
  6
Continuous
 62
     7
370
    25
100
AcDbLine
 10
88.7125615227
 20
486.5246325523
 30
0.0
 11
88.1063179956
 21
486.524632551
 31
0.0
  0
LINE
  5
D4
330
1F
100
AcDbEntity
  8
0
  6
Continuous
 62
     7
370
    25
100
AcDbLine
 10
88.1063179956
 20
486.524632551
 30
0.0
 11
87.5417754356
 21
486.5246325497
 31
0.0
  0
LINE
  5
D5
330
1F
100
AcDbEntity
  8
0
  6
Continuous
 62
     7
370
    25
100
AcDbLine
 10
87.5417754356
 20
486.5246325497
 30
0.0
 11
87.0186803762
 21
486.5246325485
 31
0.0
  0
LINE
  5
D6
330
1F
100
AcDbEntity
  8
0
  6
Continuous
 62
     7
370
    25
100
AcDbLine
 10
87.0186803762
 20
486.5246325485
 30
0.0
 11
86.5361497447
 21
486.5246325474
 31
0.0
  0
LINE
  5
D7
330
1F
100
AcDbEntity
  8
0
  6
Continuous
 62
     7
370
    25
100
AcDbLine
 10
86.5361497447
 20
486.5246325474
 30
0.0
 11
86.0928165641
 21
486.5246325464
 31
0.0
  0
LINE
  5
D8
330
1F
100
AcDbEntity
  8
0
  6
Continuous
 62
     7
370
    25
100
AcDbLine
 10
86.0928165641
 20
486.5246325464
 30
0.0
 11
85.6869750306
 21
486.5246325455
 31
0.0
  0
LINE
  5
D9
330
1F
100
AcDbEntity
  8
0
  6
Continuous
 62
     7
370
    25
100
AcDbLine
 10
85.6869750306
 20
486.5246325455
 30
0.0
 11
85.3167085894
 21
486.5246325447
 31
0.0
  0
LINE
  5
DA
330
1F
100
AcDbEntity
  8
0
  6
Continuous
 62
     7
370
    25
100
AcDbLine
 10
85.3167085894
 20
486.5246325447
 30
0.0
 11
84.9799859253
 21
486.524632544
 31
0.0
  0
LINE
  5
DB
330
1F
100
AcDbEntity
  8
0
  6
Continuous
 62
     7
370
    25
100
AcDbLine
 10
84.9799859253
 20
486.524632544
 30
0.0
 11
84.6747445377
 21
486.5246325433
 31
0.0
  0
LINE
  5
DC
330
1F
100
AcDbEntity
  8
0
  6
Continuous
 62
     7
370
    25
100
AcDbLine
 10
84.6747445377
 20
486.5246325433
 30
0.0
 11
84.3989528468
 21
486.5246325427
 31
0.0
  0
LINE
  5
DD
330
1F
100
AcDbEntity
  8
0
  6
Continuous
 62
     7
370
    25
100
AcDbLine
 10
84.3989528468
 20
486.5246325427
 30
0.0
 11
84.1506559718
 21
486.5246325422
 31
0.0
  0
LINE
  5
DE
330
1F
100
AcDbEntity
  8
0
  6
Continuous
 62
     7
370
    25
100
AcDbLine
 10
84.1506559718
 20
486.5246325422
 30
0.0
 11
83.9280081574
 21
486.5246325417
 31
0.0
  0
LINE
  5
DF
330
1F
100
AcDbEntity
  8
0
  6
Continuous
 62
     7
370
    25
100
AcDbLine
 10
83.9280081574
 20
486.5246325417
 30
0.0
 11
83.7292911774
 21
486.5246325413
 31
0.0
  0
LINE
  5
E0
330
1F
100
AcDbEntity
  8
0
  6
Continuous
 62
     7
370
    25
100
AcDbLine
 10
83.7292911774
 20
486.5246325413
 30
0.0
 11
83.5529313396
 21
486.524632541
 31
0.0
  0
LINE
  5
E1
330
1F
100
AcDbEntity
  8
0
  6
Continuous
 62
     7
370
    25
100
AcDbLine
 10
83.5529313396
 20
486.524632541
 30
0.0
 11
83.3975028283
 21
486.5246325406
 31
0.0
  0
LINE
  5
E2
330
1F
100
AcDbEntity
  8
0
  6
Continuous
 62
     7
370
    25
100
AcDbLine
 10
83.3975028283
 20
486.5246325406
 30
0.0
 11
83.2617263597
 21
486.5246325403
 31
0.0
  0
LINE
  5
E3
330
1F
100
AcDbEntity
  8
0
  6
Continuous
 62
     7
370
    25
100
AcDbLine
 10
83.2617263597
 20
486.5246325403
 30
0.0
 11
83.0447999221
 21
486.5246325397
 31
0.0
  0
LINE
  5
E4
330
1F
100
AcDbEntity
  8
0
  6
Continuous
 62
     7
370
    25
100
AcDbLine
 10
83.0447999221
 20
486.5246325397
 30
0.0
 11
82.8948760106
 21
486.5246325391
 31
0.0
  0
LINE
  5
E5
330
1F
100
AcDbEntity
  8
0
  6
Continuous
 62
     7
370
    25
100
AcDbLine
 10
82.8948760106
 20
486.5246325687
 30
0.0
 11
82.777949839
 21
486.5246325687
 31
0.0
  0
LINE
  5
E6
330
1F
100
AcDbEntity
  8
0
  6
Continuous
 62
     7
370
    25
100
AcDbLine
 10
94.7779498102
 20
498.5246325399
 30
0.0
 11
94.7779498102
 21
486.5246325399
 31
0.0
  0
LINE
  5
E7
330
1F
100
AcDbEntity
  8
0
  6
Continuous
 62
     7
370
    25
100
AcDbLine
 10
94.7779498102
 20
486.5246325687
 30
0.0
 11
93.1230362251
 21
486.5246325687
 31
0.0
  0
LINE
  5
E8
330
1F
100
AcDbEntity
  8
0
  6
Continuous
 62
     7
370
    25
100
AcDbLine
 10
470.7779498102
 20
98.5246325399
 30
0.0
 11
470.7779498102
 21
110.5246325399
 31
0.0
  0
LINE
  5
E9
330
1F
100
AcDbEntity
  8
0
  6
Continuous
 62
     7
370
    25
100
AcDbLine
 10
94.7779498102
 20
110.5246325399
 30
0.0
 11
470.7779498102
 21
110.5246325399
 31
0.0
  0
LINE
  5
EA
330
1F
100
AcDbEntity
  8
0
  6
Continuous
 62
     7
370
    25
100
AcDbLine
 10
470.7779498102
 20
486.5246325399
 30
0.0
 11
94.7779498102
 21
486.5246325399
 31
0.0
  0
ARC
  5
EB
330
1F
100
AcDbEntity
  8
0
  6
Continuous
 62
     7
370
    25
100
AcDbCircle
 10
282.7779498102
 20
378.5246325399
 30
0.0
 40
55.32499999999997
100
AcDbArc
 50
268.0418745297
 51
88.0418745297
  0
ARC
  5
EC
330
1F
100
AcDbEntity
  8
0
  6
Continuous
 62
     7
370
    25
100
AcDbCircle
 10
282.7779498102
 20
378.5246325399
 30
0.0
 40
55.32499999999997
100
AcDbArc
 50
88.0418745297
 51
268.0418745297
  0
ARC
  5
ED
330
1F
100
AcDbEntity
  8
0
  6
Continuous
 62
     7
370
    25
100
AcDbCircle
 10
282.7779498102
 20
378.5246325399
 30
0.0
 40
43.23139268164122
100
AcDbArc
 50
88.0418745297
 51
210.0
  0
ARC
  5
EE
330
1F
100
AcDbEntity
  8
0
  6
Continuous
 62
     7
370
    25
100
AcDbCircle
 10
282.7779498102
 20
378.5246325399
 30
0.0
 40
43.2313926816411
100
AcDbArc
 50
210.0
 51
268.0418745297
  0
ARC
  5
EF
330
1F
100
AcDbEntity
  8
0
  6
Continuous
 62
     7
370
    25
100
AcDbCircle
 10
282.7779498102
 20
378.5246325399
 30
0.0
 40
43.23139268164122
100
AcDbArc
 50
30.0
 51
88.0418745297
  0
ARC
  5
F0
330
1F
100
AcDbEntity
  8
0
  6
Continuous
 62
     7
370
    25
100
AcDbCircle
 10
282.7779498102
 20
378.5246325399
 30
0.0
 40
43.23139268164118
100
AcDbArc
 50
268.0418745297
 51
30.0
  0
ARC
  5
F1
330
1F
100
AcDbEntity
  8
0
  6
Continuous
 62
     7
370
    25
100
AcDbCircle
 10
282.7779498102
 20
378.5246325399
 30
0.0
 40
41.97500000000002
100
AcDbArc
 50
30.0
 51
88.0418745297
  0
ARC
  5
F2
330
1F
100
AcDbEntity
  8
0
  6
Continuous
 62
     7
370
    25
100
AcDbCircle
 10
282.7779498102
 20
378.5246325399
 30
0.0
 40
41.97500000000002
100
AcDbArc
 50
88.0418745297
 51
210.0
  0
ARC
  5
F3
330
1F
100
AcDbEntity
  8
0
  6
Continuous
 62
     7
370
    25
100
AcDbCircle
 10
282.7779498102
 20
378.5246325399
 30
0.0
 40
41.97500000000014
100
AcDbArc
 50
210.0
 51
268.0418745297
  0
ARC
  5
F4
330
1F
100
AcDbEntity
  8
0
  6
Continuous
 62
     7
370
    25
100
AcDbCircle
 10
282.7779498102
 20
378.5246325399
 30
0.0
 40
41.97500000000014
100
AcDbArc
 50
268.0418745297
 51
30.0
  0
ARC
  5
F5
330
1F
100
AcDbEntity
  8
0
  6
Continuous
 62
     7
370
    25
100
AcDbCircle
 10
282.7779498102
 20
378.5246325399
 30
0.0
 40
41.84698085272063
100
AcDbArc
 50
210.0
 51
30.0
  0
ARC
  5
F6
330
1F
100
AcDbEntity
  8
0
  6
Continuous
 62
     7
370
    25
100
AcDbCircle
 10
282.7779498102
 20
378.5246325399
 30
0.0
 40
41.84698085272063
100
AcDbArc
 50
30.0
 51
210.0
  0
ARC
  5
F7
330
1F
100
AcDbEntity
  8
0
  6
Continuous
 62
     8
370
    25
100
AcDbCircle
 10
282.7779498102
 20
378.5246325399
 30
0.0
 40
37.14879404600002
100
AcDbArc
 50
168.6071506739
 51
190.2178685293
  0
ARC
  5
F8
330
1F
100
AcDbEntity
  8
0
  6
Continuous
 62
     8
370
    25
100
AcDbCircle
 10
282.7779498102
 20
378.5246325399
 30
0.0
 40
37.14879404600002
100
AcDbArc
 50
348.6071506504
 51
10.2178684966
  0
LINE
  5
F9
330
1F
100
AcDbEntity
  8
0
  6
Continuous
 62
     8
370
    25
100
AcDbLine
 10
319.0184983003
 20
399.4481229662
 30
0.0
 11
319.129366134
 21
399.5121325399
 31
0.0
  0
LINE
  5
FA
330
1F
100
AcDbEntity
  8
0
  6
Continuous
 62
     8
370
    25
100
AcDbLine
 10
246.53740132
 20
357.6011421135
 30
0.0
 11
246.4265334863
 21
357.5371325399
 31
0.0
  0
ENDSEC
  0
SECTION
  2
OBJECTS
  0
DICTIONARY
  5
C
330
0
100
AcDbDictionary
281
     1
  3
ACAD_GROUP
350
D
  3
ACAD_LAYOUT
350
1A
  3
ACAD_MLINESTYLE
350
17
  3
ACAD_PLOTSETTINGS
350
19
  3
ACAD_PLOTSTYLENAME
350
E
  3
ACAD_SCALELIST
350
47
  3
DWGPROPS
350
FB
  0
DICTIONARY
  5
D
102
{ACAD_REACTORS
330
C
102
}
330
C
100
AcDbDictionary
281
     1
  0
DICTIONARY
  5
1A
102
{ACAD_REACTORS
330
C
102
}
330
C
100
AcDbDictionary
281
     1
  3
Layout1
350
1E
  3
Layout2
350
26
  3
Model
350
22
  0
DICTIONARY
  5
17
102
{ACAD_REACTORS
330
C
102
}
330
C
100
AcDbDictionary
281
     1
  3
Standard
350
18
  0
DICTIONARY
  5
19
102
{ACAD_REACTORS
330
C
102
}
330
C
100
AcDbDictionary
281
     1
  0
ACDBDICTIONARYWDFLT
  5
E
102
{ACAD_REACTORS
330
C
102
}
330
C
100
AcDbDictionary
281
     1
  3
Normal
350
F
100
AcDbDictionaryWithDefault
340
F
  0
DICTIONARY
  5
47
102
{ACAD_REACTORS
330
C
102
}
330
C
100
AcDbDictionary
281
     1
  3
A0
350
48
  3
A1
350
49
  3
A2
350
4A
  3
A3
350
4B
  3
A4
350
4C
  3
A5
350
4D
  3
A6
350
4E
  3
A7
350
4F
  3
A8
350
50
  3
A9
350
51
  3
B0
350
52
  3
B1
350
53
  3
B2
350
54
  3
B3
350
55
  3
B4
350
56
  3
B5
350
57
  3
B6
350
58
  3
B7
350
59
  3
B8
350
5A
  3
B9
350
5B
  3
C0
350
5C
  3
C1
350
5D
  3
C2
350
5E
  3
C3
350
5F
  3
C4
350
60
  3
C5
350
61
  3
C6
350
62
  3
C7
350
63
  3
C8
350
64
  3
C9
350
65
  3
D0
350
66
  3
D1
350
67
  3
D2
350
68
  0
XRECORD
  5
FB
102
{ACAD_REACTORS
330
C
102
}
330
C
100
AcDbXrecord
280
     1
  1
DWGPROPS COOKIE
  2

  3

  4

  6

  7

  8
villesi
  9

300
=
301
=
302
=
303
=
304
=
305
=
306
=
307
=
308
=
309
=
 40
0.0
 41
2459704.467909514
 42
2459704.467909699
  1

 90
        0
  0
LAYOUT
  5
1E
102
{ACAD_REACTORS
330
1A
102
}
330
1A
100
AcDbPlotSettings
  1

  2
none_device
  4

  6

 40
0.0
 41
0.0
 42
0.0
 43
0.0
 44
0.0
 45
0.0
 46
0.0
 47
0.0
 48
0.0
 49
0.0
140
0.0
141
0.0
142
1.0
143
1.0
 70
   688
 72
     1
 73
     0
 74
     5
  7

 75
    16
147
1.0
148
0.0
149
0.0
100
AcDbLayout
  1
Layout1
 70
     1
 71
     1
 10
0.0
 20
0.0
 11
420.0
 21
297.0
 12
0.0
 22
0.0
 32
0.0
 14
1.0000000000E+20
 24
1.0000000000E+20
 34
1.0000000000E+20
 15
-1.0000000000E+20
 25
-1.0000000000E+20
 35
-1.0000000000E+20
146
0.0
 13
0.0
 23
0.0
 33
0.0
 16
1.0
 26
0.0
 36
0.0
 17
0.0
 27
1.0
 37
0.0
 76
     0
330
1B
  0
LAYOUT
  5
26
102
{ACAD_REACTORS
330
1A
102
}
330
1A
100
AcDbPlotSettings
  1

  2
none_device
  4

  6

 40
0.0
 41
0.0
 42
0.0
 43
0.0
 44
0.0
 45
0.0
 46
0.0
 47
0.0
 48
0.0
 49
0.0
140
0.0
141
0.0
142
1.0
143
1.0
 70
   688
 72
     1
 73
     0
 74
     5
  7

 75
    16
147
1.0
148
0.0
149
0.0
100
AcDbLayout
  1
Layout2
 70
     1
 71
     2
 10
0.0
 20
0.0
 11
0.0
 21
0.0
 12
0.0
 22
0.0
 32
0.0
 14
0.0
 24
0.0
 34
0.0
 15
0.0
 25
0.0
 35
0.0
146
0.0
 13
0.0
 23
0.0
 33
0.0
 16
1.0
 26
0.0
 36
0.0
 17
0.0
 27
1.0
 37
0.0
 76
     0
330
23
  0
LAYOUT
  5
22
102
{ACAD_REACTORS
330
1A
102
}
330
1A
100
AcDbPlotSettings
  1

  2
none_device
  4
Letter_(8.50_x_11.00_Inches)
  6

 40
6.35
 41
6.35
 42
6.35000508
 43
6.35000508
 44
215.9
 45
279.4
 46
0.0
 47
0.0
 48
0.0
 49
0.0
140
0.0
141
0.0
142
1.0
143
1.0
 70
  1712
 72
     1
 73
     0
 74
     0
  7

 75
     0
147
1.0
148
0.0
149
0.0
100
AcDbLayout
  1
Model
 70
     1
 71
     0
 10
0.0
 20
0.0
 11
600.0
 21
600.0
 12
0.0
 22
0.0
 32
0.0
 14
0.0
 24
0.0
 34
0.0
 15
600.0
 25
600.0
 35
0.0
146
0.0
 13
0.0
 23
0.0
 33
0.0
 16
1.0
 26
0.0
 36
0.0
 17
0.0
 27
1.0
 37
0.0
 76
     0
330
1F
331
29
  0
MLINESTYLE
  5
18
102
{ACAD_REACTORS
330
17
102
}
330
17
100
AcDbMlineStyle
  2
Standard
 70
     0
  3

 62
   256
 51
90.0
 52
90.0
 71
     2
 49
0.5
 62
   256
  6
BYLAYER
 49
-0.5
 62
   256
  6
BYLAYER
  0
ACDBPLACEHOLDER
  5
F
102
{ACAD_REACTORS
330
E
102
}
330
E
  0
SCALE
  5
48
102
{ACAD_REACTORS
330
47
102
}
330
47
100
AcDbScale
 70
     0
300
1:1
140
1.0
141
1.0
290
     1
  0
SCALE
  5
49
102
{ACAD_REACTORS
330
47
102
}
330
47
100
AcDbScale
 70
     0
300
1:2
140
1.0
141
2.0
290
     0
  0
SCALE
  5
4A
102
{ACAD_REACTORS
330
47
102
}
330
47
100
AcDbScale
 70
     0
300
1:4
140
1.0
141
4.0
290
     0
  0
SCALE
  5
4B
102
{ACAD_REACTORS
330
47
102
}
330
47
100
AcDbScale
 70
     0
300
1:5
140
1.0
141
5.0
290
     0
  0
SCALE
  5
4C
102
{ACAD_REACTORS
330
47
102
}
330
47
100
AcDbScale
 70
     0
300
1:8
140
1.0
141
8.0
290
     0
  0
SCALE
  5
4D
102
{ACAD_REACTORS
330
47
102
}
330
47
100
AcDbScale
 70
     0
300
1:10
140
1.0
141
10.0
290
     0
  0
SCALE
  5
4E
102
{ACAD_REACTORS
330
47
102
}
330
47
100
AcDbScale
 70
     0
300
1:16
140
1.0
141
16.0
290
     0
  0
SCALE
  5
4F
102
{ACAD_REACTORS
330
47
102
}
330
47
100
AcDbScale
 70
     0
300
1:20
140
1.0
141
20.0
290
     0
  0
SCALE
  5
50
102
{ACAD_REACTORS
330
47
102
}
330
47
100
AcDbScale
 70
     0
300
1:30
140
1.0
141
30.0
290
     0
  0
SCALE
  5
51
102
{ACAD_REACTORS
330
47
102
}
330
47
100
AcDbScale
 70
     0
300
1:40
140
1.0
141
40.0
290
     0
  0
SCALE
  5
52
102
{ACAD_REACTORS
330
47
102
}
330
47
100
AcDbScale
 70
     0
300
1:50
140
1.0
141
50.0
290
     0
  0
SCALE
  5
53
102
{ACAD_REACTORS
330
47
102
}
330
47
100
AcDbScale
 70
     0
300
1:100
140
1.0
141
100.0
290
     0
  0
SCALE
  5
54
102
{ACAD_REACTORS
330
47
102
}
330
47
100
AcDbScale
 70
     0
300
2:1
140
2.0
141
1.0
290
     0
  0
SCALE
  5
55
102
{ACAD_REACTORS
330
47
102
}
330
47
100
AcDbScale
 70
     0
300
4:1
140
4.0
141
1.0
290
     0
  0
SCALE
  5
56
102
{ACAD_REACTORS
330
47
102
}
330
47
100
AcDbScale
 70
     0
300
8:1
140
8.0
141
1.0
290
     0
  0
SCALE
  5
57
102
{ACAD_REACTORS
330
47
102
}
330
47
100
AcDbScale
 70
     0
300
10:1
140
10.0
141
1.0
290
     0
  0
SCALE
  5
58
102
{ACAD_REACTORS
330
47
102
}
330
47
100
AcDbScale
 70
     0
300
100:1
140
100.0
141
1.0
290
     0
  0
SCALE
  5
59
102
{ACAD_REACTORS
330
47
102
}
330
47
100
AcDbScale
 70
     0
300
1/128" = 1'-0"
140
0.0078125
141
12.0
290
     0
  0
SCALE
  5
5A
102
{ACAD_REACTORS
330
47
102
}
330
47
100
AcDbScale
 70
     0
300
1/64" = 1'-0"
140
0.015625
141
12.0
290
     0
  0
SCALE
  5
5B
102
{ACAD_REACTORS
330
47
102
}
330
47
100
AcDbScale
 70
     0
300
1/32" = 1'-0"
140
0.03125
141
12.0
290
     0
  0
SCALE
  5
5C
102
{ACAD_REACTORS
330
47
102
}
330
47
100
AcDbScale
 70
     0
300
1/16" = 1'-0"
140
0.0625
141
12.0
290
     0
  0
SCALE
  5
5D
102
{ACAD_REACTORS
330
47
102
}
330
47
100
AcDbScale
 70
     0
300
3/32" = 1'-0"
140
0.09375
141
12.0
290
     0
  0
SCALE
  5
5E
102
{ACAD_REACTORS
330
47
102
}
330
47
100
AcDbScale
 70
     0
300
1/8" = 1'-0"
140
0.125
141
12.0
290
     0
  0
SCALE
  5
5F
102
{ACAD_REACTORS
330
47
102
}
330
47
100
AcDbScale
 70
     0
300
3/16" = 1'-0"
140
0.1875
141
12.0
290
     0
  0
SCALE
  5
60
102
{ACAD_REACTORS
330
47
102
}
330
47
100
AcDbScale
 70
     0
300
1/4" = 1'-0"
140
0.25
141
12.0
290
     0
  0
SCALE
  5
61
102
{ACAD_REACTORS
330
47
102
}
330
47
100
AcDbScale
 70
     0
300
3/8" = 1'-0"
140
0.375
141
12.0
290
     0
  0
SCALE
  5
62
102
{ACAD_REACTORS
330
47
102
}
330
47
100
AcDbScale
 70
     0
300
1/2" = 1'-0"
140
0.5
141
12.0
290
     0
  0
SCALE
  5
63
102
{ACAD_REACTORS
330
47
102
}
330
47
100
AcDbScale
 70
     0
300
3/4" = 1'-0"
140
0.75
141
12.0
290
     0
  0
SCALE
  5
64
102
{ACAD_REACTORS
330
47
102
}
330
47
100
AcDbScale
 70
     0
300
1" = 1'-0"
140
1.0
141
12.0
290
     0
  0
SCALE
  5
65
102
{ACAD_REACTORS
330
47
102
}
330
47
100
AcDbScale
 70
     0
300
1-1/2" = 1'-0"
140
1.5
141
12.0
290
     0
  0
SCALE
  5
66
102
{ACAD_REACTORS
330
47
102
}
330
47
100
AcDbScale
 70
     0
300
3" = 1'-0"
140
3.0
141
12.0
290
     0
  0
SCALE
  5
67
102
{ACAD_REACTORS
330
47
102
}
330
47
100
AcDbScale
 70
     0
300
6" = 1'-0"
140
6.0
141
12.0
290
     0
  0
SCALE
  5
68
102
{ACAD_REACTORS
330
47
102
}
330
47
100
AcDbScale
 70
     0
300
1'-0" = 1'-0"
140
12.0
141
12.0
290
     0
  0
ENDSEC
  0
EOF
