  0
SECTION
  2
HEADER
  9
$ACADVER
  1
AC1024
  9
$ACADMAINTVER
 70
     6
  9
$DWGCODEPAGE
  3
ANSI_1252
  9
$LASTSAVEDBY
  1
villesi
  9
$INSBASE
 10
0.0
 20
0.0
 30
0.0
  9
$EXTMIN
 10
0.0
 20
0.0
 30
0.0
  9
$EXTMAX
 10
600.0
 20
600.0
 30
0.0
  9
$LIMMIN
 10
0.0
 20
0.0
  9
$LIMMAX
 10
600.0
 20
600.0
  9
$ORTHOMODE
 70
     0
  9
$REGENMODE
 70
     1
  9
$FILLMODE
 70
     1
  9
$QTEXTMODE
 70
     0
  9
$MIRRTEXT
 70
     1
  9
$LTSCALE
 40
1.0
  9
$ATTMODE
 70
     1
  9
$TEXTSIZE
 40
5.0
  9
$TRACEWID
 40
1.0
  9
$TEXTSTYLE
  7
Standard
  9
$CLAYER
  8
0
  9
$CELTYPE
  6
ByLayer
  9
$CECOLOR
 62
   256
  9
$CELTSCALE
 40
1.0
  9
$DISPSILH
 70
     0
  9
$DIMSCALE
 40
1.0
  9
$DIMASZ
 40
6.0
  9
$DIMEXO
 40
1.0
  9
$DIMDLI
 40
3.75
  9
$DIMRND
 40
0.0
  9
$DIMDLE
 40
0.0
  9
$DIMEXE
 40
1.0
  9
$DIMTP
 40
0.0
  9
$DIMTM
 40
0.0
  9
$DIMTXT
 40
5.0
  9
$DIMCEN
 40
2.5
  9
$DIMTSZ
 40
0.0
  9
$DIMTOL
 70
     0
  9
$DIMLIM
 70
     0
  9
$DIMTIH
 70
     1
  9
$DIMTOH
 70
     1
  9
$DIMSE1
 70
     0
  9
$DIMSE2
 70
     0
  9
$DIMTAD
 70
     1
  9
$DIMZIN
 70
     0
  9
$DIMBLK
  1

  9
$DIMASO
 70
     1
  9
$DIMSHO
 70
     1
  9
$DIMPOST
  1

  9
$DIMAPOST
  1

  9
$DIMALT
 70
     0
  9
$DIMALTD
 70
     3
  9
$DIMALTF
 40
0.0393700787
  9
$DIMLFAC
 40
1.0
  9
$DIMTOFL
 70
     1
  9
$DIMTVP
 40
0.0
  9
$DIMTIX
 70
     0
  9
$DIMSOXD
 70
     0
  9
$DIMSAH
 70
     0
  9
$DIMBLK1
  1

  9
$DIMBLK2
  1

  9
$DIMSTYLE
  2
ISO-25
  9
$DIMCLRD
 70
     0
  9
$DIMCLRE
 70
     0
  9
$DIMCLRT
 70
     0
  9
$DIMTFAC
 40
1.0
  9
$DIMGAP
 40
1.524
  9
$DIMJUST
 70
     0
  9
$DIMSD1
 70
     0
  9
$DIMSD2
 70
     0
  9
$DIMTOLJ
 70
     0
  9
$DIMTZIN
 70
     0
  9
$DIMALTZ
 70
     0
  9
$DIMALTTZ
 70
     0
  9
$DIMUPT
 70
     0
  9
$DIMDEC
 70
     2
  9
$DIMTDEC
 70
     2
  9
$DIMALTU
 70
     2
  9
$DIMALTTD
 70
     3
  9
$DIMTXSTY
  7
Standard
  9
$DIMAUNIT
 70
     0
  9
$DIMADEC
 70
     2
  9
$DIMALTRND
 40
0.0
  9
$DIMAZIN
 70
     0
  9
$DIMDSEP
 70
    44
  9
$DIMATFIT
 70
     3
  9
$DIMFRAC
 70
     0
  9
$DIMLDRBLK
  1

  9
$DIMLUNIT
 70
     2
  9
$DIMLWD
 70
    -2
  9
$DIMLWE
 70
    -2
  9
$DIMTMOVE
 70
     0
  9
$DIMFXL
 40
1.0
  9
$DIMFXLON
 70
     0
  9
$DIMJOGANG
 40
0.7853981634
  9
$DIMTFILL
 70
     0
  9
$DIMTFILLCLR
 70
     0
  9
$DIMARCSYM
 70
     0
  9
$DIMLTYPE
  6

  9
$DIMLTEX1
  6

  9
$DIMLTEX2
  6

  9
$DIMTXTDIRECTION
 70
     0
  9
$LUNITS
 70
     2
  9
$LUPREC
 70
     2
  9
$SKETCHINC
 40
1.0
  9
$FILLETRAD
 40
10.0
  9
$AUNITS
 70
     0
  9
$AUPREC
 70
     2
  9
$MENU
  1
.
  9
$ELEVATION
 40
0.0
  9
$PELEVATION
 40
0.0
  9
$THICKNESS
 40
0.0
  9
$LIMCHECK
 70
     0
  9
$CHAMFERA
 40
0.0
  9
$CHAMFERB
 40
0.0
  9
$CHAMFERC
 40
0.0
  9
$CHAMFERD
 40
0.0
  9
$SKPOLY
 70
     0
  9
$TDCREATE
 40
2459801.260009016
  9
$TDUCREATE
 40
2459801.135009016
  9
$TDUPDATE
 40
2459801.260009665
  9
$TDUUPDATE
 40
2459801.135009665
  9
$TDINDWG
 40
0.0000000116
  9
$TDUSRTIMER
 40
0.0000000116
  9
$USRTIMER
 70
     1
  9
$ANGBASE
 50
0.0
  9
$ANGDIR
 70
     0
  9
$PDMODE
 70
     0
  9
$PDSIZE
 40
-1.0
  9
$PLINEWID
 40
0.0
  9
$SPLFRAME
 70
     0
  9
$SPLINETYPE
 70
     6
  9
$SPLINESEGS
 70
     8
  9
$HANDSEED
  5
24E
  9
$SURFTAB1
 70
     6
  9
$SURFTAB2
 70
     6
  9
$SURFTYPE
 70
     6
  9
$SURFU
 70
     6
  9
$SURFV
 70
     6
  9
$UCSBASE
  2

  9
$UCSNAME
  2

  9
$UCSORG
 10
0.0
 20
0.0
 30
0.0
  9
$UCSXDIR
 10
1.0
 20
0.0
 30
0.0
  9
$UCSYDIR
 10
0.0
 20
1.0
 30
0.0
  9
$UCSORTHOREF
  2

  9
$UCSORTHOVIEW
 70
     0
  9
$UCSORGTOP
 10
0.0
 20
0.0
 30
0.0
  9
$UCSORGBOTTOM
 10
0.0
 20
0.0
 30
0.0
  9
$UCSORGLEFT
 10
0.0
 20
0.0
 30
0.0
  9
$UCSORGRIGHT
 10
0.0
 20
0.0
 30
0.0
  9
$UCSORGFRONT
 10
0.0
 20
0.0
 30
0.0
  9
$UCSORGBACK
 10
0.0
 20
0.0
 30
0.0
  9
$PUCSBASE
  2

  9
$PUCSNAME
  2

  9
$PUCSORG
 10
0.0
 20
0.0
 30
0.0
  9
$PUCSXDIR
 10
1.0
 20
0.0
 30
0.0
  9
$PUCSYDIR
 10
0.0
 20
1.0
 30
0.0
  9
$PUCSORTHOREF
  2

  9
$PUCSORTHOVIEW
 70
     0
  9
$PUCSORGTOP
 10
0.0
 20
0.0
 30
0.0
  9
$PUCSORGBOTTOM
 10
0.0
 20
0.0
 30
0.0
  9
$PUCSORGLEFT
 10
0.0
 20
0.0
 30
0.0
  9
$PUCSORGRIGHT
 10
0.0
 20
0.0
 30
0.0
  9
$PUCSORGFRONT
 10
0.0
 20
0.0
 30
0.0
  9
$PUCSORGBACK
 10
0.0
 20
0.0
 30
0.0
  9
$USERI1
 70
     0
  9
$USERI2
 70
     0
  9
$USERI3
 70
     0
  9
$USERI4
 70
     0
  9
$USERI5
 70
     0
  9
$USERR1
 40
0.0
  9
$USERR2
 40
0.0
  9
$USERR3
 40
0.0
  9
$USERR4
 40
0.0
  9
$USERR5
 40
0.0
  9
$WORLDVIEW
 70
     1
  9
$SHADEDGE
 70
     3
  9
$SHADEDIF
 70
    70
  9
$TILEMODE
 70
     1
  9
$MAXACTVP
 70
    64
  9
$PINSBASE
 10
0.0
 20
0.0
 30
0.0
  9
$PLIMCHECK
 70
     0
  9
$PEXTMIN
 10
1.0000000000E+20
 20
1.0000000000E+20
 30
1.0000000000E+20
  9
$PEXTMAX
 10
-1.0000000000E+20
 20
-1.0000000000E+20
 30
-1.0000000000E+20
  9
$PLIMMIN
 10
0.0
 20
0.0
  9
$PLIMMAX
 10
420.0
 20
297.0
  9
$UNITMODE
 70
     0
  9
$VISRETAIN
 70
     1
  9
$PLINEGEN
 70
     0
  9
$PSLTSCALE
 70
     1
  9
$TREEDEPTH
 70
  3020
  9
$CMLSTYLE
  2
Standard
  9
$CMLJUST
 70
     0
  9
$CMLSCALE
 40
20.0
  9
$PROXYGRAPHICS
 70
     1
  9
$MEASUREMENT
 70
     1
  9
$CELWEIGHT
370
    -1
  9
$ENDCAPS
280
     0
  9
$JOINSTYLE
280
     0
  9
$LWDISPLAY
290
     1
  9
$INSUNITS
 70
     4
  9
$HYPERLINKBASE
  1

  9
$STYLESHEET
  1

  9
$XEDIT
290
     1
  9
$CEPSNTYPE
380
     0
  9
$PSTYLEMODE
290
     1
  9
$FINGERPRINTGUID
  2
{92ad26fb-5b75-4768-9745-cda6c901f6e7}
  9
$VERSIONGUID
  2
{FAEB1C32-E019-11D5-929B-00C0DF256EC4}
  9
$EXTNAMES
290
     1
  9
$PSVPSCALE
 40
0.0
  9
$OLESTARTUP
290
     0
  9
$SORTENTS
280
   127
  9
$INDEXCTL
280
     0
  9
$HIDETEXT
280
     1
  9
$XCLIPFRAME
280
     2
  9
$HALOGAP
280
     0
  9
$OBSCOLOR
 70
   257
  9
$OBSLTYPE
280
     0
  9
$INTERSECTIONDISPLAY
280
     0
  9
$INTERSECTIONCOLOR
 70
   257
  9
$DIMASSOC
280
     2
  9
$PROJECTNAME
  1

  9
$CAMERADISPLAY
290
     0
  9
$LENSLENGTH
 40
50.0
  9
$CAMERAHEIGHT
 40
0.0
  9
$STEPSPERSEC
 40
2.0
  9
$STEPSIZE
 40
6.0
  9
$3DDWFPREC
 40
2.0
  9
$PSOLWIDTH
 40
5.0
  9
$PSOLHEIGHT
 40
80.0
  9
$LOFTANG1
 40
1.5707963268
  9
$LOFTANG2
 40
1.5707963268
  9
$LOFTMAG1
 40
0.0
  9
$LOFTMAG2
 40
0.0
  9
$LOFTPARAM
 70
     7
  9
$LOFTNORMALS
280
     1
  9
$LATITUDE
 40
37.795
  9
$LONGITUDE
 40
-122.394
  9
$NORTHDIRECTION
 40
0.0
  9
$TIMEZONE
 70
 -8000
  9
$LIGHTGLYPHDISPLAY
280
     1
  9
$TILEMODELIGHTSYNCH
280
     1
  9
$CMATERIAL
347
44
  9
$SOLIDHIST
280
     0
  9
$SHOWHIST
280
     1
  9
$DWFFRAME
280
     2
  9
$DGNFRAME
280
     2
  9
$REALWORLDSCALE
290
     1
  9
$INTERFERECOLOR
 62
   256
  9
$CSHADOW
280
     0
  9
$SHADOWPLANELOCATION
 40
0.0
  0
ENDSEC
  0
SECTION
  2
CLASSES
  0
CLASS
  1
ACDBDICTIONARYWDFLT
  2
AcDbDictionaryWithDefault
  3
ObjectDBX Classes
 90
        0
 91
        3
280
     0
281
     0
  0
CLASS
  1
VISUALSTYLE
  2
AcDbVisualStyle
  3
ObjectDBX Classes
 90
     4095
 91
        3
280
     0
281
     0
  0
CLASS
  1
MATERIAL
  2
AcDbMaterial
  3
ObjectDBX Classes
 90
     1153
 91
        3
280
     0
281
     0
  0
CLASS
  1
SCALE
  2
AcDbScale
  3
ObjectDBX Classes
 90
     1153
 91
        3
280
     0
281
     0
  0
CLASS
  1
TABLESTYLE
  2
AcDbTableStyle
  3
ObjectDBX Classes
 90
     4095
 91
        3
280
     0
281
     0
  0
CLASS
  1
MLEADERSTYLE
  2
AcDbMLeaderStyle
  3
ACDB_MLEADERSTYLE_CLASS
 90
     4095
 91
        3
280
     0
281
     0
  0
CLASS
  1
SUN
  2
AcDbSun
  3
SCENEOE
 90
     1153
 91
        3
280
     0
281
     0
  0
CLASS
  1
DICTIONARYVAR
  2
AcDbDictionaryVar
  3
ObjectDBX Classes
 90
        0
 91
        3
280
     0
281
     0
  0
CLASS
  1
CELLSTYLEMAP
  2
AcDbCellStyleMap
  3
ObjectDBX Classes
 90
     1152
 91
        3
280
     0
281
     0
  0
ENDSEC
  0
SECTION
  2
TABLES
  0
TABLE
  2
VPORT
  5
8
330
0
100
AcDbSymbolTable
 70
     1
  0
VPORT
  5
29
330
8
100
AcDbSymbolTableRecord
100
AcDbViewportTableRecord
  2
*Active
 70
     0
 10
0.0
 20
0.0
 11
1.0
 21
1.0
 12
300.0
 22
300.0
 13
0.0
 23
0.0
 14
10.0
 24
10.0
 15
10.0
 25
10.0
 16
0.0
 26
0.0
 36
1.0
 17
0.0
 27
0.0
 37
0.0
 40
600.0
 41
1.0
 42
50.0
 43
0.0
 44
0.0
 50
0.0
 51
0.0
 71
     0
 72
  2000
 73
     1
 74
     3
 75
     0
 76
     0
 77
     0
 78
     0
281
     0
 65
     1
110
0.0
120
0.0
130
0.0
111
1.0
121
0.0
131
0.0
112
0.0
122
1.0
132
0.0
 79
     0
146
0.0
348
2F
 60
     3
 61
     5
292
     1
282
     1
141
0.0
142
0.0
 63
   250
361
6D
  0
ENDTAB
  0
TABLE
  2
LTYPE
  5
5
330
0
100
AcDbSymbolTable
 70
     6
  0
LTYPE
  5
14
330
5
100
AcDbSymbolTableRecord
100
AcDbLinetypeTableRecord
  2
ByBlock
 70
     0
  3

 72
    65
 73
     0
 40
0.0
  0
LTYPE
  5
15
330
5
100
AcDbSymbolTableRecord
100
AcDbLinetypeTableRecord
  2
ByLayer
 70
     0
  3

 72
    65
 73
     0
 40
0.0
  0
LTYPE
  5
16
330
5
100
AcDbSymbolTableRecord
100
AcDbLinetypeTableRecord
  2
Continuous
 70
     0
  3
Solid line
 72
    65
 73
     0
 40
0.0
  0
LTYPE
  5
6E
330
5
100
AcDbSymbolTableRecord
100
AcDbLinetypeTableRecord
  2
HIDDEN
 70
     0
  3
Hidden __ __ __ __ __ __ __ __ __ __ __ __ __ __
 72
    65
 73
     2
 40
1.905
 49
1.27
 74
     0
 49
-0.635
 74
     0
  0
LTYPE
  5
6F
330
5
100
AcDbSymbolTableRecord
100
AcDbLinetypeTableRecord
  2
PHANTOM
 70
     0
  3
Phantom ______  __  __  ______  __  __  ______
 72
    65
 73
     6
 40
12.7
 49
6.35
 74
     0
 49
-1.27
 74
     0
 49
1.27
 74
     0
 49
-1.27
 74
     0
 49
1.27
 74
     0
 49
-1.27
 74
     0
  0
LTYPE
  5
70
330
5
100
AcDbSymbolTableRecord
100
AcDbLinetypeTableRecord
  2
CENTER
 70
     0
  3
Center ____ _ ____ _ ____ _ ____ _ ____ _ ____
 72
    65
 73
     4
 40
10.16
 49
6.35
 74
     0
 49
-1.27
 74
     0
 49
1.27
 74
     0
 49
-1.27
 74
     0
  0
LTYPE
  5
71
330
5
100
AcDbSymbolTableRecord
100
AcDbLinetypeTableRecord
  2
CENTERX2
 70
     0
  3
Center (2x) ________  __  ________  __  _____
 72
    65
 73
     4
 40
20.32
 49
12.7
 74
     0
 49
-2.54
 74
     0
 49
2.54
 74
     0
 49
-2.54
 74
     0
  0
LTYPE
  5
72
330
5
100
AcDbSymbolTableRecord
100
AcDbLinetypeTableRecord
  2
DOT2
 70
     0
  3
Dot (.5x) ........................................
 72
    65
 73
     2
 40
0.635
 49
0.0
 74
     0
 49
-0.635
 74
     0
  0
ENDTAB
  0
TABLE
  2
LAYER
  5
2
330
0
100
AcDbSymbolTable
 70
     2
  0
LAYER
  5
10
330
2
100
AcDbSymbolTableRecord
100
AcDbLayerTableRecord
  2
0
 70
     0
 62
     7
  6
Continuous
370
    -3
390
F
347
46
  0
LAYER
  5
73
330
2
100
AcDbSymbolTableRecord
100
AcDbLayerTableRecord
  2
TABLE_BL1
 70
     0
 62
   179
  6
Continuous
370
    -3
390
F
347
46
  0
ENDTAB
  0
TABLE
  2
STYLE
  5
3
330
0
100
AcDbSymbolTable
 70
     1
  0
STYLE
  5
11
330
3
100
AcDbSymbolTableRecord
100
AcDbTextStyleTableRecord
  2
Standard
 70
     0
 40
0.0
 41
1.0
 50
0.0
 71
     0
 42
5.0
  3
txt
  4

  0
ENDTAB
  0
TABLE
  2
VIEW
  5
6
330
0
100
AcDbSymbolTable
 70
     0
  0
ENDTAB
  0
TABLE
  2
UCS
  5
7
330
0
100
AcDbSymbolTable
 70
     0
  0
ENDTAB
  0
TABLE
  2
APPID
  5
9
330
0
100
AcDbSymbolTable
 70
     1
  0
APPID
  5
12
330
9
100
AcDbSymbolTableRecord
100
AcDbRegAppTableRecord
  2
ACAD
 70
     0
  0
ENDTAB
  0
TABLE
  2
DIMSTYLE
  5
A
330
0
100
AcDbSymbolTable
 70
     1
100
AcDbDimStyleTable
  0
DIMSTYLE
105
27
330
A
100
AcDbSymbolTableRecord
100
AcDbDimStyleTableRecord
  2
ISO-25
 70
     0
 41
2.5
 42
0.625
 43
3.75
 44
1.25
 73
     0
 74
     0
 77
     1
 78
     8
140
2.5
141
2.5
143
0.0393700787
147
0.625
171
     3
172
     1
178
     0
271
     2
272
     2
274
     3
278
    44
283
     0
284
     8
340
11
  0
ENDTAB
  0
TABLE
  2
BLOCK_RECORD
  5
1
330
0
100
AcDbSymbolTable
 70
     1
  0
BLOCK_RECORD
  5
1F
330
1
100
AcDbSymbolTableRecord
100
AcDbBlockTableRecord
  2
*Model_Space
340
22
 70
     0
280
     1
281
     0
  0
BLOCK_RECORD
  5
1B
330
1
100
AcDbSymbolTableRecord
100
AcDbBlockTableRecord
  2
*Paper_Space
340
1E
 70
     0
280
     1
281
     0
  0
BLOCK_RECORD
  5
23
330
1
100
AcDbSymbolTableRecord
100
AcDbBlockTableRecord
  2
*Paper_Space0
340
26
 70
     0
280
     1
281
     0
  0
ENDTAB
  0
ENDSEC
  0
SECTION
  2
BLOCKS
  0
BLOCK
  5
20
330
1F
100
AcDbEntity
  8
0
100
AcDbBlockBegin
  2
*Model_Space
 70
     0
 10
0.0
 20
0.0
 30
0.0
  3
*Model_Space
  1

  0
ENDBLK
  5
21
330
1F
100
AcDbEntity
  8
0
100
AcDbBlockEnd
  0
BLOCK
  5
1C
330
1B
100
AcDbEntity
 67
     1
  8
0
100
AcDbBlockBegin
  2
*Paper_Space
 70
     0
 10
0.0
 20
0.0
 30
0.0
  3
*Paper_Space
  1

  0
ENDBLK
  5
1D
330
1B
100
AcDbEntity
 67
     1
  8
0
100
AcDbBlockEnd
  0
BLOCK
  5
24
330
23
100
AcDbEntity
  8
0
100
AcDbBlockBegin
  2
*Paper_Space0
 70
     0
 10
0.0
 20
0.0
 30
0.0
  3
*Paper_Space0
  1

  0
ENDBLK
  5
25
330
23
100
AcDbEntity
  8
0
100
AcDbBlockEnd
  0
ENDSEC
  0
SECTION
  2
ENTITIES
  0
SPLINE
  5
74
330
1F
100
AcDbEntity
  8
0
  6
Continuous
 62
     7
370
    25
100
AcDbSpline
210
0.0
220
0.0
230
1.0
 70
     8
 71
     3
 72
    18
 73
    14
 74
     0
 42
0.00000001
 43
0.00000001
 40
0.0
 40
0.0
 40
0.0
 40
0.0
 40
0.1181635139670259
 40
0.2417302888342773
 40
0.3519954886980156
 40
0.4393435186770621
 40
0.5540331161815145
 40
0.6249960116228778
 40
0.7018579524539391
 40
0.7811806993452357
 40
0.859262449169147
 40
0.9329153330256957
 40
1.0
 40
1.0
 40
1.0
 40
1.0
 10
304.557365540802
 20
341.0306386869868
 30
0.0
 10
304.4363269086552
 20
342.143750249858
 30
0.0
 10
304.1887149129838
 20
344.420872608226
 30
0.0
 10
302.2997918009415
 20
347.275895383982
 30
0.0
 10
299.8452310802443
 20
349.0987388050039
 30
0.0
 10
297.0390175854938
 20
350.0470994286195
 30
0.0
 10
294.4201862864369
 20
350.0687947113218
 30
0.0
 10
292.0421144408673
 20
349.3749262303011
 30
0.0
 10
290.1719299817637
 20
348.3166475048429
 30
0.0
 10
288.5628926043324
 20
346.7887023947161
 30
0.0
 10
287.4020199059846
 20
344.9406087387906
 30
0.0
 10
286.714621607849
 20
342.9809959270607
 30
0.0
 10
286.6336397868358
 20
341.6602107669747
 30
0.0
 10
286.5950385857947
 20
341.0306386869868
 30
0.0
  0
SPLINE
  5
75
330
1F
100
AcDbEntity
  8
0
  6
Continuous
 62
     7
370
    25
100
AcDbSpline
210
0.0
220
0.0
230
1.0
 70
     8
 71
     3
 72
    18
 73
    14
 74
     0
 42
0.00000001
 43
0.00000001
 40
0.0
 40
0.0
 40
0.0
 40
0.0
 40
0.1181635139670262
 40
0.2417302888342777
 40
0.3519954886980155
 40
0.4393435186770618
 40
0.5540331161815137
 40
0.6249960116228768
 40
0.7018579524539378
 40
0.7811806993452346
 40
0.8592624491691464
 40
0.9329153330256955
 40
1.0
 40
1.0
 40
1.0
 40
1.0
 10
286.5950385857968
 20
341.0306386869868
 30
0.0
 10
286.7160772179435
 20
339.917527124116
 30
0.0
 10
286.9636892136149
 20
337.6404047657485
 30
0.0
 10
288.8526123256567
 20
334.7853819899931
 30
0.0
 10
291.3071730463533
 20
332.9625385689717
 30
0.0
 10
294.1133865411032
 20
332.0141779453563
 30
0.0
 10
296.7322178401595
 20
331.992482662654
 30
0.0
 10
299.1102896857286
 20
332.6863511436745
 30
0.0
 10
300.9804741448317
 20
333.7446298691324
 30
0.0
 10
302.5895115222626
 20
335.2725749792589
 30
0.0
 10
303.7503842206101
 20
337.120668635184
 30
0.0
 10
304.4377825187456
 20
339.0802814469134
 30
0.0
 10
304.5187643397588
 20
340.4010666069992
 30
0.0
 10
304.5573655407999
 20
341.0306386869868
 30
0.0
  0
LINE
  5
76
330
1F
100
AcDbEntity
  8
0
  6
Continuous
 62
     7
370
    25
100
AcDbLine
 10
329.8830728263
 20
438.7146747524
 30
0.0
 11
371.2693313005
 21
438.7146747524
 31
0.0
  0
SPLINE
  5
77
330
1F
100
AcDbEntity
  8
0
  6
Continuous
 62
     7
370
    25
100
AcDbSpline
210
0.0
220
0.0
230
1.0
 70
     8
 71
     3
 72
    11
 73
     7
 74
     0
 42
0.00000001
 43
0.00000001
 40
0.0
 40
0.0
 40
0.0
 40
0.0
 40
0.2507472886552889
 40
0.5009557650075515
 40
0.7506755678221051
 40
1.0
 40
1.0
 40
1.0
 40
1.0
 10
371.2693313004767
 20
438.7291023720786
 30
0.0
 10
371.4671800485803
 20
438.7285641874738
 30
0.0
 10
371.8624524022459
 20
438.7274889747292
 30
0.0
 10
372.4302848225083
 20
438.7183064910394
 30
0.0
 10
372.9579584628278
 20
438.7043437089597
 30
0.0
 10
373.2507864795417
 20
438.6909409308386
 30
0.0
 10
373.3970844905668
 20
438.6842448509917
 30
0.0
  0
SPLINE
  5
78
330
1F
100
AcDbEntity
  8
0
  6
Continuous
 62
     7
370
    25
100
AcDbSpline
210
0.0
220
0.0
230
1.0
 70
     8
 71
     3
 72
    11
 73
     7
 74
     0
 42
0.00000001
 43
0.00000001
 40
0.0
 40
0.0
 40
0.0
 40
0.0
 40
0.2493244321771275
 40
0.4990442349910639
 40
0.7492527113420311
 40
1.0
 40
1.0
 40
1.0
 40
1.0
 10
327.7553196360273
 20
438.6842448509905
 30
0.0
 10
327.901617647064
 20
438.6909409308382
 30
0.0
 10
328.194445663801
 20
438.7043437089607
 30
0.0
 10
328.7221193041648
 20
438.7183064910414
 30
0.0
 10
329.2899517244782
 20
438.7274889747301
 30
0.0
 10
329.6852240781766
 20
438.7285641874738
 30
0.0
 10
329.8830728262983
 20
438.7291023720782
 30
0.0
  0
SPLINE
  5
79
330
1F
100
AcDbEntity
  8
0
  6
Continuous
 62
     7
370
    25
100
AcDbSpline
210
0.0
220
0.0
230
1.0
 70
     8
 71
     3
 72
    15
 73
    11
 74
     0
 42
0.00000001
 43
0.00000001
 40
0.0
 40
0.0
 40
0.0
 40
0.0
 40
0.1435697120503212
 40
0.2830630712990892
 40
0.4177869950153912
 40
0.5471035625088642
 40
0.6704392768788535
 40
0.7872946988263972
 40
0.8972547346860739
 40
1.0
 40
1.0
 40
1.0
 40
1.0
 10
331.0523225295902
 20
437.8463406039422
 30
0.0
 10
331.070363143026
 20
437.8127387522782
 30
0.0
 10
331.1059321455291
 20
437.7464891011679
 30
0.0
 10
331.2334882981039
 20
437.6520891287994
 30
0.0
 10
331.4035631163646
 20
437.5647015652102
 30
0.0
 10
331.6086826269964
 20
437.4856779787229
 30
0.0
 10
331.8331528340336
 20
437.4158300758838
 30
0.0
 10
332.0614834871838
 20
437.3560731827097
 30
0.0
 10
332.2812657889385
 20
437.3059150277481
 30
0.0
 10
332.4127094550858
 20
437.2800142408753
 30
0.0
 10
332.4762020632983
 20
437.2675031130173
 30
0.0
  0
SPLINE
  5
7A
330
1F
100
AcDbEntity
  8
0
  6
Continuous
 62
     7
370
    25
100
AcDbSpline
210
0.0
220
0.0
230
1.0
 70
     8
 71
     3
 72
    15
 73
    11
 74
     0
 42
0.00000001
 43
0.00000001
 40
0.0
 40
0.0
 40
0.0
 40
0.0
 40
0.10274526532795
 40
0.2127053011946825
 40
0.3295607231432243
 40
0.4528964375095976
 40
0.5822130049966984
 40
0.7169369287060954
 40
0.856430287949925
 40
1.0
 40
1.0
 40
1.0
 40
1.0
 10
368.6762020632983
 20
437.2675031130289
 30
0.0
 10
368.7396946714975
 20
437.2800142408621
 30
0.0
 10
368.8711383376123
 20
437.3059150276823
 30
0.0
 10
369.0909206392569
 20
437.3560731825296
 30
0.0
 10
369.3192512922702
 20
437.4158300755619
 30
0.0
 10
369.5437214991643
 20
437.4856779782314
 30
0.0
 10
369.7488410096763
 20
437.564701564526
 30
0.0
 10
369.9189158278662
 20
437.6520891279046
 30
0.0
 10
370.0464719804312
 20
437.7464891000495
 30
0.0
 10
370.082040982989
 20
437.8127387510074
 30
0.0
 10
370.1000815964529
 20
437.8463406025946
 30
0.0
  0
LINE
  5
7B
330
1F
100
AcDbEntity
  8
0
  6
Continuous
 62
     7
370
    25
100
AcDbLine
 10
332.4762020633
 20
437.2023316009
 30
0.0
 11
368.6762020633
 21
437.2023316009
 31
0.0
  0
SPLINE
  5
7C
330
1F
100
AcDbEntity
  8
0
  6
Continuous
 62
     7
370
    25
100
AcDbSpline
210
0.0
220
0.0
230
1.0
 70
    24
 71
     3
 72
     9
 73
     5
 74
     0
 42
0.00000001
 43
0.00000001
 40
0.0
 40
0.0
 40
0.0
 40
0.0
 40
0.5600000004406703
 40
1.0
 40
1.0
 40
1.0
 40
1.0
 10
274.9188673228176
 20
341.0306386869869
 30
0.0
 10
275.0081400082748
 20
341.0306386869868
 30
0.0
 10
275.1675555178944
 20
341.0306386869867
 30
0.0
 10
275.4175756479483
 20
341.0306386869868
 30
0.0
 10
275.5275845050618
 20
341.0306386869868
 30
0.0
  0
SPLINE
  5
7D
330
1F
100
AcDbEntity
  8
0
  6
Continuous
 62
     7
370
    25
100
AcDbSpline
210
0.0
220
0.0
230
1.0
 70
    24
 71
     3
 72
     9
 73
     5
 74
     0
 42
0.00000001
 43
0.00000001
 40
0.0
 40
0.0
 40
0.0
 40
0.0
 40
0.5599999995282208
 40
1.0
 40
1.0
 40
1.0
 40
1.0
 10
315.6248196215349
 20
341.0306386869868
 30
0.0
 10
315.7643665233109
 20
341.0306386869868
 30
0.0
 10
316.0135574195492
 20
341.0306386869867
 30
0.0
 10
316.1663208807699
 20
341.0306386869869
 30
0.0
 10
316.2335368037792
 20
341.0306386869869
 30
0.0
  0
SPLINE
  5
7E
330
1F
100
AcDbEntity
  8
0
  6
Continuous
 62
     7
370
    25
100
AcDbSpline
210
0.0
220
0.0
230
1.0
 70
    24
 71
     3
 72
     9
 73
     5
 74
     0
 42
0.00000001
 43
0.00000001
 40
0.0
 40
0.0
 40
0.0
 40
0.0
 40
0.5599999999791874
 40
1.0
 40
1.0
 40
1.0
 40
1.0
 10
274.9188673227977
 20
341.0306386869868
 30
0.0
 10
274.7158620447771
 20
341.0306386869869
 30
0.0
 10
274.3533526197267
 20
341.0306386869871
 30
0.0
 10
273.7823377603061
 20
341.0306386869869
 30
0.0
 10
273.5310912221493
 20
341.0306386869868
 30
0.0
  0
SPLINE
  5
7F
330
1F
100
AcDbEntity
  8
0
  6
Continuous
 62
     7
370
    25
100
AcDbSpline
210
0.0
220
0.0
230
1.0
 70
    24
 71
     3
 72
     9
 73
     5
 74
     0
 42
0.00000001
 43
0.00000001
 40
0.0
 40
0.0
 40
0.0
 40
0.0
 40
0.5600000000439599
 40
1.0
 40
1.0
 40
1.0
 40
1.0
 10
317.6213129033626
 20
341.0306386869868
 30
0.0
 10
317.3017864762542
 20
341.0306386869869
 30
0.0
 10
316.7312035707484
 20
341.030638686987
 30
0.0
 10
316.3856016492452
 20
341.0306386869869
 30
0.0
 10
316.233536803799
 20
341.0306386869869
 30
0.0
  0
SPLINE
  5
80
330
1F
100
AcDbEntity
  8
0
  6
Continuous
 62
     7
370
    25
100
AcDbSpline
210
0.0
220
0.0
230
1.0
 70
    24
 71
     3
 72
    11
 73
     7
 74
     0
 42
0.00000001
 43
0.00000001
 40
0.0
 40
0.0
 40
0.0
 40
0.0
 40
0.2723457484539672
 40
0.5618939965504314
 40
0.787653350759466
 40
1.0
 40
1.0
 40
1.0
 40
1.0
 10
268.5762020634595
 20
341.0306386869868
 30
0.0
 10
268.5818342843486
 20
341.0306386869868
 30
0.0
 10
268.5934544808188
 20
341.0306386869869
 30
0.0
 10
268.6796567949291
 20
341.0306386869869
 30
0.0
 10
268.789393105149
 20
341.0306386869869
 30
0.0
 10
268.8684328358404
 20
341.0306386869868
 30
0.0
 10
268.9067427924194
 20
341.0306386869868
 30
0.0
  0
LINE
  5
81
330
1F
100
AcDbEntity
  8
0
  6
Continuous
 62
     7
370
    25
100
AcDbLine
 10
322.5762020633
 20
341.0306386981
 30
0.0
 11
322.5433641779
 21
342.3618664981
 31
0.0
  0
LWPOLYLINE
  5
82
330
1F
100
AcDbEntity
  8
0
  6
Continuous
 62
     7
370
    25
100
AcDbPolyline
 90
        3
 70
   128
 43
0.0
 10
320.4503377094
 20
351.5319422185
 10
319.7042833481
 20
353.1482165602
 10
319.2952129219
 20
353.9305814732
  0
LWPOLYLINE
  5
83
330
1F
100
AcDbEntity
  8
0
  6
Continuous
 62
     7
370
    25
100
AcDbPolyline
 90
        3
 70
   128
 43
0.0
 10
313.4304979094
 20
361.2846289072
 10
311.6994840342
 20
362.6879648952
 10
311.3494268897
 20
362.9442275892
  0
LINE
  5
84
330
1F
100
AcDbEntity
  8
0
  6
Continuous
 62
     7
370
    25
100
AcDbLine
 10
302.874130813
 20
367.0256427448
 30
0.0
 11
300.2798904686
 21
367.6177655605
 31
0.0
  0
LINE
  5
85
330
1F
100
AcDbEntity
  8
0
  6
Continuous
 62
     7
370
    25
100
AcDbLine
 10
290.8721199359
 20
367.6176959017
 30
0.0
 11
288.2790124748
 21
367.0258502481
 31
0.0
  0
LWPOLYLINE
  5
86
330
1F
100
AcDbEntity
  8
0
  6
Continuous
 62
     7
370
    25
100
AcDbPolyline
 90
        3
 70
   128
 43
0.0
 10
279.8018056787
 20
362.9433842635
 10
279.4529200874
 20
362.6879648915
 10
277.7234513045
 20
361.2859908277
  0
LWPOLYLINE
  5
87
330
1F
100
AcDbEntity
  8
0
  6
Continuous
 62
     7
370
    25
100
AcDbPolyline
 90
        3
 70
   128
 43
0.0
 10
271.8560619728
 20
353.9285049481
 10
271.4481207757
 20
353.1482165546
 10
270.7034187151
 20
351.5351447922
  0
LINE
  5
88
330
1F
100
AcDbEntity
  8
0
  6
Continuous
 62
     7
370
    25
100
AcDbLine
 10
268.6089014382
 20
342.3590576704
 30
0.0
 11
268.5762020633
 21
341.0306386918
 31
0.0
  0
SPLINE
  5
89
330
1F
100
AcDbEntity
  8
0
  6
Continuous
 62
     7
370
    25
100
AcDbSpline
210
0.0
220
0.0
230
1.0
 70
    24
 71
     3
 72
    11
 73
     7
 74
     0
 42
0.00000001
 43
0.00000001
 40
0.0
 40
0.0
 40
0.0
 40
0.0
 40
0.2723457483393122
 40
0.5618939964056076
 40
0.7876533506638942
 40
1.0
 40
1.0
 40
1.0
 40
1.0
 10
322.2456613341773
 20
341.0306386869868
 30
0.0
 10
322.2946817321259
 20
341.0306386869868
 30
0.0
 10
322.3958188619572
 20
341.0306386869868
 30
0.0
 10
322.5034596129536
 20
341.0306386869868
 30
0.0
 10
322.5657477257548
 20
341.0306386869869
 30
0.0
 10
322.5727891421441
 20
341.0306386869868
 30
0.0
 10
322.5762020631373
 20
341.0306386869868
 30
0.0
  0
LINE
  5
8A
330
1F
100
AcDbEntity
  8
0
  6
Continuous
 62
     7
370
    25
100
AcDbLine
 10
268.5762020633
 20
341.030638687
 30
0.0
 11
268.6090399487
 21
339.6994108758
 31
0.0
  0
LWPOLYLINE
  5
8B
330
1F
100
AcDbEntity
  8
0
  6
Continuous
 62
     7
370
    25
100
AcDbPolyline
 90
        3
 70
   128
 43
0.0
 10
270.7020664172
 20
330.5293351555
 10
271.4481207753
 20
328.9130608201
 10
271.8571912047
 20
328.1306959008
  0
LWPOLYLINE
  5
8C
330
1F
100
AcDbEntity
  8
0
  6
Continuous
 62
     7
370
    25
100
AcDbPolyline
 90
        3
 70
   128
 43
0.0
 10
277.7219062172
 20
320.7766484668
 10
279.45292009
 20
319.3733124806
 10
279.8029772369
 20
319.1170497848
  0
LINE
  5
8D
330
1F
100
AcDbEntity
  8
0
  6
Continuous
 62
     7
370
    25
100
AcDbLine
 10
288.2782733136
 20
315.0356346292
 30
0.0
 11
290.872513658
 21
314.4435118135
 31
0.0
  0
LINE
  5
8E
330
1F
100
AcDbEntity
  8
0
  6
Continuous
 62
     7
370
    25
100
AcDbLine
 10
300.2802841907
 20
314.4435814723
 30
0.0
 11
302.8733916519
 21
315.0354271258
 31
0.0
  0
LWPOLYLINE
  5
8F
330
1F
100
AcDbEntity
  8
0
  6
Continuous
 62
     7
370
    25
100
AcDbPolyline
 90
        3
 70
   128
 43
0.0
 10
311.3505984479
 20
319.1178931105
 10
311.6994840455
 20
319.3733124873
 10
313.4289528221
 20
320.7752865463
  0
LWPOLYLINE
  5
90
330
1F
100
AcDbEntity
  8
0
  6
Continuous
 62
     7
370
    25
100
AcDbPolyline
 90
        3
 70
   128
 43
0.0
 10
319.2963421537
 20
328.1327724258
 10
319.7042833563
 20
328.91306083
 10
320.4489854115
 20
330.5261325818
  0
LINE
  5
91
330
1F
100
AcDbEntity
  8
0
  6
Continuous
 62
     7
370
    25
100
AcDbLine
 10
322.5435026884
 20
339.7022197035
 30
0.0
 11
322.5762020633
 21
341.0306386981
 31
0.0
  0
ARC
  5
92
330
1F
100
AcDbEntity
  8
0
  6
Continuous
 62
     7
370
    25
100
AcDbCircle
 10
295.5762020633
 20
341.030638687
 30
0.0
 40
38.29899805700018
100
AcDbArc
 50
180.0
 51
0.0
  0
ARC
  5
93
330
1F
100
AcDbEntity
  8
0
  6
Continuous
 62
     7
370
    25
100
AcDbCircle
 10
295.5762020633
 20
341.030638687
 30
0.0
 40
39.50000000000028
100
AcDbArc
 50
180.0
 51
0.0000000235
  0
ARC
  5
94
330
1F
100
AcDbEntity
  8
0
  6
Continuous
 62
     7
370
    25
100
AcDbCircle
 10
295.5762020633
 20
341.030638687
 30
0.0
 40
38.29899805700018
100
AcDbArc
 50
0.0
 51
180.0
  0
ARC
  5
95
330
1F
100
AcDbEntity
  8
0
  6
Continuous
 62
     7
370
    25
100
AcDbCircle
 10
295.5762020633
 20
341.030638687
 30
0.0
 40
39.50000000000028
100
AcDbArc
 50
0.0000000235
 51
179.9999999897
  0
SPLINE
  5
96
330
1F
100
AcDbEntity
  8
0
  6
Continuous
 62
     7
370
    25
100
AcDbSpline
210
0.0
220
0.0
230
1.0
 70
     8
 71
     3
 72
    12
 73
     8
 74
     0
 42
0.00000001
 43
0.00000001
 40
0.0
 40
0.0
 40
0.0
 40
0.0
 40
0.320375533191354
 40
0.5620058561934435
 40
0.7625110883902106
 40
0.8964635022549604
 40
1.0
 40
1.0
 40
1.0
 40
1.0
 10
262.1321757535067
 20
326.892314913442
 30
0.0
 10
262.0402197591959
 20
326.8387986674208
 30
0.0
 10
261.878909665382
 20
326.7449199515096
 30
0.0
 10
261.73909166551
 20
326.5058466693121
 30
0.0
 10
261.6956422866065
 20
326.2795939112537
 30
0.0
 10
261.7160378307423
 20
326.0869345201082
 30
0.0
 10
261.7568256341856
 20
325.9874459361248
 30
0.0
 10
261.77460762784
 20
325.944072544578
 30
0.0
  0
LINE
  5
97
330
1F
100
AcDbEntity
  8
0
  6
Continuous
 62
     7
370
    25
100
AcDbLine
 10
262.706100273
 20
324.009808136
 30
0.0
 11
261.7746076278
 21
325.9440725446
 31
0.0
  0
SPLINE
  5
98
330
1F
100
AcDbEntity
  8
0
  6
Continuous
 62
     7
370
    25
100
AcDbSpline
210
0.0
220
0.0
230
1.0
 70
     8
 71
     3
 72
    12
 73
     8
 74
     0
 42
0.00000001
 43
0.00000001
 40
0.0
 40
0.0
 40
0.0
 40
0.0
 40
0.1369201212178436
 40
0.2732892266835572
 40
0.4609277195254602
 40
0.7173042691150365
 40
1.0
 40
1.0
 40
1.0
 40
1.0
 10
262.7061002729994
 20
324.0098081360202
 30
0.0
 10
262.7374478257457
 20
323.9560218887897
 30
0.0
 10
262.8000167774252
 20
323.8486658495085
 30
0.0
 10
262.9518935184478
 20
323.7179874672063
 30
0.0
 10
263.157849399202
 20
323.6219255789338
 30
0.0
 10
263.4181108510821
 20
323.5962616615245
 30
0.0
 10
263.5836142142925
 20
323.6630973159992
 30
0.0
 10
263.6704060897449
 20
323.6981467052468
 30
0.0
  0
SPLINE
  5
99
330
1F
100
AcDbEntity
  8
0
  6
Continuous
 62
     7
370
    25
100
AcDbSpline
210
0.0
220
0.0
230
1.0
 70
     8
 71
     3
 72
    11
 73
     7
 74
     0
 42
0.00000001
 43
0.00000001
 40
0.0
 40
0.0
 40
0.0
 40
0.0
 40
0.260329670063952
 40
0.5282089223352272
 40
0.7614183595322386
 40
1.0
 40
1.0
 40
1.0
 40
1.0
 10
278.28052984978
 20
331.6190089662236
 30
0.0
 10
276.8767650400986
 20
330.8579594440648
 30
0.0
 10
274.0285261238361
 20
329.3137898999458
 30
0.0
 10
270.1440764810565
 20
327.2078398695764
 30
0.0
 10
266.6186693031755
 20
325.2965443099419
 30
0.0
 10
264.6605925876726
 20
324.2349752079663
 30
0.0
 10
263.6704060897449
 20
323.6981467052468
 30
0.0
  0
SPLINE
  5
9A
330
1F
100
AcDbEntity
  8
0
  6
Continuous
 62
     7
370
    25
100
AcDbSpline
210
0.0
220
0.0
230
1.0
 70
     8
 71
     3
 72
    12
 73
     8
 74
     0
 42
0.00000001
 43
0.00000001
 40
0.0
 40
0.0
 40
0.0
 40
0.0
 40
0.2229001245800055
 40
0.4458326905764265
 40
0.667931358390612
 40
0.8889145851688915
 40
1.0
 40
1.0
 40
1.0
 40
1.0
 10
278.28052984978
 20
331.6190089662236
 30
0.0
 10
278.3462232230013
 20
331.663472942463
 30
0.0
 10
278.4776195306143
 20
331.7524073663351
 30
0.0
 10
278.6046916385141
 20
331.9595920897165
 30
0.0
 10
278.658728157337
 20
332.1922500173499
 30
0.0
 10
278.6385875029391
 20
332.3929418748871
 30
0.0
 10
278.5928730826015
 20
332.5017189424822
 30
0.0
 10
278.5775804451445
 20
332.5381076409734
 30
0.0
  0
LINE
  5
9B
330
1F
100
AcDbEntity
  8
0
  6
Continuous
 62
     7
370
    25
100
AcDbLine
 10
278.3380066973
 20
333.0355876544
 30
0.0
 11
278.5775804451
 21
332.538107641
 31
0.0
  0
SPLINE
  5
9C
330
1F
100
AcDbEntity
  8
0
  6
Continuous
 62
     7
370
    25
100
AcDbSpline
210
0.0
220
0.0
230
1.0
 70
     8
 71
     3
 72
    12
 73
     8
 74
     0
 42
0.00000001
 43
0.00000001
 40
0.0
 40
0.0
 40
0.0
 40
0.0
 40
0.2201335749264428
 40
0.4402546066784633
 40
0.6607438481110233
 40
0.8821597119404094
 40
1.0
 40
1.0
 40
1.0
 40
1.0
 10
278.3380066973429
 20
333.0355876544438
 30
0.0
 10
278.2970443227551
 20
333.1029232636146
 30
0.0
 10
278.2151219076088
 20
333.2375906451844
 30
0.0
 10
278.0164074163428
 20
333.3739938106077
 30
0.0
 10
277.7886918341727
 20
333.440125389741
 30
0.0
 10
277.5860468590845
 20
333.4313451711453
 30
0.0
 10
277.4733600546562
 20
333.3905596127897
 30
0.0
 10
277.4342184048427
 20
333.376392789525
 30
0.0
  0
SPLINE
  5
9D
330
1F
100
AcDbEntity
  8
0
  6
Continuous
 62
     7
370
    25
100
AcDbSpline
210
0.0
220
0.0
230
1.0
 70
    24
 71
     3
 72
    11
 73
     7
 74
     0
 42
0.00000001
 43
0.00000001
 40
0.0
 40
0.0
 40
0.0
 40
0.0
 40
0.2832270505253224
 40
0.5762690817459303
 40
0.7861908663395996
 40
1.0
 40
1.0
 40
1.0
 40
1.0
 10
262.1321757535067
 20
326.892314913442
 30
0.0
 10
263.3728075853532
 20
327.4180194612724
 30
0.0
 10
265.897064238088
 20
328.4876463789201
 30
0.0
 10
269.9427537963188
 20
330.2019643139086
 30
0.0
 10
273.8313928673415
 20
331.8497337747825
 30
0.0
 10
276.2259539129264
 20
332.8644035578575
 30
0.0
 10
277.4342184048427
 20
333.376392789525
 30
0.0
  0
SPLINE
  5
9E
330
1F
100
AcDbEntity
  8
0
  6
Continuous
 62
     7
370
    25
100
AcDbSpline
210
0.0
220
0.0
230
1.0
 70
     8
 71
     3
 72
    13
 73
     9
 74
     0
 42
0.00000001
 43
0.00000001
 40
0.0
 40
0.0
 40
0.0
 40
0.0
 40
0.3201770901877956
 40
0.4946667587106306
 40
0.6890181118666847
 40
0.8387695944500696
 40
0.9672348183767355
 40
1.0
 40
1.0
 40
1.0
 40
1.0
 10
271.5785643235321
 20
313.7816299356303
 30
0.0
 10
271.5186502691348
 20
313.6935418549465
 30
0.0
 10
271.4260843360987
 20
313.5574476536801
 30
0.0
 10
271.395291719801
 20
313.3147851680243
 30
0.0
 10
271.4229844190782
 20
313.1173926895076
 30
0.0
 10
271.5092172008082
 20
312.936035480433
 30
0.0
 10
271.6005873561013
 20
312.8279720957876
 30
0.0
 10
271.6564758979356
 20
312.7815782136464
 30
0.0
 10
271.6678335461261
 20
312.7721500665833
 30
0.0
  0
LINE
  5
9F
330
1F
100
AcDbEntity
  8
0
  6
Continuous
 62
     7
370
    25
100
AcDbLine
 10
273.3463252415
 20
311.433597606
 30
0.0
 11
271.6678335461
 21
312.7721500666
 31
0.0
  0
SPLINE
  5
A0
330
1F
100
AcDbEntity
  8
0
  6
Continuous
 62
     7
370
    25
100
AcDbSpline
210
0.0
220
0.0
230
1.0
 70
     8
 71
     3
 72
    12
 73
     8
 74
     0
 42
0.00000001
 43
0.00000001
 40
0.0
 40
0.0
 40
0.0
 40
0.0
 40
0.1369201143547415
 40
0.273289213193548
 40
0.4609276901286932
 40
0.7173042183016193
 40
0.9999999999999999
 40
0.9999999999999999
 40
0.9999999999999999
 40
0.9999999999999999
 10
273.3463252414614
 20
311.4335976060249
 30
0.0
 10
273.397905385602
 20
311.3987390631821
 30
0.0
 10
273.5008580969333
 20
311.3291622607416
 30
0.0
 10
273.6943935303893
 20
311.2773219450552
 30
0.0
 10
273.9216330517252
 20
311.280134067481
 30
0.0
 10
274.1672556958578
 20
311.3699348757552
 30
0.0
 10
274.287370182727
 20
311.5019609462801
 30
0.0
 10
274.3503596150109
 20
311.57119695141
 30
0.0
  0
SPLINE
  5
A1
330
1F
100
AcDbEntity
  8
0
  6
Continuous
 62
     7
370
    25
100
AcDbSpline
210
0.0
220
0.0
230
1.0
 70
    24
 71
     3
 72
    11
 73
     7
 74
     0
 42
0.00000001
 43
0.00000001
 40
0.0
 40
0.0
 40
0.0
 40
0.0
 40
0.2603296700649063
 40
0.5282089223371705
 40
0.76141835950209
 40
1.0
 40
1.0
 40
1.0
 40
1.0
 10
284.076892944214
 20
325.0467423813058
 30
0.0
 10
283.1423515650679
 20
323.7519897305128
 30
0.0
 10
281.24616702861
 20
321.1249364937534
 30
0.0
 10
278.66013630538
 20
317.542141543661
 30
0.0
 10
276.3131342554769
 20
314.2905068987895
 30
0.0
 10
275.0095656651285
 20
312.4844885400114
 30
0.0
 10
274.3503596150109
 20
311.57119695141
 30
0.0
  0
SPLINE
  5
A2
330
1F
100
AcDbEntity
  8
0
  6
Continuous
 62
     7
370
    25
100
AcDbSpline
210
0.0
220
0.0
230
1.0
 70
     8
 71
     3
 72
    12
 73
     8
 74
     0
 42
0.00000001
 43
0.00000001
 40
0.0
 40
0.0
 40
0.0
 40
0.0
 40
0.2229001236196578
 40
0.4458326887124969
 40
0.6679313556061689
 40
0.888914581468384
 40
1.0
 40
1.0
 40
1.0
 40
1.0
 10
284.076892944214
 20
325.0467423813058
 30
0.0
 10
284.1167884321704
 20
325.1153063259753
 30
0.0
 10
284.1965852145779
 20
325.2524441942923
 30
0.0
 10
284.2211791451692
 20
325.4942457013153
 30
0.0
 10
284.1689178748366
 20
325.727308817853
 30
0.0
 10
284.0636948377329
 20
325.8993872322451
 30
0.0
 10
283.9753109661643
 20
325.9775572409354
 30
0.0
 10
283.9457443102021
 20
326.0037070996424
 30
0.0
  0
LINE
  5
A3
330
1F
100
AcDbEntity
  8
0
  6
Continuous
 62
     7
370
    25
100
AcDbLine
 10
283.5140473488
 20
326.3479739385
 30
0.0
 11
283.9457443102
 21
326.0037070996
 31
0.0
  0
SPLINE
  5
A4
330
1F
100
AcDbEntity
  8
0
  6
Continuous
 62
     7
370
    25
100
AcDbSpline
210
0.0
220
0.0
230
1.0
 70
     8
 71
     3
 72
    12
 73
     8
 74
     0
 42
0.00000001
 43
0.00000001
 40
0.0
 40
0.0
 40
0.0
 40
0.0
 40
0.2201335711101296
 40
0.4402545990408485
 40
0.6607438366209012
 40
0.8821596965545099
 40
1.0
 40
1.0
 40
1.0
 40
1.0
 10
283.5140473487662
 20
326.347973938509
 30
0.0
 10
283.4479256996534
 20
326.3908683193903
 30
0.0
 10
283.31568616903
 20
326.4766546370373
 30
0.0
 10
283.0774674842152
 20
326.5133306618512
 30
0.0
 10
282.8436094163462
 20
326.474111073064
 30
0.0
 10
282.6648421882903
 20
326.3782760117417
 30
0.0
 10
282.5810110719151
 20
326.2926365168413
 30
0.0
 10
282.5518924139269
 20
326.2628897203043
 30
0.0
  0
SPLINE
  5
A5
330
1F
100
AcDbEntity
  8
0
  6
Continuous
 62
     7
370
    25
100
AcDbSpline
210
0.0
220
0.0
230
1.0
 70
     8
 71
     3
 72
    11
 73
     7
 74
     0
 42
0.00000001
 43
0.00000001
 40
0.0
 40
0.0
 40
0.0
 40
0.0
 40
0.2832270505409902
 40
0.5762690817789515
 40
0.7861908663567672
 40
1.0
 40
1.0
 40
1.0
 40
1.0
 10
271.5785643235321
 20
313.7816299356303
 30
0.0
 10
272.4682403257485
 20
314.7935633449615
 30
0.0
 10
274.2784232581298
 20
316.8524978129187
 30
0.0
 10
277.1796489236937
 20
320.1524038148199
 30
0.0
 10
279.968251290499
 20
323.3242100603874
 30
0.0
 10
281.6854275249684
 20
325.2773570462322
 30
0.0
 10
282.5518924139269
 20
326.2628897203043
 30
0.0
  0
SPLINE
  5
A6
330
1F
100
AcDbEntity
  8
0
  6
Continuous
 62
     7
370
    25
100
AcDbSpline
210
0.0
220
0.0
230
1.0
 70
     8
 71
     3
 72
    13
 73
     9
 74
     0
 42
0.00000001
 43
0.00000001
 40
0.0
 40
0.0
 40
0.0
 40
0.0
 40
0.192325584313047
 40
0.4540879704407446
 40
0.6566903155945601
 40
0.8131117782652111
 40
0.9441977497085071
 40
1.0
 40
1.0
 40
1.0
 40
1.0
 10
285.7779793606304
 20
306.0679453267636
 30
0.0
 10
285.7658260393368
 20
306.0056583304403
 30
0.0
 10
285.7371315886217
 20
305.8585963789773
 30
0.0
 10
285.7814938081985
 20
305.6340931802707
 30
0.0
 10
285.8996090228722
 20
305.4319538989777
 30
0.0
 10
286.0521807771638
 20
305.2953082778854
 30
0.0
 10
286.1904760754946
 20
305.2250280296308
 30
0.0
 10
286.2720486108915
 20
305.2035737969646
 30
0.0
 10
286.2964050470269
 20
305.1971678584312
 30
0.0
  0
LINE
  5
A7
330
1F
100
AcDbEntity
  8
0
  6
Continuous
 62
     7
370
    25
100
AcDbLine
 10
288.3894500002
 20
304.7194440064
 30
0.0
 11
286.296405047
 21
305.1971678584
 31
0.0
  0
SPLINE
  5
A8
330
1F
100
AcDbEntity
  8
0
  6
Continuous
 62
     7
370
    25
100
AcDbSpline
210
0.0
220
0.0
230
1.0
 70
     8
 71
     3
 72
    12
 73
     8
 74
     0
 42
0.00000001
 43
0.00000001
 40
0.0
 40
0.0
 40
0.0
 40
0.0
 40
0.1369201225725676
 40
0.2732892293761389
 40
0.4609277253892924
 40
0.7173042792486576
 40
1.0
 40
1.0
 40
1.0
 40
1.0
 10
288.3894500002214
 20
304.7194440063869
 30
0.0
 10
288.451046661436
 20
304.7104173339367
 30
0.0
 10
288.5739920967687
 20
304.6924003156094
 30
0.0
 10
288.7708541697036
 20
304.7296656968993
 30
0.0
 10
288.9743697694535
 20
304.8307948838894
 30
0.0
 10
289.1567049840125
 20
305.0182742902411
 30
0.0
 10
289.2076404229208
 20
305.1893413763062
 30
0.0
 10
289.2343515547896
 20
305.2790509300519
 30
0.0
  0
SPLINE
  5
A9
330
1F
100
AcDbEntity
  8
0
  6
Continuous
 62
     7
370
    25
100
AcDbSpline
210
0.0
220
0.0
230
1.0
 70
    24
 71
     3
 72
    11
 73
     7
 74
     0
 42
0.00000001
 43
0.00000001
 40
0.0
 40
0.0
 40
0.0
 40
0.0
 40
0.260329670061363
 40
0.5282089223299624
 40
0.7614183594635675
 40
1.0
 40
1.0
 40
1.0
 40
1.0
 10
292.15083523856
 20
321.6402824902634
 30
0.0
 10
291.870614671593
 20
320.0682683523117
 30
0.0
 10
291.3020471177778
 20
316.8786515349155
 30
0.0
 10
290.5266304144075
 20
312.5286281452492
 30
0.0
 10
289.8228860326839
 20
308.5806805351637
 30
0.0
 10
289.4320133141021
 20
306.3879170047796
 30
0.0
 10
289.2343515547896
 20
305.2790509300519
 30
0.0
  0
SPLINE
  5
AA
330
1F
100
AcDbEntity
  8
0
  6
Continuous
 62
     7
370
    25
100
AcDbSpline
210
0.0
220
0.0
230
1.0
 70
     8
 71
     3
 72
    12
 73
     8
 74
     0
 42
0.00000001
 43
0.00000001
 40
0.0
 40
0.0
 40
0.0
 40
0.0
 40
0.2229001220213935
 40
0.4458326855483576
 40
0.6679313506030415
 40
0.8889145746355196
 40
1.0
 40
1.0
 40
1.0
 40
1.0
 10
292.15083523856
 20
321.6402824902634
 30
0.0
 10
292.1570310504928
 20
321.7193664734491
 30
0.0
 10
292.1694235761142
 20
321.8775459499239
 30
0.0
 10
292.0866681996181
 20
322.1060724866684
 30
0.0
 10
291.9384601253007
 20
322.2933797833517
 30
0.0
 10
291.7689954164064
 20
322.4027625143998
 30
0.0
 10
291.6554476009564
 20
322.4348429333517
 30
0.0
 10
291.6174629631373
 20
322.445574651
 30
0.0
  0
LINE
  5
AB
330
1F
100
AcDbEntity
  8
0
  6
Continuous
 62
     7
370
    25
100
AcDbLine
 10
291.0791456478
 20
322.5684420658
 30
0.0
 11
291.6174629631
 21
322.445574651
 31
0.0
  0
SPLINE
  5
AC
330
1F
100
AcDbEntity
  8
0
  6
Continuous
 62
     7
370
    25
100
AcDbSpline
210
0.0
220
0.0
230
1.0
 70
     8
 71
     3
 72
    12
 73
     8
 74
     0
 42
0.00000001
 43
0.00000001
 40
0.0
 40
0.0
 40
0.0
 40
0.0
 40
0.2201335757473296
 40
0.4402546082627258
 40
0.6607438504652243
 40
0.8821597150738284
 40
1.0
 40
1.0
 40
1.0
 40
1.0
 10
291.0791456478189
 20
322.5684420658008
 30
0.0
 10
291.0009609257819
 20
322.5783994568305
 30
0.0
 10
290.8445959366807
 20
322.5983136715167
 30
0.0
 10
290.6140551892015
 20
322.5279984077579
 30
0.0
 10
290.4203730961116
 20
322.3911955607292
 30
0.0
 10
290.3008906736998
 20
322.2272869631148
 30
0.0
 10
290.2625190344257
 20
322.1137554932081
 30
0.0
 10
290.2491906838229
 20
322.0743204504528
 30
0.0
  0
SPLINE
  5
AD
330
1F
100
AcDbEntity
  8
0
  6
Continuous
 62
     7
370
    25
100
AcDbSpline
210
0.0
220
0.0
230
1.0
 70
     8
 71
     3
 72
    11
 73
     7
 74
     0
 42
0.00000001
 43
0.00000001
 40
0.0
 40
0.0
 40
0.0
 40
0.0
 40
0.2832270505044767
 40
0.5762690817061535
 40
0.7861908663338465
 40
1.0
 40
1.0
 40
1.0
 40
1.0
 10
285.7779793606304
 20
306.0679453267636
 30
0.0
 10
286.1404882896245
 20
307.3656817754667
 30
0.0
 10
286.8780685710618
 20
310.0061265714659
 30
0.0
 10
288.0602070198721
 20
314.2380337865862
 30
0.0
 10
289.1964557836891
 20
318.3056616917855
 30
0.0
 10
289.8961393950674
 20
320.8104411666387
 30
0.0
 10
290.2491906838229
 20
322.0743204504528
 30
0.0
  0
SPLINE
  5
AE
330
1F
100
AcDbEntity
  8
0
  6
Continuous
 62
     7
370
    25
100
AcDbSpline
210
0.0
220
0.0
230
1.0
 70
     8
 71
     3
 72
    12
 73
     8
 74
     0
 42
0.00000001
 43
0.00000001
 40
0.0
 40
0.0
 40
0.0
 40
0.0
 40
0.3203291957399238
 40
0.5619245719158917
 40
0.7389290157734856
 40
0.8801315585623868
 40
1.0
 40
1.0
 40
1.0
 40
1.0
 10
301.9180525720853
 20
305.279050928492
 30
0.0
 10
301.9497238422572
 20
305.177505081767
 30
0.0
 10
302.0052818905716
 20
304.9993723757582
 30
0.0
 10
302.2014347075256
 20
304.8155666790622
 30
0.0
 10
302.4024010498634
 20
304.723183919088
 30
0.0
 10
302.5922167093219
 20
304.692725517603
 30
0.0
 10
302.7092289756928
 20
304.71103662352
 30
0.0
 10
302.7629541265001
 20
304.7194440064154
 30
0.0
  0
LINE
  5
AF
330
1F
100
AcDbEntity
  8
0
  6
Continuous
 62
     7
370
    25
100
AcDbLine
 10
304.8559990796
 20
305.1971678584
 30
0.0
 11
302.7629541265
 21
304.7194440064
 31
0.0
  0
SPLINE
  5
B0
330
1F
100
AcDbEntity
  8
0
  6
Continuous
 62
     7
370
    25
100
AcDbSpline
210
0.0
220
0.0
230
1.0
 70
     8
 71
     3
 72
    12
 73
     8
 74
     0
 42
0.00000001
 43
0.00000001
 40
0.0
 40
0.0
 40
0.0
 40
0.0
 40
0.1369201157522421
 40
0.2732892159078072
 40
0.4609276959964257
 40
0.7173042284140195
 40
0.9999999999999999
 40
0.9999999999999999
 40
0.9999999999999999
 40
0.9999999999999999
 10
304.8559990795985
 20
305.1971678584378
 30
0.0
 10
304.9154122797287
 20
305.2157608938086
 30
0.0
 10
305.0339995799874
 20
305.2528721395149
 30
0.0
 10
305.1951973393111
 20
305.3718623284636
 30
0.0
 10
305.3346802561745
 20
305.5512786727971
 30
0.0
 10
305.4176143660792
 20
305.7993040751024
 30
0.0
 10
305.3892823850959
 20
305.9755302679602
 30
0.0
 10
305.3744247655054
 20
306.0679453284142
 30
0.0
  0
SPLINE
  5
B1
330
1F
100
AcDbEntity
  8
0
  6
Continuous
 62
     7
370
    25
100
AcDbSpline
210
0.0
220
0.0
230
1.0
 70
     8
 71
     3
 72
    11
 73
     7
 74
     0
 42
0.00000001
 43
0.00000001
 40
0.0
 40
0.0
 40
0.0
 40
0.0
 40
0.2603296700661943
 40
0.5282089223397701
 40
0.7614183594655066
 40
1.0
 40
1.0
 40
1.0
 40
1.0
 10
300.9032134428172
 20
322.0743204502983
 30
0.0
 10
301.3328148079738
 20
320.5364015047344
 30
0.0
 10
302.2044760138109
 20
317.415963835545
 30
0.0
 10
303.3932541177975
 20
313.1602874882085
 30
0.0
 10
304.4721526097096
 20
309.2979663557725
 30
0.0
 10
305.0713928983956
 20
307.1527613636167
 30
0.0
 10
305.3744247655054
 20
306.0679453284142
 30
0.0
  0
SPLINE
  5
B2
330
1F
100
AcDbEntity
  8
0
  6
Continuous
 62
     7
370
    25
100
AcDbSpline
210
0.0
220
0.0
230
1.0
 70
     8
 71
     3
 72
    12
 73
     8
 74
     0
 42
0.00000001
 43
0.00000001
 40
0.0
 40
0.0
 40
0.0
 40
0.0
 40
0.2229001272209514
 40
0.4458326959109561
 40
0.6679313662889979
 40
0.8889145956180607
 40
1.0
 40
1.0
 40
1.0
 40
1.0
 10
300.9032134428172
 20
322.0743204502983
 30
0.0
 10
300.8744824221345
 20
322.1482609190849
 30
0.0
 10
300.8170161991812
 20
322.2961526181479
 30
0.0
 10
300.6433022333056
 20
322.4661417010328
 30
0.0
 10
300.4285017821978
 20
322.5705946709716
 30
0.0
 10
300.2283599756366
 20
322.5956171231641
 30
0.0
 10
300.1121377645463
 20
322.5752540362986
 30
0.0
 10
300.0732584787407
 20
322.5684420657923
 30
0.0
  0
LINE
  5
B3
330
1F
100
AcDbEntity
  8
0
  6
Continuous
 62
     7
370
    25
100
AcDbLine
 10
299.5349411635
 20
322.445574651
 30
0.0
 11
300.0732584787
 21
322.5684420658
 31
0.0
  0
SPLINE
  5
B4
330
1F
100
AcDbEntity
  8
0
  6
Continuous
 62
     7
370
    25
100
AcDbSpline
210
0.0
220
0.0
230
1.0
 70
     8
 71
     3
 72
    12
 73
     8
 74
     0
 42
0.00000001
 43
0.00000001
 40
0.0
 40
0.0
 40
0.0
 40
0.0
 40
0.2201364054726596
 40
0.4402602676309895
 40
0.6607523441707688
 40
0.8834152975165235
 40
1.0
 40
1.0
 40
1.0
 40
1.0
 10
299.5349411634692
 20
322.4455746510021
 30
0.0
 10
299.4601786952173
 20
322.4206229694928
 30
0.0
 10
299.3106580186594
 20
322.3707210282145
 30
0.0
 10
299.1334583779276
 20
322.207339852645
 30
0.0
 10
299.0180902689769
 20
321.999665140323
 30
0.0
 10
298.981750905317
 20
321.8000660072025
 30
0.0
 10
298.9965001964982
 20
321.6811490795604
 30
0.0
 10
299.0015688880414
 20
321.640282490238
 30
0.0
  0
SPLINE
  5
B5
330
1F
100
AcDbEntity
  8
0
  6
Continuous
 62
     7
370
    25
100
AcDbSpline
210
0.0
220
0.0
230
1.0
 70
    24
 71
     3
 72
    13
 73
     9
 74
     0
 42
0.00000001
 43
0.00000001
 40
0.0
 40
0.0
 40
0.0
 40
0.0
 40
0.1410914836997421
 40
0.2833438241783616
 40
0.4292927421735212
 40
0.5765278953367665
 40
0.7863214603251654
 40
0.9999999999999999
 40
0.9999999999999999
 40
0.9999999999999999
 40
0.9999999999999999
 10
301.9180525720853
 20
305.279050928492
 30
0.0
 10
301.8030510142365
 20
305.9242001291873
 30
0.0
 10
301.5721017015431
 20
307.2198066172419
 30
0.0
 10
301.1885243504378
 20
309.3716437415548
 30
0.0
 10
300.7780052539804
 20
311.6746218224989
 30
0.0
 10
300.2795596259326
 20
314.4708604526997
 30
0.0
 10
299.6880044720614
 20
317.7894357999382
 30
0.0
 10
299.231775911259
 20
320.3488401843925
 30
0.0
 10
299.0015688880414
 20
321.640282490238
 30
0.0
  0
SPLINE
  5
B6
330
1F
100
AcDbEntity
  8
0
  6
Continuous
 62
     7
370
    25
100
AcDbSpline
210
0.0
220
0.0
230
1.0
 70
     8
 71
     3
 72
    12
 73
     8
 74
     0
 42
0.00000001
 43
0.00000001
 40
0.0
 40
0.0
 40
0.0
 40
0.0
 40
0.3203291896136274
 40
0.5619245569549224
 40
0.7389289952628318
 40
0.8801315335581921
 40
1.0
 40
1.0
 40
1.0
 40
1.0
 10
316.8020445124324
 20
311.5711969502371
 30
0.0
 10
316.8746384333987
 20
311.4934489519504
 30
0.0
 10
317.0019833903968
 20
311.3570626627582
 30
0.0
 10
317.2584612759405
 20
311.2765669705875
 30
0.0
 10
317.4796090704436
 20
311.2805290086368
 30
0.0
 10
317.663842487625
 20
311.3354448688758
 30
0.0
 10
317.7613220139327
 20
311.4027123369102
 30
0.0
 10
317.8060788851131
 20
311.4335976060071
 30
0.0
  0
LINE
  5
B7
330
1F
100
AcDbEntity
  8
0
  6
Continuous
 62
     7
370
    25
100
AcDbLine
 10
319.4845705806
 20
312.7721500667
 30
0.0
 11
317.8060788851
 21
311.433597606
 31
0.0
  0
SPLINE
  5
B8
330
1F
100
AcDbEntity
  8
0
  6
Continuous
 62
     7
370
    25
100
AcDbSpline
210
0.0
220
0.0
230
1.0
 70
     8
 71
     3
 72
    12
 73
     8
 74
     0
 42
0.00000001
 43
0.00000001
 40
0.0
 40
0.0
 40
0.0
 40
0.0
 40
0.1369201147335103
 40
0.2732892139410068
 40
0.4609276917773917
 40
0.7173042211628335
 40
1.0
 40
1.0
 40
1.0
 40
1.0
 10
319.4845705806308
 20
312.7721500667109
 30
0.0
 10
319.5300328088068
 20
312.8146802336286
 30
0.0
 10
319.6207743088879
 20
312.8995694108568
 30
0.0
 10
319.7143805645648
 20
313.0767169519972
 30
0.0
 10
319.7622044977001
 20
313.298884860762
 30
0.0
 10
319.7293113623691
 20
313.5583317911133
 30
0.0
 10
319.6273234490326
 20
313.7048133206416
 30
0.0
 10
319.5738398028633
 20
313.7816299358593
 30
0.0
  0
SPLINE
  5
B9
330
1F
100
AcDbEntity
  8
0
  6
Continuous
 62
     7
370
    25
100
AcDbSpline
210
0.0
220
0.0
230
1.0
 70
     8
 71
     3
 72
    11
 73
     7
 74
     0
 42
0.00000001
 43
0.00000001
 40
0.0
 40
0.0
 40
0.0
 40
0.0
 40
0.2603296700654325
 40
0.5282089223382272
 40
0.7614183595481319
 40
1.0
 40
1.0
 40
1.0
 40
1.0
 10
308.6005117115546
 20
326.2628897215729
 30
0.0
 10
309.6548471895724
 20
325.0636696767651
 30
0.0
 10
311.794093962661
 20
322.6304521055403
 30
0.0
 10
314.711614791851
 20
319.3120116933111
 30
0.0
 10
317.3594670792719
 20
316.300297106932
 30
0.0
 10
318.8301334871575
 20
314.6275348110105
 30
0.0
 10
319.5738398028633
 20
313.7816299358593
 30
0.0
  0
SPLINE
  5
BA
330
1F
100
AcDbEntity
  8
0
  6
Continuous
 62
     7
370
    25
100
AcDbSpline
210
0.0
220
0.0
230
1.0
 70
     8
 71
     3
 72
    12
 73
     8
 74
     0
 42
0.00000001
 43
0.00000001
 40
0.0
 40
0.0
 40
0.0
 40
0.0
 40
0.2229001214508805
 40
0.4458326844630791
 40
0.6679313492014248
 40
0.8889145729193731
 40
1.0
 40
1.0
 40
1.0
 40
1.0
 10
308.6005117115546
 20
326.2628897215729
 30
0.0
 10
308.542544389498
 20
326.3170418595121
 30
0.0
 10
308.4266013086444
 20
326.4253540168572
 30
0.0
 10
308.1963349344693
 20
326.5031372232555
 30
0.0
 10
307.9574859702142
 20
326.5040476743497
 30
0.0
 10
307.766307589018
 20
326.4397538469217
 30
0.0
 10
307.6704302019812
 20
326.3709804037435
 30
0.0
 10
307.6383567724034
 20
326.347973934181
 30
0.0
  0
LINE
  5
BB
330
1F
100
AcDbEntity
  8
0
  6
Continuous
 62
     7
370
    25
100
AcDbLine
 10
307.2066598163
 20
326.0037070996
 30
0.0
 11
307.6383567724
 21
326.3479739342
 31
0.0
  0
SPLINE
  5
BC
330
1F
100
AcDbEntity
  8
0
  6
Continuous
 62
     7
370
    25
100
AcDbSpline
210
0.0
220
0.0
230
1.0
 70
     8
 71
     3
 72
    12
 73
     8
 74
     0
 42
0.00000001
 43
0.00000001
 40
0.0
 40
0.0
 40
0.0
 40
0.0
 40
0.2200858061118067
 40
0.4401590717532092
 40
0.5885344628988619
 40
0.8110242970584948
 40
1.0
 40
1.0
 40
1.0
 40
1.0
 10
307.2066598163321
 20
326.0037070995925
 30
0.0
 10
307.1501201040721
 20
325.9488216403631
 30
0.0
 10
307.0370439011801
 20
325.8390538492731
 30
0.0
 10
306.9580603458974
 20
325.6389670832024
 30
0.0
 10
306.9344663200672
 20
325.4307571979634
 30
0.0
 10
306.9656557655013
 20
325.2293031002953
 30
0.0
 10
307.0409366007895
 20
325.1041993611496
 30
0.0
 10
307.0755111823373
 20
325.0467423813689
 30
0.0
  0
SPLINE
  5
BD
330
1F
100
AcDbEntity
  8
0
  6
Continuous
 62
     7
370
    25
100
AcDbSpline
210
0.0
220
0.0
230
1.0
 70
    24
 71
     3
 72
    11
 73
     7
 74
     0
 42
0.00000001
 43
0.00000001
 40
0.0
 40
0.0
 40
0.0
 40
0.0
 40
0.2832270505644777
 40
0.5762690817601862
 40
0.7861908663719662
 40
1.0
 40
1.0
 40
1.0
 40
1.0
 10
316.8020445124324
 20
311.5711969502371
 30
0.0
 10
316.0134539208963
 20
312.6637432852932
 30
0.0
 10
314.4089448347636
 20
314.8866971734492
 30
0.0
 10
311.8373578102987
 20
318.4494812201858
 30
0.0
 10
309.3655977719222
 20
321.8739607918258
 30
0.0
 10
307.843527918255
 20
323.9826999249558
 30
0.0
 10
307.0755111823373
 20
325.0467423813689
 30
0.0
  0
SPLINE
  5
BE
330
1F
100
AcDbEntity
  8
0
  6
Continuous
 62
     7
370
    25
100
AcDbSpline
210
0.0
220
0.0
230
1.0
 70
     8
 71
     3
 72
    12
 73
     8
 74
     0
 42
0.00000001
 43
0.00000001
 40
0.0
 40
0.0
 40
0.0
 40
0.0
 40
0.3203292008043736
 40
0.5619245726364814
 40
0.7389290150957722
 40
0.8801315566607187
 40
1.0
 40
1.0
 40
1.0
 40
1.0
 10
327.4819980380416
 20
323.6981467046019
 30
0.0
 10
327.5811364941248
 20
323.6595955001319
 30
0.0
 10
327.7550461296702
 20
323.5919686055434
 30
0.0
 10
328.0210504922536
 20
323.6307260780478
 30
0.0
 10
328.2185787058102
 20
323.7302481831699
 30
0.0
 10
328.3607401709652
 20
323.8596615402536
 30
0.0
 10
328.4193799263845
 20
323.9625622030381
 30
0.0
 10
328.4463038536164
 20
324.0098081360593
 30
0.0
  0
LINE
  5
BF
330
1F
100
AcDbEntity
  8
0
  6
Continuous
 62
     7
370
    25
100
AcDbLine
 10
329.3777964988
 20
325.9440725446
 30
0.0
 11
328.4463038536
 21
324.0098081361
 31
0.0
  0
SPLINE
  5
C0
330
1F
100
AcDbEntity
  8
0
  6
Continuous
 62
     7
370
    25
100
AcDbSpline
210
0.0
220
0.0
230
1.0
 70
     8
 71
     3
 72
    12
 73
     8
 74
     0
 42
0.00000001
 43
0.00000001
 40
0.0
 40
0.0
 40
0.0
 40
0.0
 40
0.1369201213241689
 40
0.2732892270164211
 40
0.4609277204781263
 40
0.7173042709071435
 40
1.0
 40
1.0
 40
1.0
 40
1.0
 10
329.3777964987548
 20
325.9440725445736
 30
0.0
 10
329.4003034008523
 20
326.0021162248307
 30
0.0
 10
329.4452266292082
 20
326.1179699967762
 30
0.0
 10
329.4527015026582
 20
326.3181886532551
 30
0.0
 10
329.399394319295
 20
326.5391050526348
 30
0.0
 10
329.2571888163304
 20
326.7585868392829
 30
0.0
 10
329.1017449386378
 20
326.8463112296433
 30
0.0
 10
329.0202283739642
 20
326.8923149130716
 30
0.0
  0
SPLINE
  5
C1
330
1F
100
AcDbEntity
  8
0
  6
Continuous
 62
     7
370
    25
100
AcDbSpline
210
0.0
220
0.0
230
1.0
 70
    24
 71
     3
 72
    11
 73
     7
 74
     0
 42
0.00000001
 43
0.00000001
 40
0.0
 40
0.0
 40
0.0
 40
0.0
 40
0.2603296700663258
 40
0.528208922340035
 40
0.7614183594802434
 40
1.0
 40
1.0
 40
1.0
 40
1.0
 10
313.718185721852
 20
333.3763927894836
 30
0.0
 10
315.188431241007
 20
332.7533918830064
 30
0.0
 10
318.1715595223523
 20
331.4893229916529
 30
0.0
 10
322.2399722944634
 20
329.7653763363716
 30
0.0
 10
325.9323387580938
 20
328.2007753060468
 30
0.0
 10
327.983147766215
 20
327.3317667939252
 30
0.0
 10
329.0202283739642
 20
326.8923149130716
 30
0.0
  0
SPLINE
  5
C2
330
1F
100
AcDbEntity
  8
0
  6
Continuous
 62
     7
370
    25
100
AcDbSpline
210
0.0
220
0.0
230
1.0
 70
     8
 71
     3
 72
    12
 73
     8
 74
     0
 42
0.00000001
 43
0.00000001
 40
0.0
 40
0.0
 40
0.0
 40
0.0
 40
0.2229001266620388
 40
0.4458326948082997
 40
0.6679313644651717
 40
0.888914593076551
 40
1.0
 40
1.0
 40
1.0
 40
1.0
 10
313.718185721852
 20
333.3763927894836
 30
0.0
 10
313.6424632370823
 20
333.4000311012537
 30
0.0
 10
313.4910072466888
 20
333.4473111651772
 30
0.0
 10
313.2497955436949
 20
333.4174825772713
 30
0.0
 10
313.0342050327235
 20
333.3146701835344
 30
0.0
 10
312.8898553155216
 20
333.1737942613443
 30
0.0
 10
312.8333124547752
 20
333.0702318994249
 30
0.0
 10
312.8143974293181
 20
333.0355876545771
 30
0.0
  0
LINE
  5
C3
330
1F
100
AcDbEntity
  8
0
  6
Continuous
 62
     7
370
    25
100
AcDbLine
 10
312.5748236814
 20
332.5381076409
 30
0.0
 11
312.8143974293
 21
333.0355876546
 31
0.0
  0
SPLINE
  5
C4
330
1F
100
AcDbEntity
  8
0
  6
Continuous
 62
     7
370
    25
100
AcDbSpline
210
0.0
220
0.0
230
1.0
 70
     8
 71
     3
 72
    13
 73
     9
 74
     0
 42
0.00000001
 43
0.00000001
 40
0.0
 40
0.0
 40
0.0
 40
0.0
 40
0.2200615389988277
 40
0.2941794150061746
 40
0.515219500911644
 40
0.7362296893603808
 40
0.9580130281333994
 40
1.0
 40
1.0
 40
1.0
 40
1.0
 10
312.574823681438
 20
332.5381076409432
 30
0.0
 10
312.5472772064199
 20
332.4641780991593
 30
0.0
 10
312.5104529347042
 20
332.3653487014708
 30
0.0
 10
312.5015334761344
 20
332.1821678875166
 30
0.0
 10
312.5321146671794
 20
331.9982200736034
 30
0.0
 10
312.6482587416033
 20
331.7894857790446
 30
0.0
 10
312.7781581409596
 20
331.6722711653728
 30
0.0
 10
312.8590050601555
 20
331.6263229978449
 30
0.0
 10
312.8718742769886
 20
331.6190089661305
 30
0.0
  0
SPLINE
  5
C5
330
1F
100
AcDbEntity
  8
0
  6
Continuous
 62
     7
370
    25
100
AcDbSpline
210
0.0
220
0.0
230
1.0
 70
     8
 71
     3
 72
    11
 73
     7
 74
     0
 42
0.00000001
 43
0.00000001
 40
0.0
 40
0.0
 40
0.0
 40
0.0
 40
0.2832270505631137
 40
0.576269081761377
 40
0.7861908663724584
 40
1.0
 40
1.0
 40
1.0
 40
1.0
 10
327.4819980380416
 20
323.6981467046019
 30
0.0
 10
326.2974643765786
 20
324.3403403047249
 30
0.0
 10
323.8873480969028
 20
325.6469821509754
 30
0.0
 10
320.0245941828811
 20
327.7411698664319
 30
0.0
 10
316.3117893382512
 20
329.754062861396
 30
0.0
 10
314.0255041655706
 20
330.9935698117618
 30
0.0
 10
312.8718742769886
 20
331.6190089661305
 30
0.0
  0
ARC
  5
C6
330
1F
100
AcDbEntity
  8
0
  6
Continuous
 62
     7
370
    25
100
AcDbCircle
 10
295.5762020633
 20
341.030638687
 30
0.0
 40
16.42261912900011
100
AcDbArc
 50
90.0
 51
270.0
  0
ARC
  5
C7
330
1F
100
AcDbEntity
  8
0
  6
Continuous
 62
     7
370
    25
100
AcDbCircle
 10
295.5762020633
 20
341.030638687
 30
0.0
 40
16.42261912900011
100
AcDbArc
 50
270.0
 51
90.0
  0
SPLINE
  5
C8
330
1F
100
AcDbEntity
  8
0
  6
Continuous
 62
     7
370
    25
100
AcDbSpline
210
0.0
220
0.0
230
1.0
 70
     8
 71
     3
 72
    12
 73
     8
 74
     0
 42
0.00000001
 43
0.00000001
 40
0.0
 40
0.0
 40
0.0
 40
0.0
 40
0.3203291947014545
 40
0.5619245601170287
 40
0.7389289982560407
 40
0.8801315363483886
 40
1.0
 40
1.0
 40
1.0
 40
1.0
 10
319.5738398036293
 20
368.2796474389856
 30
0.0
 10
319.6334848310966
 20
368.3677218374193
 30
0.0
 10
319.7381147130341
 20
368.5222227958582
 30
0.0
 10
319.759520510107
 20
368.7901822231551
 30
0.0
 10
319.7064477942612
 20
369.004903743318
 30
0.0
 10
319.6119129973111
 20
369.172298113977
 30
0.0
 10
319.5246408311004
 20
369.2523652042551
 30
0.0
 10
319.4845705804278
 20
369.2891273074247
 30
0.0
  0
LINE
  5
C9
330
1F
100
AcDbEntity
  8
0
  6
Continuous
 62
     7
370
    25
100
AcDbLine
 10
317.806078885
 20
370.627679768
 30
0.0
 11
319.4845705804
 21
369.2891273074
 31
0.0
  0
SPLINE
  5
CA
330
1F
100
AcDbEntity
  8
0
  6
Continuous
 62
     7
370
    25
100
AcDbSpline
210
0.0
220
0.0
230
1.0
 70
     8
 71
     3
 72
    12
 73
     8
 74
     0
 42
0.00000001
 43
0.00000001
 40
0.0
 40
0.0
 40
0.0
 40
0.0
 40
0.1369201143734584
 40
0.2732892132302837
 40
0.460927690213105
 40
0.7173042184500412
 40
0.9999999999999999
 40
0.9999999999999999
 40
0.9999999999999999
 40
0.9999999999999999
 10
317.8060788850457
 20
370.6276797680203
 30
0.0
 10
317.7544987408952
 20
370.6625383108569
 30
0.0
 10
317.6515460295443
 20
370.7321151132849
 30
0.0
 10
317.4580105960644
 20
370.7839554289379
 30
0.0
 10
317.2307710747062
 20
370.7811433064638
 30
0.0
 10
316.9851484306373
 20
370.691342498142
 30
0.0
 10
316.8650339438078
 20
370.5593164276342
 30
0.0
 10
316.802044511568
 20
370.4900804225388
 30
0.0
  0
SPLINE
  5
CB
330
1F
100
AcDbEntity
  8
0
  6
Continuous
 62
     7
370
    25
100
AcDbSpline
210
0.0
220
0.0
230
1.0
 70
    24
 71
     3
 72
    11
 73
     7
 74
     0
 42
0.00000001
 43
0.00000001
 40
0.0
 40
0.0
 40
0.0
 40
0.0
 40
0.2603296700636668
 40
0.5282089223346433
 40
0.7614183595005983
 40
1.0
 40
1.0
 40
1.0
 40
1.0
 10
307.0755111823062
 20
357.0145349925617
 30
0.0
 10
308.0100525614531
 20
358.3092876433556
 30
0.0
 10
309.9062370979125
 20
360.936340880117
 30
0.0
 10
312.4922678211542
 20
364.5191358302259
 30
0.0
 10
314.8392698710782
 20
367.7707704751262
 30
0.0
 10
316.1428384614419
 20
369.5767888339259
 30
0.0
 10
316.802044511568
 20
370.4900804225389
 30
0.0
  0
SPLINE
  5
CC
330
1F
100
AcDbEntity
  8
0
  6
Continuous
 62
     7
370
    25
100
AcDbSpline
210
0.0
220
0.0
230
1.0
 70
     8
 71
     3
 72
    12
 73
     8
 74
     0
 42
0.00000001
 43
0.00000001
 40
0.0
 40
0.0
 40
0.0
 40
0.0
 40
0.2228401656766389
 40
0.4114692604661099
 40
0.6322887730400417
 40
0.8531344551548571
 40
1.0
 40
1.0
 40
1.0
 40
1.0
 10
307.0755111823062
 20
357.0145349925617
 30
0.0
 10
307.035552554331
 20
356.9459836879086
 30
0.0
 10
306.9617698632608
 20
356.8194052744349
 30
0.0
 10
306.932387504594
 20
356.5929266710352
 30
0.0
 10
306.9699664689233
 20
356.3700304193891
 30
0.0
 10
307.0713007649518
 20
356.1810703254095
 30
0.0
 10
307.1680269399372
 20
356.0928184691476
 30
0.0
 10
307.2066598163589
 20
356.0575702743599
 30
0.0
  0
LINE
  5
CD
330
1F
100
AcDbEntity
  8
0
  6
Continuous
 62
     7
370
    25
100
AcDbLine
 10
307.6383567725
 20
355.7133034397
 30
0.0
 11
307.2066598164
 21
356.0575702744
 31
0.0
  0
SPLINE
  5
CE
330
1F
100
AcDbEntity
  8
0
  6
Continuous
 62
     7
370
    25
100
AcDbSpline
210
0.0
220
0.0
230
1.0
 70
     8
 71
     3
 72
    12
 73
     8
 74
     0
 42
0.00000001
 43
0.00000001
 40
0.0
 40
0.0
 40
0.0
 40
0.0
 40
0.2201335700392905
 40
0.4402545968997029
 40
0.6607438333972109
 40
0.8821596922327328
 40
0.9999999999999999
 40
0.9999999999999999
 40
0.9999999999999999
 40
0.9999999999999999
 10
307.6383567725206
 20
355.7133034396993
 30
0.0
 10
307.7044784212139
 20
355.6704090581781
 30
0.0
 10
307.8367179509988
 20
355.5846227392511
 30
0.0
 10
308.0749366354563
 20
355.5479467121188
 30
0.0
 10
308.3087947036813
 20
355.5871662986436
 30
0.0
 10
308.4875619342787
 20
355.6830013590165
 30
0.0
 10
308.5713930522541
 20
355.7686408547912
 30
0.0
 10
308.6005117115894
 20
355.7983876524403
 30
0.0
  0
SPLINE
  5
CF
330
1F
100
AcDbEntity
  8
0
  6
Continuous
 62
     7
370
    25
100
AcDbSpline
210
0.0
220
0.0
230
1.0
 70
     8
 71
     3
 72
    11
 73
     7
 74
     0
 42
0.00000001
 43
0.00000001
 40
0.0
 40
0.0
 40
0.0
 40
0.0
 40
0.2832270505560732
 40
0.5762690817551368
 40
0.7861908663644707
 40
1.0
 40
1.0
 40
1.0
 40
1.0
 10
319.5738398036293
 20
368.2796474389856
 30
0.0
 10
318.6841638011349
 20
367.2677140293382
 30
0.0
 10
316.8739808683591
 20
365.208779560932
 30
0.0
 10
313.9727552025197
 20
361.9088735587178
 30
0.0
 10
311.1841528354
 20
358.7370673127923
 30
0.0
 10
309.4669766006231
 20
356.7839203265978
 30
0.0
 10
308.6005117115894
 20
355.7983876524403
 30
0.0
  0
SPLINE
  5
D0
330
1F
100
AcDbEntity
  8
0
  6
Continuous
 62
     7
370
    25
100
AcDbSpline
210
0.0
220
0.0
230
1.0
 70
     8
 71
     3
 72
    12
 73
     8
 74
     0
 42
0.00000001
 43
0.00000001
 40
0.0
 40
0.0
 40
0.0
 40
0.0
 40
0.3203291954783025
 40
0.5619245703249841
 40
0.7389290134330904
 40
0.8801315555716244
 40
0.9999999999999999
 40
0.9999999999999999
 40
0.9999999999999999
 40
0.9999999999999999
 10
329.0202283751269
 20
355.1689624613948
 30
0.0
 10
329.1121807353352
 20
355.222435743432
 30
0.0
 10
329.2734844542276
 20
355.3162390915401
 30
0.0
 10
329.4090336504776
 20
355.5483745635005
 30
0.0
 10
329.4543809634857
 20
355.7648593579669
 30
0.0
 10
329.4418377516156
 20
355.9566935761567
 30
0.0
 10
329.3979480628754
 20
356.0666974975383
 30
0.0
 10
329.3777964987935
 20
356.1172048293197
 30
0.0
  0
LINE
  5
D1
330
1F
100
AcDbEntity
  8
0
  6
Continuous
 62
     7
370
    25
100
AcDbLine
 10
328.4463038537
 20
358.0514692378
 30
0.0
 11
329.3777964988
 21
356.1172048293
 31
0.0
  0
SPLINE
  5
D2
330
1F
100
AcDbEntity
  8
0
  6
Continuous
 62
     7
370
    25
100
AcDbSpline
210
0.0
220
0.0
230
1.0
 70
     8
 71
     3
 72
    12
 73
     8
 74
     0
 42
0.00000001
 43
0.00000001
 40
0.0
 40
0.0
 40
0.0
 40
0.0
 40
0.1369201211910095
 40
0.2732892266307564
 40
0.4609277194041207
 40
0.7173042689015572
 40
1.0
 40
1.0
 40
1.0
 40
1.0
 10
328.4463038536691
 20
358.0514692378049
 30
0.0
 10
328.4149563009395
 20
358.1052554850373
 30
0.0
 10
328.3523873492932
 20
358.2126115243226
 30
0.0
 10
328.2005106083224
 20
358.343289906653
 30
0.0
 10
327.9945547276273
 20
358.4393517949743
 30
0.0
 10
327.7342932756948
 20
358.4650157124847
 30
0.0
 10
327.5687899124218
 20
358.3981800580126
 30
0.0
 10
327.4819980368908
 20
358.3631306687479
 30
0.0
  0
SPLINE
  5
D3
330
1F
100
AcDbEntity
  8
0
  6
Continuous
 62
     7
370
    25
100
AcDbSpline
210
0.0
220
0.0
230
1.0
 70
     8
 71
     3
 72
    11
 73
     7
 74
     0
 42
0.00000001
 43
0.00000001
 40
0.0
 40
0.0
 40
0.0
 40
0.0
 40
0.2603296700652908
 40
0.5282089223379377
 40
0.7614183595338997
 40
1.0
 40
1.0
 40
1.0
 40
1.0
 10
312.8718742769531
 20
350.4422684078239
 30
0.0
 10
314.2756390866332
 20
351.2033179299821
 30
0.0
 10
317.1238780028933
 20
352.7474874740997
 30
0.0
 10
321.0083276456535
 20
354.8534375044583
 30
0.0
 10
324.5337348235
 20
356.7647330640746
 30
0.0
 10
326.4918115389773
 20
357.826302166036
 30
0.0
 10
327.4819980368908
 20
358.3631306687479
 30
0.0
  0
SPLINE
  5
D4
330
1F
100
AcDbEntity
  8
0
  6
Continuous
 62
     7
370
    25
100
AcDbSpline
210
0.0
220
0.0
230
1.0
 70
     8
 71
     3
 72
    13
 73
     9
 74
     0
 42
0.00000001
 43
0.00000001
 40
0.0
 40
0.0
 40
0.0
 40
0.0
 40
0.2228776829879438
 40
0.4457878041258564
 40
0.6678641110419438
 40
0.70580505730074
 40
0.9258788050832635
 40
0.9999999999999999
 40
0.9999999999999999
 40
0.9999999999999999
 40
0.9999999999999999
 10
312.8718742769531
 20
350.4422684078239
 30
0.0
 10
312.8061661587449
 20
350.3977860057625
 30
0.0
 10
312.6747403590122
 20
350.3088147275648
 30
0.0
 10
312.5478891906707
 20
350.1019060980296
 30
0.0
 10
312.5080977005913
 20
349.9324319165396
 30
0.0
 10
312.5033145877714
 20
349.7624272365867
 30
0.0
 10
312.5221942869737
 20
349.6428026702907
 30
0.0
 10
312.5642323627553
 20
349.5472450729961
 30
0.0
 10
312.5748236814923
 20
349.5231697329176
 30
0.0
  0
LINE
  5
D5
330
1F
100
AcDbEntity
  8
0
  6
Continuous
 62
     7
370
    25
100
AcDbLine
 10
312.8143974293
 20
349.0256897194
 30
0.0
 11
312.5748236815
 21
349.5231697329
 31
0.0
  0
SPLINE
  5
D6
330
1F
100
AcDbEntity
  8
0
  6
Continuous
 62
     7
370
    25
100
AcDbSpline
210
0.0
220
0.0
230
1.0
 70
     8
 71
     3
 72
    12
 73
     8
 74
     0
 42
0.00000001
 43
0.00000001
 40
0.0
 40
0.0
 40
0.0
 40
0.0
 40
0.2201335749437806
 40
0.4402546067132183
 40
0.6607438481633354
 40
0.882159712010878
 40
0.9999999999999999
 40
0.9999999999999999
 40
0.9999999999999999
 40
0.9999999999999999
 10
312.8143974293257
 20
349.0256897193811
 30
0.0
 10
312.8553598039294
 20
348.9583541102199
 30
0.0
 10
312.9372822191076
 20
348.8236867286694
 30
0.0
 10
313.1359967104059
 20
348.6872835632929
 30
0.0
 10
313.3637122925921
 20
348.6211519842133
 30
0.0
 10
313.566357267649
 20
348.6299322028566
 30
0.0
 10
313.6790440720445
 20
348.6707177612195
 30
0.0
 10
313.7181857218293
 20
348.6848845844804
 30
0.0
  0
SPLINE
  5
D7
330
1F
100
AcDbEntity
  8
0
  6
Continuous
 62
     7
370
    25
100
AcDbSpline
210
0.0
220
0.0
230
1.0
 70
    24
 71
     3
 72
    11
 73
     7
 74
     0
 42
0.00000001
 43
0.00000001
 40
0.0
 40
0.0
 40
0.0
 40
0.0
 40
0.2832270505599652
 40
0.576269081759155
 40
0.7861908663459276
 40
0.9999999999999999
 40
0.9999999999999999
 40
0.9999999999999999
 40
0.9999999999999999
 10
329.0202283751269
 20
355.1689624613948
 30
0.0
 10
327.7795965428385
 20
354.6432579133772
 30
0.0
 10
325.2553398894559
 20
353.5736309954547
 30
0.0
 10
321.2096503309365
 20
351.859313060344
 30
0.0
 10
317.321011259637
 20
350.211543599353
 30
0.0
 10
314.9264502138496
 20
349.1968738161921
 30
0.0
 10
313.7181857218293
 20
348.6848845844804
 30
0.0
  0
SPLINE
  5
D8
330
1F
100
AcDbEntity
  8
0
  6
Continuous
 62
     7
370
    25
100
AcDbSpline
210
0.0
220
0.0
230
1.0
 70
     8
 71
     3
 72
    12
 73
     8
 74
     0
 42
0.00000001
 43
0.00000001
 40
0.0
 40
0.0
 40
0.0
 40
0.0
 40
0.3203291874988892
 40
0.5619245577985393
 40
0.7389289972586552
 40
0.8801315365316079
 40
1.0
 40
1.0
 40
1.0
 40
1.0
 10
305.3744247658434
 20
375.9933320467696
 30
0.0
 10
305.3899490291292
 20
376.0985633424528
 30
0.0
 10
305.4171818418807
 20
376.2831610987643
 30
0.0
 10
305.3202045635751
 20
376.5338718269776
 30
0.0
 10
305.1792235230058
 20
376.7043018457028
 30
0.0
 10
305.0214209192895
 20
376.8141018520219
 30
0.0
 10
304.908051606363
 20
376.8483738348788
 30
0.0
 10
304.855999079647
 20
376.8641095155248
 30
0.0
  0
LINE
  5
D9
330
1F
100
AcDbEntity
  8
0
  6
Continuous
 62
     7
370
    25
100
AcDbLine
 10
302.7629541265
 20
377.3418333676
 30
0.0
 11
304.8559990796
 21
376.8641095155
 31
0.0
  0
SPLINE
  5
DA
330
1F
100
AcDbEntity
  8
0
  6
Continuous
 62
     7
370
    25
100
AcDbSpline
210
0.0
220
0.0
230
1.0
 70
     8
 71
     3
 72
    12
 73
     8
 74
     0
 42
0.00000001
 43
0.00000001
 40
0.0
 40
0.0
 40
0.0
 40
0.0
 40
0.1369201225457506
 40
0.2732892293233412
 40
0.4609277252679631
 40
0.7173042790351726
 40
1.0
 40
1.0
 40
1.0
 40
1.0
 10
302.7629541265364
 20
377.34183336755
 30
0.0
 10
302.7013574653307
 20
377.3508600400145
 30
0.0
 10
302.5784120300155
 20
377.3688770583702
 30
0.0
 10
302.3815499570909
 20
377.3316116771384
 30
0.0
 10
302.1780343573396
 20
377.2304824902252
 30
0.0
 10
301.9956991426686
 20
377.0430030838955
 30
0.0
 10
301.9447637037194
 20
376.8719359977832
 30
0.0
 10
301.918052571815
 20
376.7822264439653
 30
0.0
  0
SPLINE
  5
DB
330
1F
100
AcDbEntity
  8
0
  6
Continuous
 62
     7
370
    25
100
AcDbSpline
210
0.0
220
0.0
230
1.0
 70
    24
 71
     3
 72
    11
 73
     7
 74
     0
 42
0.00000001
 43
0.00000001
 40
0.0
 40
0.0
 40
0.0
 40
0.0
 40
0.2603296700627195
 40
0.5282089223327185
 40
0.7614183594652424
 40
1.0
 40
1.0
 40
1.0
 40
1.0
 10
299.0015688880644
 20
360.4209948838646
 30
0.0
 10
299.2817894550311
 20
361.993009021815
 30
0.0
 10
299.850357008846
 20
365.1826258392084
 30
0.0
 10
300.625773712212
 20
369.5326492288523
 30
0.0
 10
301.3295180939288
 20
373.480596838899
 30
0.0
 10
301.7203908125054
 20
375.6733603692538
 30
0.0
 10
301.918052571815
 20
376.7822264439653
 30
0.0
  0
SPLINE
  5
DC
330
1F
100
AcDbEntity
  8
0
  6
Continuous
 62
     7
370
    25
100
AcDbSpline
210
0.0
220
0.0
230
1.0
 70
     8
 71
     3
 72
    12
 73
     8
 74
     0
 42
0.00000001
 43
0.00000001
 40
0.0
 40
0.0
 40
0.0
 40
0.0
 40
0.1165847777148202
 40
0.3388935665353088
 40
0.561237680537053
 40
0.7827183635946252
 40
1.0
 40
1.0
 40
1.0
 40
1.0
 10
299.0015688880644
 20
360.4209948838646
 30
0.0
 10
298.9965002336776
 20
360.3801280046279
 30
0.0
 10
298.9817664545654
 20
360.2613344302939
 30
0.0
 10
299.0181381250729
 20
360.0612155952711
 30
0.0
 10
299.1342173358845
 20
359.8526712217719
 30
0.0
 10
299.3121085401978
 20
359.6897777506728
 30
0.0
 10
299.461139040068
 20
359.6402363583817
 30
0.0
 10
299.5349411635634
 20
359.6157027229502
 30
0.0
  0
LINE
  5
DD
330
1F
100
AcDbEntity
  8
0
  6
Continuous
 62
     7
370
    25
100
AcDbLine
 10
300.0732584789
 20
359.4928353081
 30
0.0
 11
299.5349411636
 21
359.615702723
 31
0.0
  0
SPLINE
  5
DE
330
1F
100
AcDbEntity
  8
0
  6
Continuous
 62
     7
370
    25
100
AcDbSpline
210
0.0
220
0.0
230
1.0
 70
     8
 71
     3
 72
    12
 73
     8
 74
     0
 42
0.00000001
 43
0.00000001
 40
0.0
 40
0.0
 40
0.0
 40
0.0
 40
0.220133575764672
 40
0.4402546082974749
 40
0.660743850517663
 40
0.8821597151442141
 40
1.0
 40
1.0
 40
1.0
 40
1.0
 10
300.0732584789391
 20
359.4928353081363
 30
0.0
 10
300.1514432009785
 20
359.4828779171251
 30
0.0
 10
300.3078081900845
 20
359.4629637024757
 30
0.0
 10
300.5383489375471
 20
359.5332789662889
 30
0.0
 10
300.7320310306052
 20
359.6700818133635
 30
0.0
 10
300.8515134529602
 20
359.8339904109833
 30
0.0
 10
300.8898850922081
 20
359.9475218808689
 30
0.0
 10
300.9032134427958
 20
359.9869569235995
 30
0.0
  0
SPLINE
  5
DF
330
1F
100
AcDbEntity
  8
0
  6
Continuous
 62
     7
370
    25
100
AcDbSpline
210
0.0
220
0.0
230
1.0
 70
     8
 71
     3
 72
    11
 73
     7
 74
     0
 42
0.00000001
 43
0.00000001
 40
0.0
 40
0.0
 40
0.0
 40
0.0
 40
0.2832270505582963
 40
0.5762690817572607
 40
0.7861908663604458
 40
1.0
 40
1.0
 40
1.0
 40
1.0
 10
305.3744247658434
 20
375.9933320467696
 30
0.0
 10
305.0119158367304
 20
374.6955955976409
 30
0.0
 10
304.2743355551259
 20
372.0551508010434
 30
0.0
 10
303.092197106383
 20
367.8232435861643
 30
0.0
 10
301.9559483427176
 20
363.7556156815072
 30
0.0
 10
301.2562647314793
 20
361.2508362071557
 30
0.0
 10
300.9032134427958
 20
359.9869569235995
 30
0.0
  0
SPLINE
  5
E0
330
1F
100
AcDbEntity
  8
0
  6
Continuous
 62
     7
370
    25
100
AcDbSpline
210
0.0
220
0.0
230
1.0
 70
     8
 71
     3
 72
    12
 73
     8
 74
     0
 42
0.00000001
 43
0.00000001
 40
0.0
 40
0.0
 40
0.0
 40
0.0
 40
0.320329195677724
 40
0.561924571861606
 40
0.7389290157161374
 40
0.880131558501379
 40
1.0
 40
1.0
 40
1.0
 40
1.0
 10
289.2343515545155
 20
376.78222644546
 30
0.0
 10
289.2026802843523
 20
376.8837722921727
 30
0.0
 10
289.1471222360481
 20
377.0619049981773
 30
0.0
 10
288.9509694191151
 20
377.2457106948831
 30
0.0
 10
288.7500030767741
 20
377.3380934548736
 30
0.0
 10
288.5601874172841
 20
377.3685518563756
 30
0.0
 10
288.4431751508793
 20
377.3502407504482
 30
0.0
 10
288.3894500000409
 20
377.3418333675456
 30
0.0
  0
LINE
  5
E1
330
1F
100
AcDbEntity
  8
0
  6
Continuous
 62
     7
370
    25
100
AcDbLine
 10
286.2964050469
 20
376.8641095155
 30
0.0
 11
288.38945
 21
377.3418333675
 31
0.0
  0
SPLINE
  5
E2
330
1F
100
AcDbEntity
  8
0
  6
Continuous
 62
     7
370
    25
100
AcDbSpline
210
0.0
220
0.0
230
1.0
 70
     8
 71
     3
 72
    13
 73
     9
 74
     0
 42
0.00000001
 43
0.00000001
 40
0.0
 40
0.0
 40
0.0
 40
0.0
 40
0.1368258648470847
 40
0.2731010933964237
 40
0.4606104098961589
 40
0.7168104619180418
 40
0.8076499722265396
 40
1.0
 40
1.0
 40
1.0
 40
1.0
 10
286.2964050468858
 20
376.8641095155102
 30
0.0
 10
286.2369809387408
 20
376.8455148980285
 30
0.0
 10
286.1183718663507
 20
376.8084004944672
 30
0.0
 10
285.957357267316
 20
376.6894368710625
 30
0.0
 10
285.8167893318393
 20
376.5098631554774
 30
0.0
 10
285.7601806226255
 20
376.3279402802325
 30
0.0
 10
285.7471132043832
 20
376.1473577899905
 30
0.0
 10
285.7654943721452
 20
376.0556336052763
 30
0.0
 10
285.7779793606567
 20
375.9933320471156
 30
0.0
  0
SPLINE
  5
E3
330
1F
100
AcDbEntity
  8
0
  6
Continuous
 62
     7
370
    25
100
AcDbSpline
210
0.0
220
0.0
230
1.0
 70
     8
 71
     3
 72
    11
 73
     7
 74
     0
 42
0.00000001
 43
0.00000001
 40
0.0
 40
0.0
 40
0.0
 40
0.0
 40
0.2603296700330318
 40
0.5282089222724895
 40
0.7614183595165439
 40
1.0
 40
1.0
 40
1.0
 40
1.0
 10
290.2491906838236
 20
359.9869569235183
 30
0.0
 10
289.8195893186665
 20
361.5248758690838
 30
0.0
 10
288.9479281128285
 20
364.6453135382764
 30
0.0
 10
287.7591500086088
 20
368.900989886447
 30
0.0
 10
286.6802515165276
 20
372.7633110194888
 30
0.0
 10
286.0810112277199
 20
374.9085160120798
 30
0.0
 10
285.7779793606567
 20
375.9933320471156
 30
0.0
  0
SPLINE
  5
E4
330
1F
100
AcDbEntity
  8
0
  6
Continuous
 62
     7
370
    25
100
AcDbSpline
210
0.0
220
0.0
230
1.0
 70
     8
 71
     3
 72
    12
 73
     8
 74
     0
 42
0.00000001
 43
0.00000001
 40
0.0
 40
0.0
 40
0.0
 40
0.0
 40
0.222900127267123
 40
0.4458326960033229
 40
0.6679313664265575
 40
0.8889145958008556
 40
1.0
 40
1.0
 40
1.0
 40
1.0
 10
290.2491906838236
 20
359.9869569235183
 30
0.0
 10
290.2779217045235
 20
359.9130164547383
 30
0.0
 10
290.3353879275114
 20
359.7651247556886
 30
0.0
 10
290.5091018934264
 20
359.5951356728444
 30
0.0
 10
290.7239023445587
 20
359.4906827029552
 30
0.0
 10
290.9240441510502
 20
359.4656602508212
 30
0.0
 10
291.040266362067
 20
359.4860233376748
 30
0.0
 10
291.0791456478003
 20
359.4928353081688
 30
0.0
  0
LINE
  5
E5
330
1F
100
AcDbEntity
  8
0
  6
Continuous
 62
     7
370
    25
100
AcDbLine
 10
291.617462963
 20
359.6157027229
 30
0.0
 11
291.0791456478
 21
359.4928353082
 31
0.0
  0
SPLINE
  5
E6
330
1F
100
AcDbEntity
  8
0
  6
Continuous
 62
     7
370
    25
100
AcDbSpline
210
0.0
220
0.0
230
1.0
 70
     8
 71
     3
 72
    12
 73
     8
 74
     0
 42
0.00000001
 43
0.00000001
 40
0.0
 40
0.0
 40
0.0
 40
0.0
 40
0.2201335703051143
 40
0.440254597457431
 40
0.6607438342490763
 40
0.8821596933820095
 40
1.0
 40
1.0
 40
1.0
 40
1.0
 10
291.6174629630159
 20
359.6157027229462
 30
0.0
 10
291.6922253145315
 20
359.6406545001884
 30
0.0
 10
291.8417457576237
 20
359.6905566329269
 30
0.0
 10
292.0189471503347
 20
359.8539363715918
 30
0.0
 10
292.1340921632566
 20
360.0612269841768
 30
0.0
 10
292.1706248403588
 20
360.2607450154607
 30
0.0
 10
292.1559370341062
 20
360.3796821745359
 30
0.0
 10
292.1508352385692
 20
360.4209948836585
 30
0.0
  0
SPLINE
  5
E7
330
1F
100
AcDbEntity
  8
0
  6
Continuous
 62
     7
370
    25
100
AcDbSpline
210
0.0
220
0.0
230
1.0
 70
    24
 71
     3
 72
    11
 73
     7
 74
     0
 42
0.00000001
 43
0.00000001
 40
0.0
 40
0.0
 40
0.0
 40
0.0
 40
0.2832270505602082
 40
0.576269081752837
 40
0.7861908663425565
 40
1.0
 40
1.0
 40
1.0
 40
1.0
 10
289.2343515545155
 20
376.78222644546
 30
0.0
 10
289.4708090379431
 20
375.4557195763232
 30
0.0
 10
289.9519182278277
 20
372.7567369265223
 30
0.0
 10
290.7230040138724
 20
368.4310096237826
 30
0.0
 10
291.4641568560879
 20
364.2732036531924
 30
0.0
 10
291.9205467890498
 20
361.712893984305
 30
0.0
 10
292.1508352385692
 20
360.4209948836585
 30
0.0
  0
SPLINE
  5
E8
330
1F
100
AcDbEntity
  8
0
  6
Continuous
 62
     7
370
    25
100
AcDbSpline
210
0.0
220
0.0
230
1.0
 70
     8
 71
     3
 72
    12
 73
     8
 74
     0
 42
0.00000001
 43
0.00000001
 40
0.0
 40
0.0
 40
0.0
 40
0.0
 40
0.320329189666922
 40
0.5619245570102817
 40
0.7389289953257651
 40
0.8801315336280746
 40
1.0
 40
1.0
 40
1.0
 40
1.0
 10
274.3503596141554
 20
370.490080423749
 30
0.0
 10
274.2777656931798
 20
370.5678284220407
 30
0.0
 10
274.1504207361741
 20
370.7042147112325
 30
0.0
 10
273.8939428506205
 20
370.7847104033909
 30
0.0
 10
273.6727950561241
 20
370.780748365332
 30
0.0
 10
273.488561638981
 20
370.7258325050958
 30
0.0
 10
273.3910821127008
 20
370.6585650370909
 30
0.0
 10
273.3463252415482
 20
370.627679768018
 30
0.0
  0
LINE
  5
E9
330
1F
100
AcDbEntity
  8
0
  6
Continuous
 62
     7
370
    25
100
AcDbLine
 10
271.6678335461
 20
369.2891273074
 30
0.0
 11
273.3463252415
 21
370.627679768
 31
0.0
  0
SPLINE
  5
EA
330
1F
100
AcDbEntity
  8
0
  6
Continuous
 62
     7
370
    25
100
AcDbSpline
210
0.0
220
0.0
230
1.0
 70
     8
 71
     3
 72
    13
 73
     9
 74
     0
 42
0.00000001
 43
0.00000001
 40
0.0
 40
0.0
 40
0.0
 40
0.0
 40
0.1368520550563141
 40
0.2731533684839554
 40
0.460698575737844
 40
0.5051868322059807
 40
0.7677990591363197
 40
1.0
 40
1.0
 40
1.0
 40
1.0
 10
271.6678335461016
 20
369.2891273073708
 30
0.0
 10
271.6223598472253
 20
369.2465862942891
 30
0.0
 10
271.5315954519052
 20
369.1616754683814
 30
0.0
 10
271.4381818046385
 20
368.9847100493063
 30
0.0
 10
271.4070912686282
 20
368.8429583273966
 30
0.0
 10
271.401137733152
 20
368.6618821380903
 30
0.0
 10
271.4376022384144
 20
368.4739928500235
 30
0.0
 10
271.5335424617779
 20
368.3417193937524
 30
0.0
 10
271.5785643237282
 20
368.2796474381204
 30
0.0
  0
SPLINE
  5
EB
330
1F
100
AcDbEntity
  8
0
  6
Continuous
 62
     7
370
    25
100
AcDbSpline
210
0.0
220
0.0
230
1.0
 70
     8
 71
     3
 72
    11
 73
     7
 74
     0
 42
0.00000001
 43
0.00000001
 40
0.0
 40
0.0
 40
0.0
 40
0.0
 40
0.260329670066873
 40
0.5282089223411505
 40
0.7614183595496762
 40
1.0
 40
1.0
 40
1.0
 40
1.0
 10
282.5518924149673
 20
355.7983876524859
 30
0.0
 10
281.4975569369503
 20
356.997607697293
 30
0.0
 10
279.3583101638631
 20
359.4308252685162
 30
0.0
 10
276.4407893346878
 20
362.7492656807287
 30
0.0
 10
273.7929370472917
 20
365.7609802670794
 30
0.0
 10
272.3222706394246
 20
367.4337425629799
 30
0.0
 10
271.5785643237282
 20
368.2796474381204
 30
0.0
  0
SPLINE
  5
EC
330
1F
100
AcDbEntity
  8
0
  6
Continuous
 62
     7
370
    25
100
AcDbSpline
210
0.0
220
0.0
230
1.0
 70
     8
 71
     3
 72
    12
 73
     8
 74
     0
 42
0.00000001
 43
0.00000001
 40
0.0
 40
0.0
 40
0.0
 40
0.0
 40
0.2229001214099028
 40
0.445832684381039
 40
0.667931349079082
 40
0.8889145727567365
 40
1.0
 40
1.0
 40
1.0
 40
1.0
 10
282.5518924149673
 20
355.7983876524859
 30
0.0
 10
282.6098597370151
 20
355.7442355145374
 30
0.0
 10
282.7258028178511
 20
355.6359233571736
 30
0.0
 10
282.9560691920138
 20
355.5581401507378
 30
0.0
 10
283.1949181562683
 20
355.5572296996053
 30
0.0
 10
283.38609653754
 20
355.6215235270219
 30
0.0
 10
283.4819739246281
 20
355.6902969702423
 30
0.0
 10
283.514047354258
 20
355.7133034398442
 30
0.0
  0
LINE
  5
ED
330
1F
100
AcDbEntity
  8
0
  6
Continuous
 62
     7
370
    25
100
AcDbLine
 10
283.9457443104
 20
356.0575702745
 30
0.0
 11
283.5140473543
 21
355.7133034398
 31
0.0
  0
SPLINE
  5
EE
330
1F
100
AcDbEntity
  8
0
  6
Continuous
 62
     7
370
    25
100
AcDbSpline
210
0.0
220
0.0
230
1.0
 70
     8
 71
     3
 72
    12
 73
     8
 74
     0
 42
0.00000001
 43
0.00000001
 40
0.0
 40
0.0
 40
0.0
 40
0.0
 40
0.220133572243824
 40
0.4402546012954479
 40
0.6607438400039414
 40
0.8821597010770126
 40
1.0
 40
1.0
 40
1.0
 40
1.0
 10
283.9457443103943
 20
356.0575702744845
 30
0.0
 10
284.0022766903879
 20
356.112489218446
 30
0.0
 10
284.1153382291649
 20
356.2223239770922
 30
0.0
 10
284.204103352458
 20
356.4464088392822
 30
0.0
 10
284.2179053951355
 20
356.6831307768229
 30
0.0
 10
284.1642525684747
 20
356.8787412422724
 30
0.0
 10
284.0994144143289
 20
356.9795271166942
 30
0.0
 10
284.0768929442212
 20
357.014534992658
 30
0.0
  0
SPLINE
  5
EF
330
1F
100
AcDbEntity
  8
0
  6
Continuous
 62
     7
370
    25
100
AcDbSpline
210
0.0
220
0.0
230
1.0
 70
    24
 71
     3
 72
    11
 73
     7
 74
     0
 42
0.00000001
 43
0.00000001
 40
0.0
 40
0.0
 40
0.0
 40
0.0
 40
0.2832270505644365
 40
0.5762690817613054
 40
0.7861908663722896
 40
1.0
 40
1.0
 40
1.0
 40
1.0
 10
274.3503596141554
 20
370.490080423749
 30
0.0
 10
275.138950205689
 20
369.3975340886965
 30
0.0
 10
276.7434592918198
 20
367.1745802005432
 30
0.0
 10
279.3150463162784
 20
363.6117961538156
 30
0.0
 10
281.7868063546477
 20
360.1873165821851
 30
0.0
 10
283.3088762083068
 20
358.0785774490665
 30
0.0
 10
284.0768929442212
 20
357.014534992658
 30
0.0
  0
SPLINE
  5
F0
330
1F
100
AcDbEntity
  8
0
  6
Continuous
 62
     7
370
    25
100
AcDbSpline
210
0.0
220
0.0
230
1.0
 70
     8
 71
     3
 72
    12
 73
     8
 74
     0
 42
0.00000001
 43
0.00000001
 40
0.0
 40
0.0
 40
0.0
 40
0.0
 40
0.3203292007420988
 40
0.5619245725821584
 40
0.7389290150383367
 40
0.8801315565995826
 40
1.0
 40
1.0
 40
1.0
 40
1.0
 10
263.6704060885747
 20
358.3631306693615
 30
0.0
 10
263.5712676325066
 20
358.4016818738307
 30
0.0
 10
263.3973579969709
 20
358.4693087684245
 30
0.0
 10
263.131353634393
 20
358.4305512959423
 30
0.0
 10
262.9338254208213
 20
358.3310291908282
 30
0.0
 10
262.7916639556336
 20
358.2016158337302
 30
0.0
 10
262.7330242002013
 20
358.0987151709127
 30
0.0
 10
262.7061002729557
 20
358.0514692378627
 30
0.0
  0
LINE
  5
F1
330
1F
100
AcDbEntity
  8
0
  6
Continuous
 62
     7
370
    25
100
AcDbLine
 10
261.7746076278
 20
356.1172048293
 30
0.0
 11
262.706100273
 21
358.0514692379
 31
0.0
  0
SPLINE
  5
F2
330
1F
100
AcDbEntity
  8
0
  6
Continuous
 62
     7
370
    25
100
AcDbSpline
210
0.0
220
0.0
230
1.0
 70
     8
 71
     3
 72
    12
 73
     8
 74
     0
 42
0.00000001
 43
0.00000001
 40
0.0
 40
0.0
 40
0.0
 40
0.0
 40
0.1335496659692257
 40
0.2374496721155363
 40
0.4314228611592357
 40
0.6784626707083605
 40
1.0
 40
1.0
 40
1.0
 40
1.0
 10
261.7746076277903
 20
356.1172048292922
 30
0.0
 10
261.7524896814301
 20
356.0606939093704
 30
0.0
 10
261.7131642434142
 20
355.9602181851595
 30
0.0
 10
261.6983083514909
 20
355.7729331632003
 30
0.0
 10
261.7378211091793
 20
355.5582036145424
 30
0.0
 10
261.8768146527004
 20
355.3177818018194
 30
0.0
 10
262.0399312953546
 20
355.2227206853979
 30
0.0
 10
262.1321757527188
 20
355.1689624608657
 30
0.0
  0
SPLINE
  5
F3
330
1F
100
AcDbEntity
  8
0
  6
Continuous
 62
     7
370
    25
100
AcDbSpline
210
0.0
220
0.0
230
1.0
 70
    24
 71
     3
 72
    11
 73
     7
 74
     0
 42
0.00000001
 43
0.00000001
 40
0.0
 40
0.0
 40
0.0
 40
0.0
 40
0.2603296700658179
 40
0.5282089223390096
 40
0.761418359479769
 40
1.0
 40
1.0
 40
1.0
 40
1.0
 10
277.434218404895
 20
348.6848845844265
 30
0.0
 10
275.9639728857387
 20
349.3078854909043
 30
0.0
 10
272.9808446043907
 20
350.571954382259
 30
0.0
 10
268.912431832265
 20
352.2959010375463
 30
0.0
 10
265.2200653686138
 20
353.8605020678801
 30
0.0
 10
263.1692563604761
 20
354.7295105800087
 30
0.0
 10
262.1321757527188
 20
355.1689624608657
 30
0.0
  0
SPLINE
  5
F4
330
1F
100
AcDbEntity
  8
0
  6
Continuous
 62
     7
370
    25
100
AcDbSpline
210
0.0
220
0.0
230
1.0
 70
     8
 71
     3
 72
    12
 73
     8
 74
     0
 42
0.00000001
 43
0.00000001
 40
0.0
 40
0.0
 40
0.0
 40
0.0
 40
0.2229001267076635
 40
0.4458326948994356
 40
0.6679313646015045
 40
0.8889145932580336
 40
1.0
 40
1.0
 40
1.0
 40
1.0
 10
277.434218404895
 20
348.6848845844265
 30
0.0
 10
277.5099408896701
 20
348.6612462726741
 30
0.0
 10
277.6613968800742
 20
348.6139662087858
 30
0.0
 10
277.9026085830606
 20
348.6437947967478
 30
0.0
 10
278.1181990940086
 20
348.746607190534
 30
0.0
 10
278.2625488111217
 20
348.8874831127061
 30
0.0
 10
278.3190916718319
 20
348.9910454745611
 30
0.0
 10
278.3380066972538
 20
349.0256897193449
 30
0.0
  0
LINE
  5
F5
330
1F
100
AcDbEntity
  8
0
  6
Continuous
 62
     7
370
    25
100
AcDbLine
 10
278.5775804451
 20
349.5231697329
 30
0.0
 11
278.3380066973
 21
349.0256897193
 31
0.0
  0
SPLINE
  5
F6
330
1F
100
AcDbEntity
  8
0
  6
Continuous
 62
     7
370
    25
100
AcDbSpline
210
0.0
220
0.0
230
1.0
 70
     8
 71
     3
 72
    12
 73
     8
 74
     0
 42
0.00000001
 43
0.00000001
 40
0.0
 40
0.0
 40
0.0
 40
0.0
 40
0.2201335730273034
 40
0.4402546029152746
 40
0.6607438424670953
 40
0.8821597043935864
 40
1.0
 40
1.0
 40
1.0
 40
1.0
 10
278.577580445109
 20
349.5231697329269
 30
0.0
 10
278.6046859224477
 20
349.5971784722149
 30
0.0
 10
278.6588953326638
 20
349.745191733797
 30
0.0
 10
278.6416431658707
 20
349.9855989618882
 30
0.0
 10
278.551368576023
 20
350.2048665393888
 30
0.0
 10
278.4181568491804
 20
350.3578263878766
 30
0.0
 10
278.316010340049
 20
350.4204991017402
 30
0.0
 10
278.2805298496764
 20
350.4422684078062
 30
0.0
  0
SPLINE
  5
F7
330
1F
100
AcDbEntity
  8
0
  6
Continuous
 62
     7
370
    25
100
AcDbSpline
210
0.0
220
0.0
230
1.0
 70
     8
 71
     3
 72
    13
 73
     9
 74
     0
 42
0.00000001
 43
0.00000001
 40
0.0
 40
0.0
 40
0.0
 40
0.0
 40
0.1410914837021204
 40
0.2833438241821748
 40
0.4292927421787007
 40
0.576527895343282
 40
0.7863214603538169
 40
1.0
 40
1.0
 40
1.0
 40
1.0
 10
263.6704060885747
 20
358.3631306693615
 30
0.0
 10
264.246506343044
 20
358.0507985605282
 30
0.0
 10
265.4034468254212
 20
357.4235645715617
 30
0.0
 10
267.3249774011067
 20
356.3818089184975
 30
0.0
 10
269.3814726383795
 20
355.2668823250396
 30
0.0
 10
271.8784357979915
 20
353.9131565399634
 30
0.0
 10
274.8418310871682
 20
352.3065550975344
 30
0.0
 10
277.1273078661064
 20
351.0674864169299
 30
0.0
 10
278.2805298496764
 20
350.4422684078062
 30
0.0
  0
SPLINE
  5
F8
330
1F
100
AcDbEntity
  8
0
  6
Continuous
 62
     7
370
    25
100
AcDbSpline
210
0.0
220
0.0
230
1.0
 70
     8
 71
     3
 72
    12
 73
     8
 74
     0
 42
0.00000001
 43
0.00000001
 40
0.0
 40
0.0
 40
0.0
 40
0.0
 40
0.1369201190906769
 40
0.2732892225298252
 40
0.4609277105320356
 40
0.7173042536063459
 40
1.0
 40
1.0
 40
1.0
 40
1.0
 10
332.5762020630529
 20
342.1040744390543
 30
0.0
 10
332.571295873246
 20
342.1661353664163
 30
0.0
 10
332.5615032378989
 20
342.2900074657167
 30
0.0
 10
332.4813662510978
 20
342.473641468272
 30
0.0
 10
332.3374861103969
 20
342.6495511478191
 30
0.0
 10
332.114133800015
 20
342.7855967579359
 30
0.0
 10
331.9360215140947
 20
342.7971891336503
 30
0.0
 10
331.8426173703577
 20
342.8032683096145
 30
0.0
  0
SPLINE
  5
F9
330
1F
100
AcDbEntity
  8
0
  6
Continuous
 62
     7
370
    25
100
AcDbSpline
210
0.0
220
0.0
230
1.0
 70
     8
 71
     3
 72
    11
 73
     7
 74
     0
 42
0.00000001
 43
0.00000001
 40
0.0
 40
0.0
 40
0.0
 40
0.0
 40
0.2603296700655816
 40
0.5282089223385174
 40
0.7614183595482885
 40
1.0
 40
1.0
 40
1.0
 40
1.0
 10
315.2426173716885
 20
342.0059131311784
 30
0.0
 10
316.8375727754006
 20
342.0825243329596
 30
0.0
 10
320.0737374229436
 20
342.2379684677816
 30
0.0
 10
324.4872430936215
 20
342.4499643476131
 30
0.0
 10
328.4928052714737
 20
342.6423652963038
 30
0.0
 10
330.7175690043682
 20
342.7492283614429
 30
0.0
 10
331.8426173703577
 20
342.8032683096145
 30
0.0
  0
SPLINE
  5
FA
330
1F
100
AcDbEntity
  8
0
  6
Continuous
 62
     7
370
    25
100
AcDbSpline
210
0.0
220
0.0
230
1.0
 70
     8
 71
     3
 72
    12
 73
     8
 74
     0
 42
0.00000001
 43
0.00000001
 40
0.0
 40
0.0
 40
0.0
 40
0.0
 40
0.2229001252313324
 40
0.445832692005798
 40
0.6679313602957705
 40
0.8889145875472645
 40
1.0
 40
1.0
 40
1.0
 40
1.0
 10
315.2426173716885
 20
342.0059131311784
 30
0.0
 10
315.1641374912054
 20
341.9943557594746
 30
0.0
 10
315.0071663080454
 20
341.971239333973
 30
0.0
 10
314.8027842124175
 20
341.8397068690983
 30
0.0
 10
314.6531524996977
 20
341.6535348860756
 30
0.0
 10
314.5842216695644
 20
341.4639790687384
 30
0.0
 10
314.5782123377513
 20
341.3461395746533
 30
0.0
 10
314.5762020632984
 20
341.3067192643966
 30
0.0
  0
SPLINE
  5
FB
330
1F
100
AcDbEntity
  8
0
  6
Continuous
 62
     7
370
    25
100
AcDbSpline
210
0.0
220
0.0
230
1.0
 70
    24
 71
     3
 72
     9
 73
     5
 74
     0
 42
0.00000001
 43
0.00000001
 40
0.0
 40
0.0
 40
0.0
 40
0.0
 40
0.4999998288440266
 40
1.0
 40
1.0
 40
1.0
 40
1.0
 10
314.5762020632985
 20
340.7545581096022
 30
0.0
 10
314.5762020632985
 20
340.8465849372327
 30
0.0
 10
314.5762020632985
 20
341.0306386554975
 30
0.0
 10
314.5762020632985
 20
341.2146923737623
 30
0.0
 10
314.5762020632984
 20
341.3067192643966
 30
0.0
  0
SPLINE
  5
FC
330
1F
100
AcDbEntity
  8
0
  6
Continuous
 62
     7
370
    25
100
AcDbSpline
210
0.0
220
0.0
230
1.0
 70
     8
 71
     3
 72
    12
 73
     8
 74
     0
 42
0.00000001
 43
0.00000001
 40
0.0
 40
0.0
 40
0.0
 40
0.0
 40
0.2201335735716006
 40
0.4402546039526666
 40
0.6607438440022773
 40
0.8821597064323004
 40
1.0
 40
1.0
 40
1.0
 40
1.0
 10
314.5762020632985
 20
340.7545581096022
 30
0.0
 10
314.5838920609627
 20
340.6761179137216
 30
0.0
 10
314.5992716181157
 20
340.5192419914752
 30
0.0
 10
314.7191240708506
 20
340.310127998266
 30
0.0
 10
314.89559530278
 20
340.1517434144511
 30
0.0
 10
315.0819817119038
 20
340.0717297555094
 30
0.0
 10
315.2012052073172
 20
340.0595833016488
 30
0.0
 10
315.2426173716988
 20
340.0553642427948
 30
0.0
  0
SPLINE
  5
FD
330
1F
100
AcDbEntity
  8
0
  6
Continuous
 62
     7
370
    25
100
AcDbSpline
210
0.0
220
0.0
230
1.0
 70
     8
 71
     3
 72
    11
 73
     7
 74
     0
 42
0.00000001
 43
0.00000001
 40
0.0
 40
0.0
 40
0.0
 40
0.0
 40
0.2832270505181714
 40
0.5762690817323748
 40
0.7861908663323447
 40
1.0
 40
1.0
 40
1.0
 40
1.0
 10
331.8426173704488
 20
339.2580090643548
 30
0.0
 10
330.4967520585262
 20
339.3226556110487
 30
0.0
 10
327.758381673289
 20
339.4541889728243
 30
0.0
 10
323.3695266562611
 20
339.6650007968255
 30
0.0
 10
319.1510435395691
 20
339.8676290716435
 30
0.0
 10
316.553369865475
 20
339.9924042857208
 30
0.0
 10
315.2426173716988
 20
340.0553642427948
 30
0.0
  0
SPLINE
  5
FE
330
1F
100
AcDbEntity
  8
0
  6
Continuous
 62
     7
370
    25
100
AcDbSpline
210
0.0
220
0.0
230
1.0
 70
     8
 71
     3
 72
    12
 73
     8
 74
     0
 42
0.00000001
 43
0.00000001
 40
0.0
 40
0.0
 40
0.0
 40
0.0
 40
0.3203292003654071
 40
0.5619245694925779
 40
0.7389290103575938
 40
0.8801315506287762
 40
1.0
 40
1.0
 40
1.0
 40
1.0
 10
331.8426173704488
 20
339.2580090643548
 30
0.0
 10
331.9486647747631
 20
339.2662901934543
 30
0.0
 10
332.1346941531249
 20
339.2808170299052
 30
0.0
 10
332.3575395656156
 20
339.4311512741541
 30
0.0
 10
332.4923253130283
 20
339.606521872375
 30
0.0
 10
332.5642580172752
 20
339.7848008291584
 30
0.0
 10
332.5724436856422
 20
339.9029539626367
 30
0.0
 10
332.5762020632986
 20
339.9572029349862
 30
0.0
  0
LINE
  5
FF
330
1F
100
AcDbEntity
  8
0
  6
Continuous
 62
     7
370
    25
100
AcDbLine
 10
332.5762020633
 20
339.957202935
 30
0.0
 11
332.5762020642
 21
341.030638687
 31
0.0
  0
LINE
  5
100
330
1F
100
AcDbEntity
  8
0
  6
Continuous
 62
     7
370
    25
100
AcDbLine
 10
332.5762020631
 20
342.1040744391
 30
0.0
 11
332.5762020642
 21
341.030638687
 31
0.0
  0
SPLINE
  5
101
330
1F
100
AcDbEntity
  8
0
  6
Continuous
 62
     7
370
    25
100
AcDbSpline
210
0.0
220
0.0
230
1.0
 70
     8
 71
     3
 72
    12
 73
     8
 74
     0
 42
0.00000001
 43
0.00000001
 40
0.0
 40
0.0
 40
0.0
 40
0.0
 40
0.2201335735842014
 40
0.4402546039777272
 40
0.6607438440396693
 40
0.8821597064822719
 40
1.0
 40
1.0
 40
1.0
 40
1.0
 10
276.5762020632984
 20
341.3067192644864
 30
0.0
 10
276.5685120656212
 20
341.3851594603661
 30
0.0
 10
276.5531325084422
 20
341.5420353826104
 30
0.0
 10
276.4332800556727
 20
341.7511493758
 30
0.0
 10
276.2568088237167
 20
341.909533959586
 30
0.0
 10
276.0704224145983
 20
341.989547618488
 30
0.0
 10
275.9511989192036
 20
342.001694072334
 30
0.0
 10
275.9097867548414
 20
342.0059131311816
 30
0.0
  0
SPLINE
  5
102
330
1F
100
AcDbEntity
  8
0
  6
Continuous
 62
     7
370
    25
100
AcDbSpline
210
0.0
220
0.0
230
1.0
 70
     8
 71
     3
 72
    13
 73
     9
 74
     0
 42
0.00000001
 43
0.00000001
 40
0.0
 40
0.0
 40
0.0
 40
0.0
 40
0.1410914836505605
 40
0.2833438241388625
 40
0.4292927421439313
 40
0.5765278953171621
 40
0.7863214603153662
 40
1.0
 40
1.0
 40
1.0
 40
1.0
 10
259.3097867560868
 20
342.8032683096218
 30
0.0
 10
259.9643509728683
 20
342.771827335729
 30
0.0
 10
261.2788649571897
 20
342.7086867013907
 30
0.0
 10
263.4621050225044
 20
342.603818160765
 30
0.0
 10
265.7986917274391
 20
342.4915838529303
 30
0.0
 10
268.6357374038112
 20
342.355310776848
 30
0.0
 10
272.0027425437627
 20
342.1935819221844
 30
0.0
 10
274.5994977221192
 20
342.0688508266236
 30
0.0
 10
275.9097867548414
 20
342.0059131311816
 30
0.0
  0
SPLINE
  5
103
330
1F
100
AcDbEntity
  8
0
  6
Continuous
 62
     7
370
    25
100
AcDbSpline
210
0.0
220
0.0
230
1.0
 70
     8
 71
     3
 72
    12
 73
     8
 74
     0
 42
0.00000001
 43
0.00000001
 40
0.0
 40
0.0
 40
0.0
 40
0.0
 40
0.3203292003935542
 40
0.5619245695284281
 40
0.7389290104027679
 40
0.8801315506835767
 40
1.0
 40
1.0
 40
1.0
 40
1.0
 10
259.3097867560868
 20
342.8032683096218
 30
0.0
 10
259.2037393517762
 20
342.7949871805133
 30
0.0
 10
259.0177099734253
 20
342.7804603440468
 30
0.0
 10
258.794864560935
 20
342.6301260997875
 30
0.0
 10
258.6600788135773
 20
342.45475550156
 30
0.0
 10
258.5881461092462
 20
342.2764765448159
 30
0.0
 10
258.5799604410988
 20
342.1583234113462
 30
0.0
 10
258.5762020635441
 20
342.104074439016
 30
0.0
  0
LINE
  5
104
330
1F
100
AcDbEntity
  8
0
  6
Continuous
 62
     7
370
    25
100
AcDbLine
 10
258.5762020624
 20
341.030638687
 30
0.0
 11
258.5762020635
 21
342.104074439
 31
0.0
  0
LINE
  5
105
330
1F
100
AcDbEntity
  8
0
  6
Continuous
 62
     7
370
    25
100
AcDbLine
 10
258.5762020624
 20
341.030638687
 30
0.0
 11
258.5762020633
 21
339.957202935
 31
0.0
  0
SPLINE
  5
106
330
1F
100
AcDbEntity
  8
0
  6
Continuous
 62
     7
370
    25
100
AcDbSpline
210
0.0
220
0.0
230
1.0
 70
     8
 71
     3
 72
    12
 73
     8
 74
     0
 42
0.00000001
 43
0.00000001
 40
0.0
 40
0.0
 40
0.0
 40
0.0
 40
0.1369201190564312
 40
0.2732892224798444
 40
0.4609277104377445
 40
0.7173042534523736
 40
1.0
 40
1.0
 40
1.0
 40
1.0
 10
258.5762020632984
 20
339.9572029349768
 30
0.0
 10
258.5811082531988
 20
339.8951420076411
 30
0.0
 10
258.590900888733
 20
339.7712699083846
 30
0.0
 10
258.6710378754003
 20
339.5876359058227
 30
0.0
 10
258.8149180160844
 20
339.4117262262674
 30
0.0
 10
259.0382703264549
 20
339.2756806160693
 30
0.0
 10
259.2163826124158
 20
339.2640882403347
 30
0.0
 10
259.3097867562086
 20
339.2580090643577
 30
0.0
  0
SPLINE
  5
107
330
1F
100
AcDbEntity
  8
0
  6
Continuous
 62
     7
370
    25
100
AcDbSpline
210
0.0
220
0.0
230
1.0
 70
     8
 71
     3
 72
    11
 73
     7
 74
     0
 42
0.00000001
 43
0.00000001
 40
0.0
 40
0.0
 40
0.0
 40
0.0
 40
0.2603296700665824
 40
0.5282089223405558
 40
0.7614183595493642
 40
1.0
 40
1.0
 40
1.0
 40
1.0
 10
275.909786754795
 20
340.0553642427899
 30
0.0
 10
274.3148313510839
 20
339.9787530410088
 30
0.0
 10
271.078666703543
 20
339.8233089061867
 30
0.0
 10
266.6651610328827
 20
339.6113130263562
 30
0.0
 10
262.6595988550596
 20
339.4189120776668
 30
0.0
 10
260.4348351221868
 20
339.3120490125286
 30
0.0
 10
259.3097867562086
 20
339.2580090643577
 30
0.0
  0
SPLINE
  5
108
330
1F
100
AcDbEntity
  8
0
  6
Continuous
 62
     7
370
    25
100
AcDbSpline
210
0.0
220
0.0
230
1.0
 70
     8
 71
     3
 72
    12
 73
     8
 74
     0
 42
0.00000001
 43
0.00000001
 40
0.0
 40
0.0
 40
0.0
 40
0.0
 40
0.2229001251908025
 40
0.4458326919246818
 40
0.6679313601744775
 40
0.8889145873855848
 40
1.0
 40
1.0
 40
1.0
 40
1.0
 10
275.909786754795
 20
340.0553642427899
 30
0.0
 10
275.9882666352801
 20
340.0669216144809
 30
0.0
 10
276.145237818444
 20
340.0900380399572
 30
0.0
 10
276.3496199140938
 20
340.221570504799
 30
0.0
 10
276.4992516268428
 20
340.407742487798
 30
0.0
 10
276.5681824570319
 20
340.5972983051869
 30
0.0
 10
276.5741917888437
 20
340.7151377993379
 30
0.0
 10
276.5762020632984
 20
340.7545581096597
 30
0.0
  0
SPLINE
  5
109
330
1F
100
AcDbEntity
  8
0
  6
Continuous
 62
     7
370
    25
100
AcDbSpline
210
0.0
220
0.0
230
1.0
 70
    24
 71
     3
 72
     9
 73
     5
 74
     0
 42
0.00000001
 43
0.00000001
 40
0.0
 40
0.0
 40
0.0
 40
0.0
 40
0.4999999145895571
 40
1.0
 40
1.0
 40
1.0
 40
1.0
 10
276.5762020632984
 20
341.3067192644864
 30
0.0
 10
276.5762020632984
 20
341.2146924210688
 30
0.0
 10
276.5762020632984
 20
341.0306387027932
 30
0.0
 10
276.5762020632984
 20
340.8465849845176
 30
0.0
 10
276.5762020632984
 20
340.7545581096597
 30
0.0
  0
SPLINE
  5
10A
330
1F
100
AcDbEntity
  8
0
  6
Continuous
 62
     7
370
    25
100
AcDbSpline
210
0.0
220
0.0
230
1.0
 70
     8
 71
     3
 72
    19
 73
    15
 74
     0
 42
0.00000001
 43
0.00000001
 40
0.0
 40
0.0
 40
0.0
 40
0.0
 40
0.0903184215815982
 40
0.204563192330383
 40
0.2714198874793248
 40
0.3439361549146842
 40
0.4207855040565417
 40
0.4999999999999997
 40
0.5792144959434578
 40
0.6560638450853153
 40
0.7285801125206747
 40
0.7954368076696164
 40
0.9096815784184011
 40
1.0
 40
1.0
 40
1.0
 40
1.0
 10
287.3762020620595
 20
341.0306386869868
 30
0.0
 10
287.4406592982517
 20
341.8058553337582
 30
0.0
 10
287.5866492056636
 20
343.5616520940894
 30
0.0
 10
288.6966844184406
 20
345.6894810683284
 30
0.0
 10
290.1763074595945
 20
347.2894284610095
 30
0.0
 10
291.7150760639218
 20
348.3500483874477
 30
0.0
 10
293.5569502181241
 20
349.0631563911049
 30
0.0
 10
295.5762020632984
 20
349.3156489328055
 30
0.0
 10
297.5954539084727
 20
349.0631563911049
 30
0.0
 10
299.437328062675
 20
348.3500483874477
 30
0.0
 10
300.9760966670023
 20
347.2894284610095
 30
0.0
 10
302.4557197081563
 20
345.6894810683284
 30
0.0
 10
303.5657549209332
 20
343.5616520940894
 30
0.0
 10
303.711744828345
 20
341.8058553337582
 30
0.0
 10
303.7762020645372
 20
341.0306386869868
 30
0.0
  0
SPLINE
  5
10B
330
1F
100
AcDbEntity
  8
0
  6
Continuous
 62
     7
370
    25
100
AcDbSpline
210
0.0
220
0.0
230
1.0
 70
     8
 71
     3
 72
    19
 73
    15
 74
     0
 42
0.00000001
 43
0.00000001
 40
0.0
 40
0.0
 40
0.0
 40
0.0
 40
0.0903184215815989
 40
0.2045631923303834
 40
0.2714198874793249
 40
0.3439361549146843
 40
0.4207855040565414
 40
0.4999999999999992
 40
0.579214495943457
 40
0.6560638450853141
 40
0.7285801125206736
 40
0.7954368076696149
 40
0.9096815784183995
 40
0.9999999999999999
 40
0.9999999999999999
 40
0.9999999999999999
 40
0.9999999999999999
 10
303.7762020645372
 20
341.0306386869868
 30
0.0
 10
303.711744828345
 20
340.2554220402155
 30
0.0
 10
303.5657549209332
 20
338.4996252798842
 30
0.0
 10
302.4557197081563
 20
336.3717963056452
 30
0.0
 10
300.9760966670023
 20
334.7718489129641
 30
0.0
 10
299.437328062675
 20
333.711228986526
 30
0.0
 10
297.5954539084727
 20
332.9981209828687
 30
0.0
 10
295.5762020632984
 20
332.7456284411681
 30
0.0
 10
293.5569502181241
 20
332.9981209828687
 30
0.0
 10
291.7150760639218
 20
333.711228986526
 30
0.0
 10
290.1763074595945
 20
334.7718489129641
 30
0.0
 10
288.6966844184406
 20
336.3717963056451
 30
0.0
 10
287.5866492056636
 20
338.4996252798843
 30
0.0
 10
287.4406592982517
 20
340.2554220402155
 30
0.0
 10
287.3762020620595
 20
341.0306386869868
 30
0.0
  0
ARC
  5
10C
330
1F
100
AcDbEntity
  8
0
  6
Continuous
 62
     7
370
    25
100
AcDbCircle
 10
295.5762020633
 20
341.030638687
 30
0.0
 40
8.91131119600003
100
AcDbArc
 50
0.0000000059
 51
68.5263574557
  0
ARC
  5
10D
330
1F
100
AcDbEntity
  8
0
  6
Continuous
 62
     7
370
    25
100
AcDbCircle
 10
295.5762020633
 20
341.030638687
 30
0.0
 40
8.911311195999986
100
AcDbArc
 50
180.0
 51
238.1801187803
  0
CIRCLE
  5
10E
330
1F
100
AcDbEntity
  8
0
  6
Continuous
 62
     7
370
    25
100
AcDbCircle
 10
295.5762020633
 20
341.030638687
 30
0.0
 40
57.00000000000006
  0
SPLINE
  5
10F
330
1F
100
AcDbEntity
  8
0
  6
Continuous
 62
     7
370
    25
100
AcDbSpline
210
0.0
220
0.0
230
1.0
 70
     8
 71
     3
 72
    35
 73
    31
 74
     0
 42
0.00000001
 43
0.00000001
 40
0.0
 40
0.0
 40
0.0
 40
0.0
 40
0.0282546077220526
 40
0.0583834426637937
 40
0.0903495399278267
 40
0.1258616479012817
 40
0.1640104750491871
 40
0.2048405213069445
 40
0.2374624815847428
 40
0.2716127104071174
 40
0.3071914351681337
 40
0.3440550017625753
 40
0.3820151215667311
 40
0.4208413631481705
 40
0.4602672732901822
 40
0.5000000044809517
 40
0.5397327356717212
 40
0.5791586458137328
 40
0.6179848873951722
 40
0.655945007199328
 40
0.6928085737937695
 40
0.7283872985547859
 40
0.7625375273771605
 40
0.7951594876549588
 40
0.8359928376181963
 40
0.8741415922595327
 40
0.9096504660940447
 40
0.9416198397637084
 40
0.9717470283705394
 40
1.0
 40
1.0
 40
1.0
 40
1.0
 10
339.8285885943966
 20
341.0306386869868
 30
0.0
 10
339.7948988979873
 20
342.339693972804
 30
0.0
 10
339.7252847494555
 20
345.0446387724299
 30
0.0
 10
339.1353296782031
 20
349.196830400519
 30
0.0
 10
338.0933533189646
 20
353.6020879699623
 30
0.0
 10
336.4585596222931
 20
358.2246388526649
 30
0.0
 10
334.1220165441078
 20
362.9985290608331
 30
0.0
 10
331.2837181034683
 20
367.3363309785929
 30
0.0
 10
328.0879349807931
 20
371.1712018446358
 30
0.0
 10
324.6820063520997
 20
374.4817037664006
 30
0.0
 10
320.7787952196526
 20
377.5213800655889
 30
0.0
 10
316.4040345327892
 20
380.1907521783926
 30
0.0
 10
311.6087836011762
 20
382.391867045921
 30
0.0
 10
306.4696457977343
 20
384.0364053359054
 30
0.0
 10
301.0863464865167
 20
385.0537301280598
 30
0.0
 10
295.5762020631934
 20
385.3981171401593
 30
0.0
 10
290.0660576404949
 20
385.0537301278379
 30
0.0
 10
284.6827583274264
 20
384.0364053367795
 30
0.0
 10
279.5436205306107
 20
382.3918670427284
 30
0.0
 10
274.7483695751392
 20
380.1907521898806
 30
0.0
 10
270.3736089734323
 20
377.5213800246686
 30
0.0
 10
266.4703975397588
 20
374.481703910868
 30
0.0
 10
263.06446996803
 20
371.1712013386015
 30
0.0
 10
259.8685846737498
 20
367.3362152242923
 30
0.0
 10
257.0302437699252
 20
362.9982602431762
 30
0.0
 10
254.6937181295264
 20
358.2243606137231
 30
0.0
 10
253.0589775678154
 20
353.6017960154957
 30
0.0
 10
252.016999680556
 20
349.1966118821537
 30
0.0
 10
251.4271443292928
 20
345.0444080335573
 30
0.0
 10
251.357513327832
 20
342.3396172386516
 30
0.0
 10
251.3238155321966
 20
341.0306386869862
 30
0.0
  0
SPLINE
  5
110
330
1F
100
AcDbEntity
  8
0
  6
Continuous
 62
     7
370
    25
100
AcDbSpline
210
0.0
220
0.0
230
1.0
 70
     8
 71
     3
 72
    35
 73
    31
 74
     0
 42
0.00000001
 43
0.00000001
 40
0.0
 40
0.0
 40
0.0
 40
0.0
 40
0.0282546077224688
 40
0.058383442663612
 40
0.0903495399278252
 40
0.1258616479030778
 40
0.1640104750499141
 40
0.2048405213069366
 40
0.2374624815847352
 40
0.2716127104071104
 40
0.3071914351681273
 40
0.3440550017625693
 40
0.3820151215667257
 40
0.4208413631481656
 40
0.4602672732901779
 40
0.500000004480948
 40
0.539732735671718
 40
0.5791586458137302
 40
0.6179848873951702
 40
0.6559450071993266
 40
0.6928085737937687
 40
0.7283872985547856
 40
0.7625375273771606
 40
0.7951594876549594
 40
0.8359928376182576
 40
0.8741415922594713
 40
0.9096504660940462
 40
0.9416198397647849
 40
0.9717470283710186
 40
1.0
 40
1.0
 40
1.0
 40
1.0
 10
251.3238155321966
 20
341.0306386869862
 30
0.0
 10
251.3575052286039
 20
339.7215834011495
 30
0.0
 10
251.4271193771303
 20
337.0166386015313
 30
0.0
 10
252.0170744484137
 20
332.8644469734469
 30
0.0
 10
253.059050807644
 20
328.4591894039375
 30
0.0
 10
254.6938445043369
 20
323.836638521194
 30
0.0
 10
257.0303875825718
 20
319.0627483130528
 30
0.0
 10
259.8686860231445
 20
314.7249463953511
 30
0.0
 10
263.0644691458036
 20
310.8900755293379
 30
0.0
 10
266.4703977744956
 20
307.5795736075722
 30
0.0
 10
270.3736089069429
 20
304.5398973083842
 30
0.0
 10
274.7483695938063
 20
301.8705251955803
 30
0.0
 10
279.5436205254193
 20
299.669410328052
 30
0.0
 10
284.6827583288612
 20
298.0248720380675
 30
0.0
 10
290.0660576400788
 20
297.0075472459132
 30
0.0
 10
295.5762020634022
 20
296.6631602338137
 30
0.0
 10
301.0863464861006
 20
297.0075472461351
 30
0.0
 10
306.4696457991691
 20
298.0248720371935
 30
0.0
 10
311.6087835959848
 20
299.6694103312446
 30
0.0
 10
316.4040345514562
 20
301.8705251840924
 30
0.0
 10
320.7787951531632
 20
304.5398973493044
 30
0.0
 10
324.6820065868366
 20
307.5795734631051
 30
0.0
 10
328.0879341585658
 20
310.8900760353714
 30
0.0
 10
331.2838194528466
 20
314.7250621496834
 30
0.0
 10
334.1221603566747
 20
319.0630171307941
 30
0.0
 10
336.4586859970636
 20
323.8369167602521
 30
0.0
 10
338.0934265587954
 20
328.4594813585213
 30
0.0
 10
339.1354044460603
 20
332.8646654918891
 30
0.0
 10
339.7252597972966
 20
337.0168693404885
 30
0.0
 10
339.79489079876
 20
339.7216601353438
 30
0.0
 10
339.8285885943966
 20
341.0306386869868
 30
0.0
  0
ARC
  5
111
330
1F
100
AcDbEntity
  8
0
  6
Continuous
 62
     7
370
    25
100
AcDbCircle
 10
295.5762020633
 20
341.030638687
 30
0.0
 40
40.35476230894864
100
AcDbArc
 50
360.0
 51
180.0
  0
ARC
  5
112
330
1F
100
AcDbEntity
  8
0
  6
Continuous
 62
     7
370
    25
100
AcDbCircle
 10
295.5762020633
 20
341.030638687
 30
0.0
 40
40.35476230894864
100
AcDbArc
 50
180.0
 51
360.0
  0
CIRCLE
  5
113
330
1F
100
AcDbEntity
  8
0
  6
Continuous
 62
     7
370
    25
100
AcDbCircle
 10
295.5762020633
 20
341.030638687
 30
0.0
 40
39.9381233310001
  0
LINE
  5
114
330
1F
100
AcDbEntity
  8
0
  6
Continuous
 62
     7
370
    25
100
AcDbLine
 10
376.0762020633
 20
438.8824684624
 30
0.0
 11
325.0762020629
 21
438.8824684624
 31
0.0
  0
ARC
  5
115
330
1F
100
AcDbEntity
  8
0
  6
Continuous
 62
     7
370
    25
100
AcDbCircle
 10
376.5748325371
 20
429.250303221
 30
0.0
 40
9.645062964425293
100
AcDbArc
 50
81.0448095032
 51
92.9633982991
  0
LINE
  5
116
330
1F
100
AcDbEntity
  8
0
  6
Continuous
 62
     7
370
    25
100
AcDbLine
 10
378.0762020633
 20
437.4170616876
 30
0.0
 11
378.0762020633
 21
438.7777965499
 31
0.0
  0
ARC
  5
117
330
1F
100
AcDbEntity
  8
0
  6
Continuous
 62
     7
370
    25
100
AcDbCircle
 10
376.5748325371
 20
446.9445550142
 30
0.0
 40
9.645062962090178
100
AcDbArc
 50
267.0366016998
 51
278.9551904985
  0
LINE
  5
118
330
1F
100
AcDbEntity
  8
0
  6
Continuous
 62
     7
370
    25
100
AcDbLine
 10
325.0762020633
 20
437.3123897751
 30
0.0
 11
332.2577283899
 21
437.3123897751
 31
0.0
  0
LINE
  5
119
330
1F
100
AcDbEntity
  8
0
  6
Continuous
 62
     7
370
    25
100
AcDbLine
 10
368.894675737
 20
437.3123897751
 30
0.0
 11
376.0762020633
 21
437.3123897751
 31
0.0
  0
ARC
  5
11A
330
1F
100
AcDbEntity
  8
0
  6
Continuous
 62
     7
370
    25
100
AcDbCircle
 10
324.5775715895
 20
446.9445550142
 30
0.0
 40
9.645062962093846
100
AcDbArc
 50
261.0448095014
 51
272.9633983001
  0
LINE
  5
11B
330
1F
100
AcDbEntity
  8
0
  6
Continuous
 62
     7
370
    25
100
AcDbLine
 10
323.0762020633
 20
438.7777965499
 30
0.0
 11
323.0762020633
 21
437.4170616876
 31
0.0
  0
ARC
  5
11C
330
1F
100
AcDbEntity
  8
0
  6
Continuous
 62
     7
370
    25
100
AcDbCircle
 10
324.5775715892
 20
429.2503032257
 30
0.0
 40
9.64506295969096
100
AcDbArc
 50
87.0366017001
 51
98.9551904993
  0
SPLINE
  5
11D
330
1F
100
AcDbEntity
  8
0
  6
Continuous
 62
     7
370
    25
100
AcDbSpline
210
0.0
220
0.0
230
1.0
 70
     8
 71
     3
 72
     9
 73
     5
 74
     0
 42
0.00000001
 43
0.00000001
 40
0.0
 40
0.0
 40
0.0
 40
0.0
 40
0.4994878755538796
 40
1.0
 40
1.0
 40
1.0
 40
1.0
 10
373.5954137462986
 20
437.5285785317313
 30
0.0
 10
373.2559472607639
 20
437.5141499161714
 30
0.0
 10
372.5763181803616
 20
437.4852630977599
 30
0.0
 10
371.7052909765358
 20
437.4805991807917
 30
0.0
 10
371.2693313002986
 20
437.4782648338018
 30
0.0
  0
SPLINE
  5
11E
330
1F
100
AcDbEntity
  8
0
  6
Continuous
 62
     7
370
    25
100
AcDbSpline
210
0.0
220
0.0
230
1.0
 70
     8
 71
     3
 72
     9
 73
     5
 74
     0
 42
0.00000001
 43
0.00000001
 40
0.0
 40
0.0
 40
0.0
 40
0.0
 40
0.4994878755534708
 40
1.0
 40
1.0
 40
1.0
 40
1.0
 10
373.5954137462986
 20
437.5285785317313
 30
0.0
 10
373.8711059586346
 20
437.5463448348656
 30
0.0
 10
374.4230557172357
 20
437.5819138726819
 30
0.0
 10
374.5121706833092
 20
437.6274999143047
 30
0.0
 10
374.5567738042986
 20
437.6503162808425
 30
0.0
  0
LINE
  5
11F
330
1F
100
AcDbEntity
  8
0
  6
Continuous
 62
     7
370
    25
100
AcDbLine
 10
374.556773804
 20
438.5445419567
 30
0.0
 11
374.556773804
 21
437.6503162808
 31
0.0
  0
SPLINE
  5
120
330
1F
100
AcDbEntity
  8
0
  6
Continuous
 62
     7
370
    25
100
AcDbSpline
210
0.0
220
0.0
230
1.0
 70
     8
 71
     3
 72
     9
 73
     5
 74
     0
 42
0.00000001
 43
0.00000001
 40
0.0
 40
0.0
 40
0.0
 40
0.0
 40
0.4994878755531508
 40
1.0
 40
1.0
 40
1.0
 40
1.0
 10
373.5954137462986
 20
438.6662797058061
 30
0.0
 10
373.8711059586345
 20
438.6485134026739
 30
0.0
 10
374.4230557172361
 20
438.612944364862
 30
0.0
 10
374.5121706833093
 20
438.5673583232344
 30
0.0
 10
374.5567738042986
 20
438.5445419566942
 30
0.0
  0
SPLINE
  5
121
330
1F
100
AcDbEntity
  8
0
  6
Continuous
 62
     7
370
    25
100
AcDbSpline
210
0.0
220
0.0
230
1.0
 70
     8
 71
     3
 72
     9
 73
     5
 74
     0
 42
0.00000001
 43
0.00000001
 40
0.0
 40
0.0
 40
0.0
 40
0.0
 40
0.5005121244457196
 40
1.0
 40
1.0
 40
1.0
 40
1.0
 10
371.2693313002986
 20
438.7165934037333
 30
0.0
 10
371.7052909765359
 20
438.7142590567464
 30
0.0
 10
372.5763181803627
 20
438.7095951397844
 30
0.0
 10
373.2559472607641
 20
438.6807083213682
 30
0.0
 10
373.5954137462986
 20
438.666279705806
 30
0.0
  0
LINE
  5
122
330
1F
100
AcDbEntity
  8
0
  6
Continuous
 62
     7
370
    25
100
AcDbLine
 10
329.8830728483
 20
438.7165934032
 30
0.0
 11
371.2693312783
 21
438.7165934032
 31
0.0
  0
SPLINE
  5
123
330
1F
100
AcDbEntity
  8
0
  6
Continuous
 62
     7
370
    25
100
AcDbSpline
210
0.0
220
0.0
230
1.0
 70
     8
 71
     3
 72
     9
 73
     5
 74
     0
 42
0.00000001
 43
0.00000001
 40
0.0
 40
0.0
 40
0.0
 40
0.0
 40
0.4994878755541901
 40
1.0
 40
1.0
 40
1.0
 40
1.0
 10
327.5569903802983
 20
438.6662797058051
 30
0.0
 10
327.8964568658327
 20
438.6807083213677
 30
0.0
 10
328.5760859462338
 20
438.7095951397848
 30
0.0
 10
329.4471131500608
 20
438.7142590567461
 30
0.0
 10
329.8830728262982
 20
438.7165934037327
 30
0.0
  0
SPLINE
  5
124
330
1F
100
AcDbEntity
  8
0
  6
Continuous
 62
     7
370
    25
100
AcDbSpline
210
0.0
220
0.0
230
1.0
 70
     8
 71
     3
 72
     9
 73
     5
 74
     0
 42
0.00000001
 43
0.00000001
 40
0.0
 40
0.0
 40
0.0
 40
0.0
 40
0.5005121244470145
 40
1.0
 40
1.0
 40
1.0
 40
1.0
 10
326.5956303222983
 20
438.5445419566931
 30
0.0
 10
326.6402334432873
 20
438.5673583232338
 30
0.0
 10
326.7293484093599
 20
438.6129443648625
 30
0.0
 10
327.2812981679621
 20
438.6485134026734
 30
0.0
 10
327.5569903802983
 20
438.6662797058051
 30
0.0
  0
LINE
  5
125
330
1F
100
AcDbEntity
  8
0
  6
Continuous
 62
     7
370
    25
100
AcDbLine
 10
326.5956303226
 20
437.6503162808
 30
0.0
 11
326.5956303226
 21
438.5445419567
 31
0.0
  0
SPLINE
  5
126
330
1F
100
AcDbEntity
  8
0
  6
Continuous
 62
     7
370
    25
100
AcDbSpline
210
0.0
220
0.0
230
1.0
 70
     8
 71
     3
 72
     9
 73
     5
 74
     0
 42
0.00000001
 43
0.00000001
 40
0.0
 40
0.0
 40
0.0
 40
0.0
 40
0.4994878755544769
 40
1.0
 40
1.0
 40
1.0
 40
1.0
 10
327.5569903802983
 20
437.5285785317302
 30
0.0
 10
327.2812981679621
 20
437.5463448348651
 30
0.0
 10
326.7293484093617
 20
437.5819138726823
 30
0.0
 10
326.6402334432879
 20
437.6274999143041
 30
0.0
 10
326.5956303222983
 20
437.6503162808413
 30
0.0
  0
SPLINE
  5
127
330
1F
100
AcDbEntity
  8
0
  6
Continuous
 62
     7
370
    25
100
AcDbSpline
210
0.0
220
0.0
230
1.0
 70
     8
 71
     3
 72
     9
 73
     5
 74
     0
 42
0.00000001
 43
0.00000001
 40
0.0
 40
0.0
 40
0.0
 40
0.0
 40
0.5005121244466919
 40
1.0
 40
1.0
 40
1.0
 40
1.0
 10
329.8830728262983
 20
437.4782648338017
 30
0.0
 10
329.4471131500611
 20
437.4805991807917
 30
0.0
 10
328.5760859462362
 20
437.4852630977601
 30
0.0
 10
327.8964568658331
 20
437.5141499161708
 30
0.0
 10
327.5569903802983
 20
437.5285785317302
 30
0.0
  0
LINE
  5
128
330
1F
100
AcDbEntity
  8
0
  6
Continuous
 62
     7
370
    25
100
AcDbLine
 10
325.0762020629
 20
439.4816461833
 30
0.0
 11
325.0762020629
 21
438.8824684624
 31
0.0
  0
LINE
  5
129
330
1F
100
AcDbEntity
  8
0
  6
Continuous
 62
     7
370
    25
100
AcDbLine
 10
376.0762020633
 20
439.4816461833
 30
0.0
 11
325.0762020629
 21
439.4816461833
 31
0.0
  0
LINE
  5
12A
330
1F
100
AcDbEntity
  8
0
  6
Continuous
 62
     7
370
    25
100
AcDbLine
 10
376.0762020633
 20
439.4816461833
 30
0.0
 11
376.0762020633
 21
438.8824684624
 31
0.0
  0
LINE
  5
12B
330
1F
100
AcDbEntity
  8
0
  6
Continuous
 62
     7
370
    25
100
AcDbLine
 10
323.0762020633
 20
439.3769742708
 30
0.0
 11
323.0762020633
 21
438.7777965499
 31
0.0
  0
ARC
  5
12C
330
1F
100
AcDbEntity
  8
0
  6
Continuous
 62
     7
370
    25
100
AcDbCircle
 10
324.5775715892
 20
429.8494809466
 30
0.0
 40
9.645062959675576
100
AcDbArc
 50
87.0366017001
 51
98.9551904994
  0
ARC
  5
12D
330
1F
100
AcDbEntity
  8
0
  6
Continuous
 62
     7
370
    25
100
AcDbCircle
 10
376.5748325371
 20
429.8494809418
 30
0.0
 40
9.645062964429759
100
AcDbArc
 50
81.0448095032
 51
92.963398299
  0
LINE
  5
12E
330
1F
100
AcDbEntity
  8
0
  6
Continuous
 62
     7
370
    25
100
AcDbLine
 10
378.0762020633
 20
439.3769742708
 30
0.0
 11
378.0762020633
 21
438.7777965499
 31
0.0
  0
LINE
  5
12F
330
1F
100
AcDbEntity
  8
0
  6
Continuous
 62
     7
370
    25
100
AcDbLine
 10
332.4762020633
 20
437.8840694973
 30
0.0
 11
368.6762020633
 21
437.8840694973
 31
0.0
  0
ARC
  5
130
330
1F
100
AcDbEntity
  8
0
  6
Continuous
 62
     7
370
    25
100
AcDbCircle
 10
368.8008596818
 20
435.4760281876
 30
0.0
 40
2.411265740512404
100
AcDbArc
 50
81.0448095014
 51
92.9633983002
  0
ARC
  5
131
330
1F
100
AcDbEntity
  8
0
  6
Continuous
 62
     7
370
    25
100
AcDbCircle
 10
332.351544445
 20
435.4760281871
 30
0.0
 40
2.41126574095312
100
AcDbArc
 50
87.036601703
 51
98.9551904971
  0
LINE
  5
132
330
1F
100
AcDbEntity
  8
0
  6
Continuous
 62
     7
370
    25
100
AcDbLine
 10
331.9762020634
 20
437.8579015192
 30
0.0
 11
331.9762020634
 21
437.2298700443
 31
0.0
  0
LINE
  5
133
330
1F
100
AcDbEntity
  8
0
  6
Continuous
 62
     7
370
    25
100
AcDbLine
 10
369.1762020633
 20
437.8579015192
 30
0.0
 11
369.1762020633
 21
437.2298700443
 31
0.0
  0
ARC
  5
134
330
1F
100
AcDbEntity
  8
0
  6
Continuous
 62
     7
370
    25
100
AcDbCircle
 10
368.8008596818
 20
439.6117433759
 30
0.0
 40
2.411265740435702
100
AcDbArc
 50
267.0366016995
 51
278.9551904987
  0
LINE
  5
135
330
1F
100
AcDbEntity
  8
0
  6
Continuous
 62
     7
370
    25
100
AcDbLine
 10
368.6762020633
 20
437.2037020662
 30
0.0
 11
332.4762020633
 21
437.2037020662
 31
0.0
  0
ARC
  5
136
330
1F
100
AcDbEntity
  8
0
  6
Continuous
 62
     7
370
    25
100
AcDbCircle
 10
332.3515444448
 20
439.6117433733
 30
0.0
 40
2.411265737911656
100
AcDbArc
 50
261.0448094958
 51
272.9633983051
  0
LWPOLYLINE
  5
137
330
1F
100
AcDbEntity
  8
0
  6
Continuous
 62
     7
370
    25
100
AcDbPolyline
 90
        3
 70
   128
 43
0.0
 10
331.0522469958
 20
437.8465227596
 10
330.9954167829
 20
438.0336766215
 10
330.9762020633
 20
438.228499579
  0
LINE
  5
138
330
1F
100
AcDbEntity
  8
0
  6
Continuous
 62
     7
370
    25
100
AcDbLine
 10
330.9762020633
 20
438.228499579
 30
0.0
 11
330.9762020633
 21
438.7146747524
 31
0.0
  0
LINE
  5
139
330
1F
100
AcDbEntity
  8
0
  6
Continuous
 62
     7
370
    25
100
AcDbLine
 10
370.1762020633
 20
438.7146747524
 30
0.0
 11
370.1762020633
 21
438.2284995791
 31
0.0
  0
LWPOLYLINE
  5
13A
330
1F
100
AcDbEntity
  8
0
  6
Continuous
 62
     7
370
    25
100
AcDbPolyline
 90
        4
 70
   128
 43
0.0
 10
370.1762020633
 20
438.228499579
 10
370.1569873437
 20
438.0336766215
 10
370.1000815958
 20
437.846340601
 10
370.1000050949
 20
437.8461562167
  0
SPLINE
  5
13B
330
1F
100
AcDbEntity
  8
0
  6
Continuous
 62
     7
370
    25
100
AcDbSpline
210
0.0
220
0.0
230
1.0
 70
     8
 71
     3
 72
    30
 73
    26
 74
     0
 42
0.00000001
 43
0.00000001
 40
0.0
 40
0.0
 40
0.0
 40
0.0
 40
0.041174174816041
 40
0.0825549661109903
 40
0.1241428108733517
 40
0.1659381395917698
 40
0.2079413763700565
 40
0.2501529390400493
 40
0.2925732392723243
 40
0.3352026826847826
 40
0.3780416689492133
 40
0.4210905918957687
 40
0.4643498396154912
 40
0.5078197945608505
 40
0.5515008336443875
 40
0.5953933283354185
 40
0.6394976447549668
 40
0.6838141437687851
 40
0.7283431810786645
 40
0.7730851073119498
 40
0.8180402681093645
 40
0.863209004211137
 40
0.9085916515414608
 40
0.9541885412913753
 40
1.0
 40
1.0
 40
1.0
 40
1.0
 10
467.5073385582124
 20
69.09950219207268
 30
0.0
 10
467.5827764665515
 20
69.17636813236938
 30
0.0
 10
467.7340308388432
 20
69.33048573459544
 30
0.0
 10
467.9517724729416
 20
69.57146489954802
 30
0.0
 10
468.1631214032756
 20
69.8201498997191
 30
0.0
 10
468.3670500428445
 20
70.07706035881434
 30
0.0
 10
468.5633986961421
 20
70.34183483517594
 30
0.0
 10
468.751776035073
 20
70.61433081571258
 30
0.0
 10
468.931856704445
 20
70.89432758592993
 30
0.0
 10
469.1033017847539
 20
71.18160629106552
 30
0.0
 10
469.2657810847672
 20
71.47592820481621
 30
0.0
 10
469.4189679652023
 20
71.77704050821612
 30
0.0
 10
469.5625415944783
 20
72.08467467577206
 30
0.0
 10
469.6961872193077
 20
72.39854689187483
 30
0.0
 10
469.8195969724522
 20
72.71835795530134
 30
0.0
 10
469.9324706051222
 20
73.04379335947098
 30
0.0
 10
470.0345160464348
 20
73.37452336389558
 30
0.0
 10
470.1254507980919
 20
73.71020310908142
 30
0.0
 10
470.2050001945185
 20
74.05047275784857
 30
0.0
 10
470.2729074918317
 20
74.39495768473867
 30
0.0
 10
470.3288995213203
 20
74.74326864934328
 30
0.0
 10
470.372819389966
 20
75.09500219569154
 30
0.0
 10
470.4041313199726
 20
75.44974037268612
 30
0.0
 10
470.4237853771889
 20
75.80705318086234
 30
0.0
 10
470.4260647816494
 20
76.04611662948946
 30
0.0
 10
470.4272071591793
 20
76.1659289386517
 30
0.0
  0
LINE
  5
13C
330
1F
100
AcDbEntity
  8
0
  6
Continuous
 62
     7
370
    25
100
AcDbLine
 10
473.4230957634
 20
76.1659289387
 30
0.0
 11
470.4272071592
 21
76.1659289387
 31
0.0
  0
SPLINE
  5
13D
330
1F
100
AcDbEntity
  8
0
  6
Continuous
 62
     7
370
    25
100
AcDbSpline
210
0.0
220
0.0
230
1.0
 70
     8
 71
     3
 72
    14
 73
    10
 74
     0
 42
0.00000001
 43
0.00000001
 40
0.0
 40
0.0
 40
0.0
 40
0.0
 40
0.25
 40
0.25
 40
0.5
 40
0.5
 40
0.75
 40
0.75
 40
1.0
 40
1.0
 40
1.0
 40
1.0
 10
473.4230957634433
 20
76.16592893865176
 30
0.0
 10
473.4230957634432
 20
75.33701952843991
 30
0.0
 10
473.3431966475484
 20
74.49230662084175
 30
0.0
 10
473.0140561275694
 20
72.81889323153376
 30
0.0
 10
472.764752011608
 20
71.99050564647325
 30
0.0
 10
472.1064082597729
 20
70.39984902222218
 30
0.0
 10
471.697494047654
 20
69.63788302551613
 30
0.0
 10
470.7482487133158
 20
68.22252565965248
 30
0.0
 10
470.2081828234386
 20
67.56931071347194
 30
0.0
 10
469.6228564301258
 20
66.98398432015922
 30
0.0
  0
LINE
  5
13E
330
1F
100
AcDbEntity
  8
0
  6
Continuous
 62
     7
370
    25
100
AcDbLine
 10
469.6228564301
 20
66.9839843202
 30
0.0
 11
467.5073385582
 21
69.0995021921
 31
0.0
  0
SPLINE
  5
13F
330
1F
100
AcDbEntity
  8
0
  6
Continuous
 62
     7
370
    25
100
AcDbSpline
210
0.0
220
0.0
230
1.0
 70
     8
 71
     3
 72
    30
 73
    26
 74
     0
 42
0.00000001
 43
0.00000001
 40
0.0
 40
0.0
 40
0.0
 40
0.0
 40
0.0411741748160514
 40
0.0825549661110112
 40
0.1241428108733807
 40
0.1659381395918069
 40
0.2079413763700997
 40
0.2501529390400949
 40
0.2925732392723734
 40
0.3352026826848383
 40
0.378041668949271
 40
0.4210905918958285
 40
0.4643498396155515
 40
0.5078197945609116
 40
0.5515008336444427
 40
0.5953933283354763
 40
0.6394976447550217
 40
0.6838141437688385
 40
0.7283431810787113
 40
0.7730851073119902
 40
0.8180402681094013
 40
0.8632090042111639
 40
0.9085916515414809
 40
0.9541885412913819
 40
1.0
 40
1.0
 40
1.0
 40
1.0
 10
123.6450655683843
 20
512.9617751819007
 30
0.0
 10
123.5696276600451
 20
512.884909241604
 30
0.0
 10
123.4183732877534
 20
512.7307916393779
 30
0.0
 10
123.2006316536549
 20
512.4898124744253
 30
0.0
 10
122.9892827233209
 20
512.2411274742542
 30
0.0
 10
122.785354083752
 20
511.9842170151588
 30
0.0
 10
122.5890054304543
 20
511.7194425387972
 30
0.0
 10
122.4006280915234
 20
511.4469465582605
 30
0.0
 10
122.2205474221514
 20
511.1669497880431
 30
0.0
 10
122.0491023418425
 20
510.8796710829076
 30
0.0
 10
121.8866230418293
 20
510.5853491691568
 30
0.0
 10
121.7334361613941
 20
510.284236865757
 30
0.0
 10
121.5898625321182
 20
509.9766026982009
 30
0.0
 10
121.4562169072888
 20
509.6627304820983
 30
0.0
 10
121.3328071541442
 20
509.3429194186717
 30
0.0
 10
121.2199335214744
 20
509.017484014502
 30
0.0
 10
121.1178880801617
 20
508.6867540100774
 30
0.0
 10
121.0269533285047
 20
508.3510742648918
 30
0.0
 10
120.9474039320781
 20
508.0108046161245
 30
0.0
 10
120.8794966347648
 20
507.6663196892345
 30
0.0
 10
120.8235046052763
 20
507.3180087246301
 30
0.0
 10
120.7795847366306
 20
506.9662751782819
 30
0.0
 10
120.7482728066241
 20
506.6115370012873
 30
0.0
 10
120.7286187494078
 20
506.2542241931112
 30
0.0
 10
120.7263393449472
 20
506.015160744484
 30
0.0
 10
120.7251969674173
 20
505.8953484353219
 30
0.0
  0
LINE
  5
140
330
1F
100
AcDbEntity
  8
0
  6
Continuous
 62
     7
370
    25
100
AcDbLine
 10
120.7251969674
 20
505.8953484353
 30
0.0
 11
117.7293083632
 21
505.8953484353
 31
0.0
  0
SPLINE
  5
141
330
1F
100
AcDbEntity
  8
0
  6
Continuous
 62
     7
370
    25
100
AcDbSpline
210
0.0
220
0.0
230
1.0
 70
     8
 71
     3
 72
    14
 73
    10
 74
     0
 42
0.00000001
 43
0.00000001
 40
0.0
 40
0.0
 40
0.0
 40
0.0
 40
0.25
 40
0.25
 40
0.5
 40
0.5
 40
0.75
 40
0.75
 40
1.0
 40
1.0
 40
1.0
 40
1.0
 10
117.7293083631538
 20
505.8953484353217
 30
0.0
 10
117.7293083631537
 20
506.7242578455335
 30
0.0
 10
117.8092074790484
 20
507.5689707531318
 30
0.0
 10
118.1383479990272
 20
509.2423841424397
 30
0.0
 10
118.3876521149886
 20
510.0707717275002
 30
0.0
 10
119.0459958668236
 20
511.6614283517513
 30
0.0
 10
119.4549100789426
 20
512.4233943484574
 30
0.0
 10
120.4041554132808
 20
513.838751714321
 30
0.0
 10
120.9442213031579
 20
514.4919666605016
 30
0.0
 10
121.5295476964708
 20
515.0772930538143
 30
0.0
  0
LINE
  5
142
330
1F
100
AcDbEntity
  8
0
  6
Continuous
 62
     7
370
    25
100
AcDbLine
 10
121.5295476965
 20
515.0772930538
 30
0.0
 11
123.6450655684
 21
512.9617751819
 31
0.0
  0
SPLINE
  5
143
330
1F
100
AcDbEntity
  8
0
  6
Continuous
 62
     7
370
    25
100
AcDbSpline
210
0.0
220
0.0
230
1.0
 70
     8
 71
     3
 72
    30
 73
    26
 74
     0
 42
0.00000001
 43
0.00000001
 40
0.0
 40
0.0
 40
0.0
 40
0.0
 40
0.0411741748160513
 40
0.0825549661110087
 40
0.1241428108733804
 40
0.1659381395918043
 40
0.207941376370097
 40
0.2501529390400971
 40
0.2925732392723724
 40
0.3352026826848373
 40
0.3780416689492683
 40
0.4210905918958256
 40
0.4643498396155485
 40
0.5078197945609133
 40
0.5515008336444442
 40
0.5953933283354778
 40
0.6394976447550197
 40
0.6838141437688364
 40
0.7283431810787119
 40
0.7730851073119906
 40
0.8180402681094022
 40
0.8632090042111642
 40
0.9085916515414847
 40
0.9541885412913856
 40
1.0
 40
1.0
 40
1.0
 40
1.0
 10
467.5073385582123
 20
512.9617751819007
 30
0.0
 10
467.4304726179155
 20
513.03721309024
 30
0.0
 10
467.2763550156894
 20
513.1884674625317
 30
0.0
 10
467.0353758507368
 20
513.40620909663
 30
0.0
 10
466.7866908505657
 20
513.617558026964
 30
0.0
 10
466.5297803914704
 20
513.821486666533
 30
0.0
 10
466.2650059151088
 20
514.0178353198309
 30
0.0
 10
465.992509934572
 20
514.2062126587615
 30
0.0
 10
465.7125131643547
 20
514.3862933281335
 30
0.0
 10
465.4252344592192
 20
514.5577384084426
 30
0.0
 10
465.1309125454683
 20
514.7202177084557
 30
0.0
 10
464.8298002420684
 20
514.8734045888907
 30
0.0
 10
464.5221660745125
 20
515.0169782181669
 30
0.0
 10
464.2082938584097
 20
515.1506238429963
 30
0.0
 10
463.8884827949832
 20
515.2740335961407
 30
0.0
 10
463.5630473908136
 20
515.3869072288107
 30
0.0
 10
463.2323173863889
 20
515.4889526701232
 30
0.0
 10
462.8966376412032
 20
515.5798874217803
 30
0.0
 10
462.5563679924359
 20
515.6594368182068
 30
0.0
 10
462.211883065546
 20
515.7273441155202
 30
0.0
 10
461.8635721009414
 20
515.7833361450087
 30
0.0
 10
461.5118385545932
 20
515.8272560136543
 30
0.0
 10
461.1571003775987
 20
515.8585679436609
 30
0.0
 10
460.7997875694226
 20
515.8782220008773
 30
0.0
 10
460.5607241207955
 20
515.8805014053377
 30
0.0
 10
460.4409118116333
 20
515.8816437828676
 30
0.0
  0
LINE
  5
144
330
1F
100
AcDbEntity
  8
0
  6
Continuous
 62
     7
370
    25
100
AcDbLine
 10
460.4409118116
 20
515.8816437829
 30
0.0
 11
460.4409118116
 21
518.8775323871
 31
0.0
  0
SPLINE
  5
145
330
1F
100
AcDbEntity
  8
0
  6
Continuous
 62
     7
370
    25
100
AcDbSpline
210
0.0
220
0.0
230
1.0
 70
     8
 71
     3
 72
    14
 73
    10
 74
     0
 42
0.00000001
 43
0.00000001
 40
0.0
 40
0.0
 40
0.0
 40
0.0
 40
0.25
 40
0.25
 40
0.5
 40
0.5
 40
0.75
 40
0.75
 40
1.0
 40
1.0
 40
1.0
 40
1.0
 10
460.4409118116333
 20
518.8775323871317
 30
0.0
 10
461.2698212218452
 20
518.8775323871317
 30
0.0
 10
462.1145341294434
 20
518.7976332712368
 30
0.0
 10
463.7879475187515
 20
518.4684927512579
 30
0.0
 10
464.616335103812
 20
518.2191886352965
 30
0.0
 10
466.2069917280631
 20
517.5608448834614
 30
0.0
 10
466.968957724769
 20
517.1519306713425
 30
0.0
 10
468.3843150906326
 20
516.2026853370041
 30
0.0
 10
469.0375300368131
 20
515.6626194471271
 30
0.0
 10
469.6228564301258
 20
515.0772930538143
 30
0.0
  0
LINE
  5
146
330
1F
100
AcDbEntity
  8
0
  6
Continuous
 62
     7
370
    25
100
AcDbLine
 10
469.6228564301
 20
515.0772930538
 30
0.0
 11
467.5073385582
 21
512.9617751819
 31
0.0
  0
LINE
  5
147
330
1F
100
AcDbEntity
  8
0
  6
Continuous
 62
     7
370
    25
100
AcDbLine
 10
470.4272071592
 20
505.8953484353
 30
0.0
 11
473.4230957634
 21
505.8953484353
 31
0.0
  0
SPLINE
  5
148
330
1F
100
AcDbEntity
  8
0
  6
Continuous
 62
     7
370
    25
100
AcDbSpline
210
0.0
220
0.0
230
1.0
 70
     8
 71
     3
 72
    33
 73
    29
 74
     0
 42
0.00000001
 43
0.00000001
 40
0.0
 40
0.0
 40
0.0
 40
0.0
 40
0.0405365206604386
 40
0.0809050985483194
 40
0.1211059591965453
 40
0.1611393309751921
 40
0.2010054451352663
 40
0.2407045358532496
 40
0.2802368402764062
 40
0.3196025985688535
 40
0.3588020539584658
 40
0.3978354527845409
 40
0.436703044546342
 40
0.4754050819524377
 40
0.5139418209709109
 40
0.5523135208804566
 40
0.5905204443223024
 40
0.6285628573530923
 40
0.6664410294986389
 40
0.7041552338086146
 40
0.7417057469121837
 40
0.7790928490745987
 40
0.8163168242547507
 40
0.8533779601637234
 40
0.8902765483243589
 40
0.9270128841317982
 40
0.9635872669151256
 40
1.0
 40
1.0
 40
1.0
 40
1.0
 10
470.4272071591792
 20
505.8953484353218
 30
0.0
 10
470.4263226919765
 20
506.0013647565737
 30
0.0
 10
470.4245574219181
 20
506.2129581735436
 30
0.0
 10
470.4091871184872
 20
506.5293856596411
 30
0.0
 10
470.3846584511269
 20
506.8438777733644
 30
0.0
 10
470.3502044524016
 20
507.1561342802524
 30
0.0
 10
470.3062208090888
 20
507.4658619602162
 30
0.0
 10
470.2528039446899
 20
507.7727764588798
 30
0.0
 10
470.1901397713114
 20
508.0766020084791
 30
0.0
 10
470.1183996534731
 20
508.377071693527
 30
0.0
 10
470.0377675887324
 20
508.6739275493408
 30
0.0
 10
469.9484324519655
 20
508.9669206834359
 30
0.0
 10
469.8505895449637
 20
509.2558113696826
 30
0.0
 10
469.7444396722051
 20
509.5403691290129
 30
0.0
 10
469.6301888799654
 20
509.8203727937116
 30
0.0
 10
469.5080480234596
 20
510.0956105559048
 30
0.0
 10
469.3782323876626
 20
510.3658800032491
 30
0.0
 10
469.2409612926322
 20
510.630988131876
 30
0.0
 10
469.0964577383109
 20
510.8907513758063
 30
0.0
 10
468.9449479412405
 20
511.1449955095062
 30
0.0
 10
468.7866612978602
 20
511.3935559572311
 30
0.0
 10
468.6218287975912
 20
511.6362765327235
 30
0.0
 10
468.4506872158223
 20
511.8730139395809
 30
0.0
 10
468.2734619109773
 20
512.1036208561551
 30
0.0
 10
468.0904289843974
 20
512.3280083657777
 30
0.0
 10
467.9016832366755
 20
512.5459141592271
 30
0.0
 10
467.7079969128578
 20
512.7577615278386
 30
0.0
 10
467.5741258452047
 20
512.8938711143711
 30
0.0
 10
467.5073385582123
 20
512.9617751819007
 30
0.0
  0
SPLINE
  5
149
330
1F
100
AcDbEntity
  8
0
  6
Continuous
 62
     7
370
    25
100
AcDbSpline
210
0.0
220
0.0
230
1.0
 70
     8
 71
     3
 72
    14
 73
    10
 74
     0
 42
0.00000001
 43
0.00000001
 40
0.0
 40
0.0
 40
0.0
 40
0.0
 40
0.25
 40
0.25
 40
0.5
 40
0.5
 40
0.75
 40
0.75
 40
1.0
 40
1.0
 40
1.0
 40
1.0
 10
469.6228564301258
 20
515.0772930538143
 30
0.0
 10
470.2081828234386
 20
514.4919666605016
 30
0.0
 10
470.7482487133158
 20
513.838751714321
 30
0.0
 10
471.6974940476539
 20
512.4233943484574
 30
0.0
 10
472.1064082597729
 20
511.6614283517516
 30
0.0
 10
472.7647520116079
 20
510.0707717275005
 30
0.0
 10
473.0140561275693
 20
509.2423841424401
 30
0.0
 10
473.3431966475481
 20
507.5689707531321
 30
0.0
 10
473.4230957634428
 20
506.7242578455338
 30
0.0
 10
473.4230957634427
 20
505.8953484353217
 30
0.0
  0
LINE
  5
14A
330
1F
100
AcDbEntity
  8
0
  6
Continuous
 62
     7
370
    25
100
AcDbLine
 10
460.4409118116
 20
63.1837449868
 30
0.0
 11
460.4409118116
 21
66.1796335911
 31
0.0
  0
SPLINE
  5
14B
330
1F
100
AcDbEntity
  8
0
  6
Continuous
 62
     7
370
    25
100
AcDbSpline
210
0.0
220
0.0
230
1.0
 70
     8
 71
     3
 72
    33
 73
    29
 74
     0
 42
0.00000001
 43
0.00000001
 40
0.0
 40
0.0
 40
0.0
 40
0.0
 40
0.0405365206604512
 40
0.0809050985483444
 40
0.1211059591965796
 40
0.1611393309752322
 40
0.2010054451353094
 40
0.2407045358533021
 40
0.2802368402764613
 40
0.3196025985689175
 40
0.3588020539585326
 40
0.397835452784614
 40
0.4367030445464126
 40
0.4754050819525069
 40
0.5139418209709838
 40
0.552313520880528
 40
0.5905204443223692
 40
0.6285628573531593
 40
0.6664410294987015
 40
0.7041552338086744
 40
0.7417057469122386
 40
0.7790928490746487
 40
0.8163168242547947
 40
0.8533779601637619
 40
0.8902765483243865
 40
0.9270128841318198
 40
0.9635872669151365
 40
1.0
 40
1.0
 40
1.0
 40
1.0
 10
460.4409118116338
 20
66.17963359110578
 30
0.0
 10
460.5469281328857
 20
66.1805180583085
 30
0.0
 10
460.7585215498556
 20
66.18228332836695
 30
0.0
 10
461.0749490359534
 20
66.19765363179766
 30
0.0
 10
461.3894411496765
 20
66.22218229915816
 30
0.0
 10
461.7016976565646
 20
66.25663629788339
 30
0.0
 10
462.0114253365284
 20
66.30061994119623
 30
0.0
 10
462.3183398351923
 20
66.35403680559519
 30
0.0
 10
462.6221653847914
 20
66.41670097897365
 30
0.0
 10
462.9226350698393
 20
66.48844109681198
 30
0.0
 10
463.2194909256532
 20
66.56907316155284
 30
0.0
 10
463.5124840597483
 20
66.65840829831967
 30
0.0
 10
463.8013747459949
 20
66.75625120532142
 30
0.0
 10
464.0859325053253
 20
66.86240107808023
 30
0.0
 10
464.365936170024
 20
66.97665187031964
 30
0.0
 10
464.6411739322169
 20
67.0987927268258
 30
0.0
 10
464.9114433795613
 20
67.22860836262262
 30
0.0
 10
465.1765515081882
 20
67.3658794576531
 30
0.0
 10
465.4363147521183
 20
67.51038301197445
 30
0.0
 10
465.6905588858184
 20
67.66189280904472
 30
0.0
 10
465.9391193335432
 20
67.820179452425
 30
0.0
 10
466.1818399090354
 20
67.98501195269405
 30
0.0
 10
466.4185773158929
 20
68.15615353446286
 30
0.0
 10
466.6491842324671
 20
68.33337883930784
 30
0.0
 10
466.8735717420896
 20
68.51641176588774
 30
0.0
 10
467.0914775355388
 20
68.70515751360954
 30
0.0
 10
467.3033249041503
 20
68.89884383742722
 30
0.0
 10
467.4394344906828
 20
69.0327149050802
 30
0.0
 10
467.5073385582124
 20
69.09950219207268
 30
0.0
  0
SPLINE
  5
14C
330
1F
100
AcDbEntity
  8
0
  6
Continuous
 62
     7
370
    25
100
AcDbSpline
210
0.0
220
0.0
230
1.0
 70
     8
 71
     3
 72
    14
 73
    10
 74
     0
 42
0.00000001
 43
0.00000001
 40
0.0
 40
0.0
 40
0.0
 40
0.0
 40
0.25
 40
0.25
 40
0.5
 40
0.5
 40
0.75
 40
0.75
 40
1.0
 40
1.0
 40
1.0
 40
1.0
 10
469.6228564301258
 20
66.98398432015922
 30
0.0
 10
469.0375300368131
 20
66.39865792684657
 30
0.0
 10
468.3843150906326
 20
65.85859203696948
 30
0.0
 10
466.9689577247691
 20
64.9093467026313
 30
0.0
 10
466.2069917280631
 20
64.50043249051232
 30
0.0
 10
464.6163351038122
 20
63.84208873867725
 30
0.0
 10
463.7879475187518
 20
63.59278462271575
 30
0.0
 10
462.1145341294439
 20
63.26364410273691
 30
0.0
 10
461.2698212218457
 20
63.18374498684218
 30
0.0
 10
460.4409118116338
 20
63.18374498684226
 30
0.0
  0
LINE
  5
14D
330
1F
100
AcDbEntity
  8
0
  6
Continuous
 62
     7
370
    25
100
AcDbLine
 10
130.711492315
 20
515.8816437829
 30
0.0
 11
130.711492315
 21
518.8775323871
 31
0.0
  0
SPLINE
  5
14E
330
1F
100
AcDbEntity
  8
0
  6
Continuous
 62
     7
370
    25
100
AcDbSpline
210
0.0
220
0.0
230
1.0
 70
     8
 71
     3
 72
    33
 73
    29
 74
     0
 42
0.00000001
 43
0.00000001
 40
0.0
 40
0.0
 40
0.0
 40
0.0
 40
0.0405365206604425
 40
0.0809050985483201
 40
0.1211059591965499
 40
0.161139330975197
 40
0.2010054451352715
 40
0.2407045358532558
 40
0.2802368402764127
 40
0.3196025985688637
 40
0.3588020539584764
 40
0.3978354527845517
 40
0.4367030445463532
 40
0.475405081952446
 40
0.5139418209709228
 40
0.5523135208804657
 40
0.5905204443223118
 40
0.6285628573531019
 40
0.6664410294986489
 40
0.7041552338086219
 40
0.7417057469121894
 40
0.7790928490746069
 40
0.816316824254757
 40
0.8533779601637321
 40
0.8902765483243629
 40
0.9270128841318025
 40
0.9635872669151303
 40
1.0
 40
1.0
 40
1.0
 40
1.0
 10
130.7114923149632
 20
515.8816437828676
 30
0.0
 10
130.6054759937113
 20
515.8807593156649
 30
0.0
 10
130.3938825767414
 20
515.8789940456065
 30
0.0
 10
130.0774550906437
 20
515.8636237421757
 30
0.0
 10
129.7629629769206
 20
515.8390950748153
 30
0.0
 10
129.4507064700325
 20
515.8046410760901
 30
0.0
 10
129.1409787900689
 20
515.7606574327773
 30
0.0
 10
128.8340642914049
 20
515.7072405683783
 30
0.0
 10
128.5302387418058
 20
515.644576395
 30
0.0
 10
128.2297690567579
 20
515.5728362771616
 30
0.0
 10
127.9329132009442
 20
515.4922042124207
 30
0.0
 10
127.6399200668489
 20
515.402869075654
 30
0.0
 10
127.3510293806025
 20
515.3050261686521
 30
0.0
 10
127.0664716212719
 20
515.1988762958937
 30
0.0
 10
126.7864679565733
 20
515.0846255036539
 30
0.0
 10
126.5112301943803
 20
514.962484647148
 30
0.0
 10
126.2409607470359
 20
514.832669011351
 30
0.0
 10
125.9758526184089
 20
514.6953979163206
 30
0.0
 10
125.7160893744787
 20
514.5508943619994
 30
0.0
 10
125.4618452407787
 20
514.3993845649288
 30
0.0
 10
125.2132847930538
 20
514.2410979215487
 30
0.0
 10
124.9705642175616
 20
514.0762654212796
 30
0.0
 10
124.733826810704
 20
513.9051238395108
 30
0.0
 10
124.5032198941299
 20
513.7278985346658
 30
0.0
 10
124.2788323845073
 20
513.5448656080857
 30
0.0
 10
124.0609265910579
 20
513.356119860364
 30
0.0
 10
123.8490792224464
 20
513.1624335365462
 30
0.0
 10
123.7129696359139
 20
513.0285624688931
 30
0.0
 10
123.6450655683843
 20
512.9617751819007
 30
0.0
  0
SPLINE
  5
14F
330
1F
100
AcDbEntity
  8
0
  6
Continuous
 62
     7
370
    25
100
AcDbSpline
210
0.0
220
0.0
230
1.0
 70
     8
 71
     3
 72
    14
 73
    10
 74
     0
 42
0.00000001
 43
0.00000001
 40
0.0
 40
0.0
 40
0.0
 40
0.0
 40
0.25
 40
0.25
 40
0.5
 40
0.5
 40
0.75
 40
0.75
 40
1.0
 40
1.0
 40
1.0
 40
1.0
 10
121.5295476964708
 20
515.0772930538143
 30
0.0
 10
122.1148740897834
 20
515.662619447127
 30
0.0
 10
122.768089035964
 20
516.2026853370041
 30
0.0
 10
124.1834464018276
 20
517.1519306713423
 30
0.0
 10
124.9454123985335
 20
517.5608448834612
 30
0.0
 10
126.5360690227845
 20
518.2191886352963
 30
0.0
 10
127.364456607845
 20
518.4684927512577
 30
0.0
 10
129.037869997153
 20
518.7976332712366
 30
0.0
 10
129.8825829047513
 20
518.8775323871313
 30
0.0
 10
130.7114923149633
 20
518.8775323871313
 30
0.0
  0
LINE
  5
150
330
1F
100
AcDbEntity
  8
0
  6
Continuous
 62
     7
370
    25
100
AcDbLine
 10
117.7293083632
 20
76.1659289387
 30
0.0
 11
120.7251969674
 21
76.1659289387
 31
0.0
  0
SPLINE
  5
151
330
1F
100
AcDbEntity
  8
0
  6
Continuous
 62
     7
370
    25
100
AcDbSpline
210
0.0
220
0.0
230
1.0
 70
     8
 71
     3
 72
    33
 73
    29
 74
     0
 42
0.00000001
 43
0.00000001
 40
0.0
 40
0.0
 40
0.0
 40
0.0
 40
0.0405365206604301
 40
0.0809050985482988
 40
0.1211059591965159
 40
0.1611393309751471
 40
0.2010054451352128
 40
0.2407045358531882
 40
0.2802368402763384
 40
0.3196025985687801
 40
0.3588020539583866
 40
0.3978354527844593
 40
0.436703044546259
 40
0.4754050819523489
 40
0.513941820970826
 40
0.5523135208803672
 40
0.5905204443222165
 40
0.6285628573530083
 40
0.6664410294985569
 40
0.7041552338085345
 40
0.7417057469121126
 40
0.7790928490745345
 40
0.8163168242546912
 40
0.8533779601636784
 40
0.8902765483243235
 40
0.9270128841317745
 40
0.9635872669151139
 40
1.0
 40
1.0
 40
1.0
 40
1.0
 10
120.7251969674174
 20
76.16592893865126
 30
0.0
 10
120.72608143462
 20
76.05991261739939
 30
0.0
 10
120.7278467046785
 20
75.84831920042953
 30
0.0
 10
120.7432170081094
 20
75.53189171433206
 30
0.0
 10
120.7677456754696
 20
75.21739960060889
 30
0.0
 10
120.802199674195
 20
74.90514309372104
 30
0.0
 10
120.8461833175077
 20
74.59541541375744
 30
0.0
 10
120.8996001819068
 20
74.2885009150937
 30
0.0
 10
120.962264355285
 20
73.98467536549455
 30
0.0
 10
121.0340044731233
 20
73.68420568044678
 30
0.0
 10
121.1146365378641
 20
73.38734982463288
 30
0.0
 10
121.2039716746309
 20
73.09435669053788
 30
0.0
 10
121.3018145816326
 20
72.80546600429125
 30
0.0
 10
121.4079644543913
 20
72.52090824496096
 30
0.0
 10
121.5222152466309
 20
72.24090458026222
 30
0.0
 10
121.6443561031369
 20
71.96566681806921
 30
0.0
 10
121.7741717389337
 20
71.69539737072489
 30
0.0
 10
121.9114428339641
 20
71.43028924209786
 30
0.0
 10
122.0559463882855
 20
71.17052599816773
 30
0.0
 10
122.2074561853558
 20
70.9162818644676
 30
0.0
 10
122.3657428287361
 20
70.66772141674271
 30
0.0
 10
122.5305753290051
 20
70.42500084125034
 30
0.0
 10
122.701716910774
 20
70.18826343439282
 30
0.0
 10
122.8789422156191
 20
69.95765651781858
 30
0.0
 10
123.061975142199
 20
69.73326900819593
 30
0.0
 10
123.250720889921
 20
69.5153632147465
 30
0.0
 10
123.4444072137387
 20
69.3035158461349
 30
0.0
 10
123.5782782813919
 20
69.16740625960233
 30
0.0
 10
123.6450655683843
 20
69.09950219207272
 30
0.0
  0
LINE
  5
152
330
1F
100
AcDbEntity
  8
0
  6
Continuous
 62
     7
370
    25
100
AcDbLine
 10
121.5295476965
 20
66.9839843202
 30
0.0
 11
123.6450655684
 21
69.0995021921
 31
0.0
  0
SPLINE
  5
153
330
1F
100
AcDbEntity
  8
0
  6
Continuous
 62
     7
370
    25
100
AcDbSpline
210
0.0
220
0.0
230
1.0
 70
     8
 71
     3
 72
    14
 73
    10
 74
     0
 42
0.00000001
 43
0.00000001
 40
0.0
 40
0.0
 40
0.0
 40
0.0
 40
0.25
 40
0.25
 40
0.5
 40
0.5
 40
0.75
 40
0.75
 40
1.0
 40
1.0
 40
1.0
 40
1.0
 10
121.5295476964708
 20
66.98398432015922
 30
0.0
 10
120.9442213031579
 20
67.56931071347196
 30
0.0
 10
120.4041554132807
 20
68.22252565965242
 30
0.0
 10
119.4549100789426
 20
69.63788302551602
 30
0.0
 10
119.0459958668236
 20
70.39984902222193
 30
0.0
 10
118.3876521149886
 20
71.990505646473
 30
0.0
 10
118.1383479990272
 20
72.81889323153334
 30
0.0
 10
117.8092074790485
 20
74.49230662084119
 30
0.0
 10
117.7293083631537
 20
75.33701952843938
 30
0.0
 10
117.7293083631538
 20
76.16592893865126
 30
0.0
  0
SPLINE
  5
154
330
1F
100
AcDbEntity
  8
0
  6
Continuous
 62
     7
370
    25
100
AcDbSpline
210
0.0
220
0.0
230
1.0
 70
     8
 71
     3
 72
    30
 73
    26
 74
     0
 42
0.00000001
 43
0.00000001
 40
0.0
 40
0.0
 40
0.0
 40
0.0
 40
0.0411741748160519
 40
0.0825549661110096
 40
0.1241428108733819
 40
0.1659381395918065
 40
0.2079413763701027
 40
0.2501529390400984
 40
0.2925732392723793
 40
0.3352026826848459
 40
0.3780416689492761
 40
0.4210905918958357
 40
0.4643498396155559
 40
0.5078197945609181
 40
0.5515008336444496
 40
0.5953933283354825
 40
0.6394976447550275
 40
0.6838141437688424
 40
0.7283431810787151
 40
0.773085107311998
 40
0.8180402681094032
 40
0.8632090042111658
 40
0.9085916515414799
 40
0.9541885412913814
 40
1.0
 40
1.0
 40
1.0
 40
1.0
 10
123.6450655683843
 20
69.09950219207272
 30
0.0
 10
123.7219315086811
 20
69.02406428373351
 30
0.0
 10
123.8760491109071
 20
68.87280991144182
 30
0.0
 10
124.1170282758599
 20
68.65506827734347
 30
0.0
 10
124.3657132760309
 20
68.44371934700926
 30
0.0
 10
124.6226237351261
 20
68.23979070744043
 30
0.0
 10
124.8873982114879
 20
68.04344205414279
 30
0.0
 10
125.1598941920246
 20
67.85506471521194
 30
0.0
 10
125.4398909622419
 20
67.67498404583974
 30
0.0
 10
125.7271696673775
 20
67.50353896553099
 30
0.0
 10
126.0214915811283
 20
67.34105966551762
 30
0.0
 10
126.3226038845281
 20
67.18787278508259
 30
0.0
 10
126.6302380520842
 20
67.04429915580673
 30
0.0
 10
126.9441102681869
 20
66.91065353097724
 30
0.0
 10
127.2639213316134
 20
66.78724377783274
 30
0.0
 10
127.589356735783
 20
66.67437014516278
 30
0.0
 10
127.9200867402076
 20
66.57232470385021
 30
0.0
 10
128.2557664853934
 20
66.48138995219333
 30
0.0
 10
128.5960361341606
 20
66.40184055576655
 30
0.0
 10
128.9405210610506
 20
66.33393325845341
 30
0.0
 10
129.2888320256552
 20
66.27794122896479
 30
0.0
 10
129.6405655720032
 20
66.23402136031913
 30
0.0
 10
129.9953037489979
 20
66.2027094303126
 30
0.0
 10
130.3526165571739
 20
66.1830553730963
 30
0.0
 10
130.591680005801
 20
66.18077596863576
 30
0.0
 10
130.7114923149632
 20
66.1796335911059
 30
0.0
  0
LINE
  5
155
330
1F
100
AcDbEntity
  8
0
  6
Continuous
 62
     7
370
    25
100
AcDbLine
 10
130.711492315
 20
63.1837449868
 30
0.0
 11
130.711492315
 21
66.1796335911
 31
0.0
  0
SPLINE
  5
156
330
1F
100
AcDbEntity
  8
0
  6
Continuous
 62
     7
370
    25
100
AcDbSpline
210
0.0
220
0.0
230
1.0
 70
     8
 71
     3
 72
    14
 73
    10
 74
     0
 42
0.00000001
 43
0.00000001
 40
0.0
 40
0.0
 40
0.0
 40
0.0
 40
0.25
 40
0.25
 40
0.5
 40
0.5
 40
0.75
 40
0.75
 40
1.0
 40
1.0
 40
1.0
 40
1.0
 10
130.7114923149633
 20
63.18374498684176
 30
0.0
 10
129.8825829047514
 20
63.18374498684179
 30
0.0
 10
129.0378699971532
 20
63.26364410273666
 30
0.0
 10
127.3644566078453
 20
63.59278462271558
 30
0.0
 10
126.5360690227847
 20
63.84208873867697
 30
0.0
 10
124.9454123985337
 20
64.5004324905121
 30
0.0
 10
124.1834464018277
 20
64.90934670263104
 30
0.0
 10
122.768089035964
 20
65.85859203696928
 30
0.0
 10
122.1148740897835
 20
66.39865792684641
 30
0.0
 10
121.5295476964708
 20
66.98398432015922
 30
0.0
  0
LINE
  5
157
330
1F
100
AcDbEntity
  8
0
  6
Continuous
 62
     7
370
    25
100
AcDbLine
 10
460.4409118116
 20
63.1837449868
 30
0.0
 11
130.711492315
 21
63.1837449868
 31
0.0
  0
LINE
  5
158
330
1F
100
AcDbEntity
  8
0
  6
Continuous
 62
     7
370
    25
100
AcDbLine
 10
130.711492315
 20
66.1796335911
 30
0.0
 11
460.4409118116
 21
66.1796335911
 31
0.0
  0
LINE
  5
159
330
1F
100
AcDbEntity
  8
0
  6
Continuous
 62
     7
370
    25
100
AcDbLine
 10
120.7251969674
 20
505.8953484353
 30
0.0
 11
120.7251969674
 21
76.1659289387
 31
0.0
  0
LINE
  5
15A
330
1F
100
AcDbEntity
  8
0
  6
Continuous
 62
     7
370
    25
100
AcDbLine
 10
117.7293083632
 20
76.1659289387
 30
0.0
 11
117.7293083632
 21
505.8953484353
 31
0.0
  0
LINE
  5
15B
330
1F
100
AcDbEntity
  8
0
  6
Continuous
 62
     7
370
    25
100
AcDbLine
 10
460.4409118116
 20
515.8816437829
 30
0.0
 11
130.711492315
 21
515.8816437829
 31
0.0
  0
LINE
  5
15C
330
1F
100
AcDbEntity
  8
0
  6
Continuous
 62
     7
370
    25
100
AcDbLine
 10
130.711492315
 20
518.8775323871
 30
0.0
 11
460.4409118116
 21
518.8775323871
 31
0.0
  0
LINE
  5
15D
330
1F
100
AcDbEntity
  8
0
  6
Continuous
 62
     7
370
    25
100
AcDbLine
 10
470.4272071592
 20
76.1659289387
 30
0.0
 11
470.4272071592
 21
505.8953484353
 31
0.0
  0
LINE
  5
15E
330
1F
100
AcDbEntity
  8
0
  6
Continuous
 62
     7
370
    25
100
AcDbLine
 10
473.4230957634
 20
505.8953484353
 30
0.0
 11
473.4230957634
 21
76.1659289387
 31
0.0
  0
LINE
  5
15F
330
1F
100
AcDbEntity
  8
0
  6
Continuous
 62
     7
370
    25
100
AcDbLine
 10
98.8410257762
 20
537.765814974
 30
0.0
 11
98.8410257762
 21
44.2954623999
 31
0.0
  0
LINE
  5
160
330
1F
100
AcDbEntity
  8
0
  6
Continuous
 62
     7
370
    25
100
AcDbLine
 10
492.3113783504
 20
537.765814974
 30
0.0
 11
98.8410257762
 21
537.765814974
 31
0.0
  0
LINE
  5
161
330
1F
100
AcDbEntity
  8
0
  6
Continuous
 62
     7
370
    25
100
AcDbLine
 10
492.3113783504
 20
44.2954623999
 30
0.0
 11
492.3113783504
 21
537.765814974
 31
0.0
  0
LINE
  5
162
330
1F
100
AcDbEntity
  8
0
  6
Continuous
 62
     7
370
    25
100
AcDbLine
 10
98.8410257762
 20
44.2954623999
 30
0.0
 11
492.3113783504
 21
44.2954623999
 31
0.0
  0
LINE
  5
163
330
1F
100
AcDbEntity
  8
0
  6
Continuous
 62
     7
370
    25
100
AcDbLine
 10
275.3618427094
 20
58.7449980409
 30
0.0
 11
275.3618427094
 21
48.316279333
 31
0.0
  0
LINE
  5
164
330
1F
100
AcDbEntity
  8
0
  6
Continuous
 62
     7
370
    25
100
AcDbLine
 10
275.3618427094
 20
48.316279333
 30
0.0
 11
315.7905614172
 21
48.316279333
 31
0.0
  0
LINE
  5
165
330
1F
100
AcDbEntity
  8
0
  6
Continuous
 62
     7
370
    25
100
AcDbLine
 10
315.7905614172
 20
48.316279333
 30
0.0
 11
315.7905614172
 21
58.7449980409
 31
0.0
  0
LINE
  5
166
330
1F
100
AcDbEntity
  8
0
  6
Continuous
 62
     7
370
    25
100
AcDbLine
 10
315.7905614172
 20
58.7449980409
 30
0.0
 11
275.3618427094
 21
58.7449980409
 31
0.0
  0
LINE
  5
167
330
1F
100
AcDbEntity
  8
0
  6
Continuous
 62
     7
370
    25
100
AcDbLine
 10
98.8410257762
 20
540.7629596388
 30
0.0
 11
492.3113783504
 21
540.7629596388
 31
0.0
  0
LINE
  5
168
330
1F
100
AcDbEntity
  8
0
  6
Continuous
 62
     7
370
    25
100
AcDbLine
 10
492.3113783504
 20
540.7629596388
 30
0.0
 11
492.3113783504
 21
537.765814974
 31
0.0
  0
LINE
  5
169
330
1F
100
AcDbEntity
  8
0
  6
Continuous
 62
     7
370
    25
100
AcDbLine
 10
98.8410257762
 20
540.7629596388
 30
0.0
 11
98.8410257762
 21
537.765814974
 31
0.0
  0
LINE
  5
16A
330
1F
100
AcDbEntity
  8
0
  6
Continuous
 62
     7
370
    25
100
AcDbLine
 10
98.8410257762
 20
44.2954623999
 30
0.0
 11
98.8410257762
 21
41.2983177352
 31
0.0
  0
ARC
  5
16B
330
1F
100
AcDbEntity
  8
0
  6
Continuous
 62
     7
370
    25
100
AcDbCircle
 10
98.8477142787
 20
44.3021509024
 30
0.0
 40
3.003840613716651
100
AcDbArc
 50
180.1275777678
 51
269.8724222322
  0
LINE
  5
16C
330
1F
100
AcDbEntity
  8
0
  6
Continuous
 62
     7
370
    25
100
AcDbLine
 10
95.8438811115
 20
44.2954623999
 30
0.0
 11
98.8410257762
 21
44.2954623999
 31
0.0
  0
ARC
  5
16D
330
1F
100
AcDbEntity
  8
0
  6
Continuous
 62
     7
370
    25
100
AcDbCircle
 10
492.3046898479
 20
537.7591264716
 30
0.0
 40
3.0038406137167
100
AcDbArc
 50
0.1275777678
 51
89.8724222322
  0
LINE
  5
16E
330
1F
100
AcDbEntity
  8
0
  6
Continuous
 62
     7
370
    25
100
AcDbLine
 10
492.3113783504
 20
537.765814974
 30
0.0
 11
495.3085230151
 21
537.765814974
 31
0.0
  0
LINE
  5
16F
330
1F
100
AcDbEntity
  8
0
  6
Continuous
 62
     7
370
    25
100
AcDbLine
 10
315.7905614172
 20
48.316279333
 30
0.0
 11
315.5762020633
 21
48.530638687
 31
0.0
  0
LINE
  5
170
330
1F
100
AcDbEntity
  8
0
  6
Continuous
 62
     7
370
    25
100
AcDbLine
 10
275.3618427094
 20
48.316279333
 30
0.0
 11
275.5762020633
 21
48.530638687
 31
0.0
  0
LINE
  5
171
330
1F
100
AcDbEntity
  8
0
  6
Continuous
 62
     7
370
    25
100
AcDbLine
 10
275.5762020633
 20
48.530638687
 30
0.0
 11
315.5762020633
 21
48.530638687
 31
0.0
  0
LINE
  5
172
330
1F
100
AcDbEntity
  8
0
  6
Continuous
 62
     7
370
    25
100
AcDbLine
 10
495.3085230151
 20
537.765814974
 30
0.0
 11
495.3085230151
 21
44.2954623999
 31
0.0
  0
LINE
  5
173
330
1F
100
AcDbEntity
  8
0
  6
Continuous
 62
     7
370
    25
100
AcDbLine
 10
492.3113783504
 20
44.2954623999
 30
0.0
 11
495.3085230151
 21
44.2954623999
 31
0.0
  0
LINE
  5
174
330
1F
100
AcDbEntity
  8
0
  6
Continuous
 62
     7
370
    25
100
AcDbLine
 10
315.7905614172
 20
58.7449980409
 30
0.0
 11
315.5762020633
 21
58.530638687
 31
0.0
  0
LINE
  5
175
330
1F
100
AcDbEntity
  8
0
  6
Continuous
 62
     7
370
    25
100
AcDbLine
 10
315.5762020633
 20
48.530638687
 30
0.0
 11
315.5762020633
 21
58.530638687
 31
0.0
  0
LINE
  5
176
330
1F
100
AcDbEntity
  8
0
  6
Continuous
 62
     7
370
    25
100
AcDbLine
 10
275.3618427094
 20
58.7449980409
 30
0.0
 11
275.5762020633
 21
58.530638687
 31
0.0
  0
LINE
  5
177
330
1F
100
AcDbEntity
  8
0
  6
Continuous
 62
     7
370
    25
100
AcDbLine
 10
315.5762020633
 20
58.530638687
 30
0.0
 11
275.5762020633
 21
58.530638687
 31
0.0
  0
LINE
  5
178
330
1F
100
AcDbEntity
  8
0
  6
Continuous
 62
     7
370
    25
100
AcDbLine
 10
275.5762020633
 20
58.530638687
 30
0.0
 11
275.5762020633
 21
48.530638687
 31
0.0
  0
LINE
  5
179
330
1F
100
AcDbEntity
  8
0
  6
Continuous
 62
     7
370
    25
100
AcDbLine
 10
95.8438811115
 20
44.2954623999
 30
0.0
 11
95.8438811115
 21
537.765814974
 31
0.0
  0
LINE
  5
17A
330
1F
100
AcDbEntity
  8
0
  6
Continuous
 62
     7
370
    25
100
AcDbLine
 10
95.8438811115
 20
537.765814974
 30
0.0
 11
98.8410257762
 21
537.765814974
 31
0.0
  0
ARC
  5
17B
330
1F
100
AcDbEntity
  8
0
  6
Continuous
 62
     7
370
    25
100
AcDbCircle
 10
492.3046898479
 20
44.3021509024
 30
0.0
 40
3.003840613716608
100
AcDbArc
 50
270.1275777678
 51
359.8724222322
  0
LINE
  5
17C
330
1F
100
AcDbEntity
  8
0
  6
Continuous
 62
     7
370
    25
100
AcDbLine
 10
492.3113783504
 20
44.2954623999
 30
0.0
 11
492.3113783504
 21
41.2983177352
 31
0.0
  0
ARC
  5
17D
330
1F
100
AcDbEntity
  8
0
  6
Continuous
 62
     7
370
    25
100
AcDbCircle
 10
98.8477142787
 20
537.7591264716
 30
0.0
 40
3.003840613716701
100
AcDbArc
 50
90.1275777678
 51
179.8724222322
  0
LINE
  5
17E
330
1F
100
AcDbEntity
  8
0
  6
Continuous
 62
     7
370
    25
100
AcDbLine
 10
492.3113783504
 20
41.2983177352
 30
0.0
 11
98.8410257762
 21
41.2983177352
 31
0.0
  0
LINE
  5
17F
330
1F
100
AcDbEntity
  8
0
  6
Continuous
 62
     7
370
    25
100
AcDbLine
 10
130.711492315
 20
515.8816437829
 30
0.0
 11
130.7279491824
 21
515.8651869154
 31
0.0
  0
SPLINE
  5
180
330
1F
100
AcDbEntity
  8
0
  6
Continuous
 62
     7
370
    25
100
AcDbSpline
210
0.0
220
0.0
230
1.0
 70
     8
 71
     3
 72
    30
 73
    26
 74
     0
 42
0.00000001
 43
0.00000001
 40
0.0
 40
0.0
 40
0.0
 40
0.0
 40
0.0411985279127044
 40
0.0826034795453107
 40
0.1242149814847827
 40
0.1660331584369677
 40
0.2080581332624888
 40
0.2502900270117814
 40
0.2927289589592764
 40
0.3353750466369025
 40
0.3782284058667645
 40
0.4212891507930724
 40
0.4645573939133991
 40
0.5080332461091919
 40
0.5517168166756253
 40
0.5956082133507816
 40
0.6397075423441647
 40
0.6840149083646285
 40
0.7285304146476143
 40
0.7732541629818815
 40
0.8181862537355705
 40
0.8633267858817307
 40
0.9086758570233147
 40
0.954233563417573
 40
1.0
 40
1.0
 40
1.0
 40
1.0
 10
123.6683072851677
 20
512.9385334651173
 30
0.0
 10
123.7451706427898
 20
513.0139737622334
 30
0.0
 10
123.8992824790811
 20
513.1652323473197
 30
0.0
 10
124.140220690175
 20
513.3830132322857
 30
0.0
 10
124.3888409314259
 20
513.5944252622222
 30
0.0
 10
124.6456604421281
 20
513.7984432406022
 30
0.0
 10
124.9103184339358
 20
513.9949068226438
 30
0.0
 10
125.1826722204618
 20
514.1834248579662
 30
0.0
 10
125.4625011395216
 20
514.3636719432092
 30
0.0
 10
125.749586326942
 20
514.5353091723135
 30
0.0
 10
126.0436890639464
 20
514.698006350391
 30
0.0
 10
126.3445565344365
 20
514.8514368390046
 30
0.0
 10
126.6519202170621
 20
514.9952798059772
 30
0.0
 10
126.9654962999832
 20
515.12922049762
 30
0.0
 10
127.2849855858403
 20
515.2529510460366
 30
0.0
 10
127.6100735717958
 20
515.3661712016404
 30
0.0
 10
127.9404305213238
 20
515.468588892622
 30
0.0
 10
128.2757115779249
 20
515.5599216193888
 30
0.0
 10
128.6155569108449
 20
515.6398947159822
 30
0.0
 10
128.9595918879213
 20
515.7082514328492
 30
0.0
 10
129.3074273111263
 20
515.7647186190729
 30
0.0
 10
129.6586595820882
 20
515.8091392934598
 30
0.0
 10
130.0128713014645
 20
515.8409780541133
 30
0.0
 10
130.3696304123181
 20
515.8611833386792
 30
0.0
 10
130.6083277370909
 20
515.863850357921
 30
0.0
 10
130.7279491824232
 20
515.8651869154075
 30
0.0
  0
SPLINE
  5
181
330
1F
100
AcDbEntity
  8
0
  6
Continuous
 62
     7
370
    25
100
AcDbSpline
210
0.0
220
0.0
230
1.0
 70
     8
 71
     3
 72
    33
 73
    29
 74
     0
 42
0.00000001
 43
0.00000001
 40
0.0
 40
0.0
 40
0.0
 40
0.0
 40
0.0404963924233914
 40
0.0808294318221033
 40
0.1209991838013749
 40
0.1610057147723359
 40
0.2008490919649052
 40
0.2405293834408992
 40
0.2800466581073878
 40
0.3194009857303449
 40
0.358592436948551
 40
0.3976210832877661
 40
0.4364869971751963
 40
0.4751902519542434
 40
0.513730921899528
 40
0.5521090822322539
 40
0.5903248091358434
 40
0.6283781797718972
 40
0.6662692722965047
 40
0.7039981658768364
 40
0.741564940708106
 40
0.7789696780308779
 40
0.8162124601487102
 40
0.8532933704461854
 40
0.8902124934072795
 40
0.92696991463415
 40
0.9635657208662672
 40
1.0
 40
1.0
 40
1.0
 40
1.0
 10
120.7416538348775
 20
505.8788915678617
 30
0.0
 10
120.7427103143068
 20
505.9847384646603
 30
0.0
 10
120.7448190115732
 20
506.1960052965031
 30
0.0
 10
120.7606808118351
 20
506.5119393549202
 30
0.0
 10
120.7856819241322
 20
506.8259593648675
 30
0.0
 10
120.8205880023966
 20
507.1377634790189
 30
0.0
 10
120.865003669834
 20
507.4470589090939
 30
0.0
 10
120.918832429049
 20
507.7535611880934
 30
0.0
 10
120.9818883838749
 20
508.0569945806479
 30
0.0
 10
121.0540001651207
 20
508.3570921650908
 30
0.0
 10
121.1349837753147
 20
508.6535959808685
 30
0.0
 10
121.2246503387076
 20
508.9462571369135
 30
0.0
 10
121.3228045529325
 20
509.2348359092649
 30
0.0
 10
121.4292456129675
 20
509.5191018208502
 30
0.0
 10
121.5437674720772
 20
509.7988337060178
 30
0.0
 10
121.6661592746626
 20
510.0738197589592
 30
0.0
 10
121.7962057354451
 20
510.3438575694077
 30
0.0
 10
121.9336875341204
 20
510.6087541355986
 30
0.0
 10
122.07838167065
 20
510.8683258935889
 30
0.0
 10
122.230061928202
 20
511.122398620155
 30
0.0
 10
122.3884989111019
 20
511.3708077408838
 30
0.0
 10
122.5534616272005
 20
511.6133970744148
 30
0.0
 10
122.7247133114869
 20
511.8500233162126
 30
0.0
 10
122.90202856829
 20
512.0805391841661
 30
0.0
 10
123.0851314340448
 20
512.3048556262692
 30
0.0
 10
123.273926602931
 20
512.5227108407133
 30
0.0
 10
123.4676436939535
 20
512.7345262581898
 30
0.0
 10
123.6015181220671
 20
512.8706314080738
 30
0.0
 10
123.6683072851677
 20
512.9385334651173
 30
0.0
  0
LINE
  5
182
330
1F
100
AcDbEntity
  8
0
  6
Continuous
 62
     7
370
    25
100
AcDbLine
 10
120.7416538349
 20
505.8788915679
 30
0.0
 11
120.7251969674
 21
505.8953484353
 31
0.0
  0
ARC
  5
183
330
1F
100
AcDbEntity
  8
0
  6
Continuous
 62
     7
370
    25
100
AcDbCircle
 10
451.0048237748
 20
85.6020169755
 30
0.0
 40
10.01844944373166
100
AcDbArc
 50
270.1835962936
 51
359.8164037064
  0
LINE
  5
184
330
1F
100
AcDbEntity
  8
0
  6
Continuous
 62
     7
370
    25
100
AcDbLine
 10
461.0232217843
 20
85.5699143136
 30
0.0
 11
470.4272071592
 21
76.1659289387
 31
0.0
  0
LINE
  5
185
330
1F
100
AcDbEntity
  8
0
  6
Continuous
 62
     7
370
    25
100
AcDbLine
 10
460.4409118116
 20
66.1796335911
 30
0.0
 11
451.0369264367
 21
75.583618966
 31
0.0
  0
LINE
  5
186
330
1F
100
AcDbEntity
  8
0
  6
Continuous
 62
     7
370
    25
100
AcDbLine
 10
470.4272071592
 20
505.8953484353
 30
0.0
 11
470.4107502917
 21
505.8788915679
 31
0.0
  0
SPLINE
  5
187
330
1F
100
AcDbEntity
  8
0
  6
Continuous
 62
     7
370
    25
100
AcDbSpline
210
0.0
220
0.0
230
1.0
 70
     8
 71
     3
 72
    30
 73
    26
 74
     0
 42
0.00000001
 43
0.00000001
 40
0.0
 40
0.0
 40
0.0
 40
0.0
 40
0.0411985279127039
 40
0.0826034795453121
 40
0.1242149814847813
 40
0.1660331584369658
 40
0.2080581332624885
 40
0.2502900270117757
 40
0.2927289589592701
 40
0.3353750466368987
 40
0.378228405866757
 40
0.4212891507930677
 40
0.4645573939133938
 40
0.5080332461091861
 40
0.5517168166756191
 40
0.5956082133507747
 40
0.6397075423441607
 40
0.6840149083646215
 40
0.7285304146476101
 40
0.7732541629818769
 40
0.8181862537355653
 40
0.8633267858817288
 40
0.908675857023312
 40
0.9542335634175734
 40
1.0
 40
1.0
 40
1.0
 40
1.0
 10
467.4840968414288
 20
512.9385334651173
 30
0.0
 10
467.5595371385448
 20
512.8616701074951
 30
0.0
 10
467.7107957236312
 20
512.707558271204
 30
0.0
 10
467.9285766085972
 20
512.46662006011
 30
0.0
 10
468.1399886385337
 20
512.2179998188592
 30
0.0
 10
468.3440066169136
 20
511.9611803081569
 30
0.0
 10
468.5404701989554
 20
511.6965223163493
 30
0.0
 10
468.7289882342777
 20
511.4241685298233
 30
0.0
 10
468.9092353195208
 20
511.1443396107634
 30
0.0
 10
469.0808725486249
 20
510.8572544233431
 30
0.0
 10
469.2435697267024
 20
510.5631516863386
 30
0.0
 10
469.397000215316
 20
510.2622842158485
 30
0.0
 10
469.5408431822887
 20
509.954920533223
 30
0.0
 10
469.6747838739317
 20
509.6413444503019
 30
0.0
 10
469.7985144223482
 20
509.3218551644447
 30
0.0
 10
469.9117345779518
 20
508.9967671784893
 30
0.0
 10
470.0141522689336
 20
508.6664102289611
 30
0.0
 10
470.1054849957004
 20
508.3311291723602
 30
0.0
 10
470.1854580922937
 20
507.99128383944
 30
0.0
 10
470.2538148091608
 20
507.6472488623638
 30
0.0
 10
470.3102819953843
 20
507.2994134391586
 30
0.0
 10
470.3547026697714
 20
506.9481811681968
 30
0.0
 10
470.3865414304248
 20
506.5939694488204
 30
0.0
 10
470.4067467149908
 20
506.2372103379668
 30
0.0
 10
470.4094137342325
 20
505.9985130131941
 30
0.0
 10
470.4107502917191
 20
505.8788915678617
 30
0.0
  0
SPLINE
  5
188
330
1F
100
AcDbEntity
  8
0
  6
Continuous
 62
     7
370
    25
100
AcDbSpline
210
0.0
220
0.0
230
1.0
 70
     8
 71
     3
 72
    33
 73
    29
 74
     0
 42
0.00000001
 43
0.00000001
 40
0.0
 40
0.0
 40
0.0
 40
0.0
 40
0.0404963924233917
 40
0.0808294318221075
 40
0.1209991838013759
 40
0.1610057147723407
 40
0.2008490919649139
 40
0.2405293834409088
 40
0.2800466581073977
 40
0.3194009857303552
 40
0.3585924369485616
 40
0.3976210832877781
 40
0.4364869971752108
 40
0.4751902519542582
 40
0.5137309218995412
 40
0.5521090822322707
 40
0.5903248091358557
 40
0.6283781797719149
 40
0.6662692722965194
 40
0.7039981658768515
 40
0.7415649407081164
 40
0.7789696780308857
 40
0.8162124601487193
 40
0.853293370446194
 40
0.8902124934072858
 40
0.9269699146341543
 40
0.9635657208662718
 40
1.0
 40
1.0
 40
1.0
 40
1.0
 10
460.4244549441733
 20
515.8651869154075
 30
0.0
 10
460.5303018409718
 20
515.8641304359783
 30
0.0
 10
460.7415686728147
 20
515.8620217387117
 30
0.0
 10
461.0575027312317
 20
515.8461599384499
 30
0.0
 10
461.3715227411792
 20
515.8211588261529
 30
0.0
 10
461.6833268553303
 20
515.7862527478884
 30
0.0
 10
461.9926222854056
 20
515.7418370804511
 30
0.0
 10
462.299124564405
 20
515.688008321236
 30
0.0
 10
462.6025579569595
 20
515.6249523664102
 30
0.0
 10
462.9026555414025
 20
515.5528405851644
 30
0.0
 10
463.1991593571801
 20
515.4718569749703
 30
0.0
 10
463.4918205132252
 20
515.3821904115774
 30
0.0
 10
463.7803992855764
 20
515.2840361973523
 30
0.0
 10
464.0646651971618
 20
515.1775951373176
 30
0.0
 10
464.3443970823294
 20
515.0630732782076
 30
0.0
 10
464.6193831352709
 20
514.9406814756225
 30
0.0
 10
464.8894209457194
 20
514.8106350148399
 30
0.0
 10
465.1543175119102
 20
514.6731532161645
 30
0.0
 10
465.4138892699006
 20
514.528459079635
 30
0.0
 10
465.6679619964666
 20
514.376778822083
 30
0.0
 10
465.9163711171955
 20
514.2183418391832
 30
0.0
 10
466.1589604507263
 20
514.0533791230846
 30
0.0
 10
466.3955866925241
 20
513.882127438798
 30
0.0
 10
466.6261025604776
 20
513.7048121819951
 30
0.0
 10
466.8504190025807
 20
513.52170931624
 30
0.0
 10
467.0682742170249
 20
513.332914147354
 30
0.0
 10
467.2800896345013
 20
513.1391970563313
 30
0.0
 10
467.4161947843853
 20
513.005322628218
 30
0.0
 10
467.4840968414288
 20
512.9385334651173
 30
0.0
  0
LINE
  5
189
330
1F
100
AcDbEntity
  8
0
  6
Continuous
 62
     7
370
    25
100
AcDbLine
 10
460.4244549442
 20
515.8651869154
 30
0.0
 11
460.4409118116
 21
515.8816437829
 31
0.0
  0
ARC
  5
18A
330
1F
100
AcDbEntity
  8
0
  6
Continuous
 62
     7
370
    25
100
AcDbCircle
 10
140.1475803518
 20
85.6020169755
 30
0.0
 40
10.01844944373211
100
AcDbArc
 50
180.1835962936
 51
269.8164037064
  0
LINE
  5
18B
330
1F
100
AcDbEntity
  8
0
  6
Continuous
 62
     7
370
    25
100
AcDbLine
 10
140.1154776899
 20
75.583618966
 30
0.0
 11
130.711492315
 21
66.1796335911
 31
0.0
  0
LINE
  5
18C
330
1F
100
AcDbEntity
  8
0
  6
Continuous
 62
     7
370
    25
100
AcDbLine
 10
120.7251969674
 20
76.1659289387
 30
0.0
 11
130.1291823423
 21
85.5699143136
 31
0.0
  0
SPLINE
  5
18D
330
1F
100
AcDbEntity
  8
0
  6
Continuous
 62
     7
370
    25
100
AcDbSpline
210
0.0
220
0.0
230
1.0
 70
     8
 71
     3
 72
    14
 73
    10
 74
     0
 42
0.00000001
 43
0.00000001
 40
0.0
 40
0.0
 40
0.0
 40
0.0
 40
0.25
 40
0.25
 40
0.5
 40
0.5
 40
0.75
 40
0.75
 40
1.0
 40
1.0
 40
1.0
 40
1.0
 10
95.57620206329825
 20
538.0334940222413
 30
0.0
 10
95.57620206329825
 20
538.387046772888
 30
0.0
 10
95.64057359333924
 20
538.7682946738172
 30
0.0
 10
95.9325805939576
 20
539.5062321538538
 30
0.0
 10
96.16120055180699
 20
539.8606417099691
 30
0.0
 10
96.74619904031582
 20
540.4456401984779
 30
0.0
 10
97.10060859643096
 20
540.6742601563275
 30
0.0
 10
97.83854607646781
 20
540.9662671569458
 30
0.0
 10
98.21979397739698
 20
541.0306386869868
 30
0.0
 10
98.57334672804377
 20
541.0306386869868
 30
0.0
  0
LINE
  5
18E
330
1F
100
AcDbEntity
  8
0
  6
Continuous
 62
     7
370
    25
100
AcDbLine
 10
98.573346728
 20
541.030638687
 30
0.0
 11
98.8410257762
 21
540.7629596388
 31
0.0
  0
LINE
  5
18F
330
1F
100
AcDbEntity
  8
0
  6
Continuous
 62
     7
370
    25
100
AcDbLine
 10
95.8438811115
 20
537.765814974
 30
0.0
 11
95.5762020633
 21
538.0334940222
 31
0.0
  0
SPLINE
  5
190
330
1F
100
AcDbEntity
  8
0
  6
Continuous
 62
     7
370
    25
100
AcDbSpline
210
0.0
220
0.0
230
1.0
 70
     8
 71
     3
 72
    14
 73
    10
 74
     0
 42
0.00000001
 43
0.00000001
 40
0.0
 40
0.0
 40
0.0
 40
0.0
 40
0.25
 40
0.25
 40
0.5
 40
0.5
 40
0.75
 40
0.75
 40
1.0
 40
1.0
 40
1.0
 40
1.0
 10
98.57334672804377
 20
41.03063868698676
 30
0.0
 10
98.21979397739699
 20
41.03063868698678
 30
0.0
 10
97.83854607646784
 20
41.09501021702769
 30
0.0
 10
97.10060859643102
 20
41.38701721764618
 30
0.0
 10
96.74619904031587
 20
41.61563717549554
 30
0.0
 10
96.16120055180701
 20
42.20063566400442
 30
0.0
 10
95.93258059395751
 20
42.55504522011952
 30
0.0
 10
95.64057359333918
 20
43.29298270015633
 30
0.0
 10
95.57620206329823
 20
43.67423060108547
 30
0.0
 10
95.57620206329825
 20
44.02778335173227
 30
0.0
  0
LINE
  5
191
330
1F
100
AcDbEntity
  8
0
  6
Continuous
 62
     7
370
    25
100
AcDbLine
 10
95.5762020633
 20
44.0277833517
 30
0.0
 11
95.8438811115
 21
44.2954623999
 31
0.0
  0
LINE
  5
192
330
1F
100
AcDbEntity
  8
0
  6
Continuous
 62
     7
370
    25
100
AcDbLine
 10
98.8410257762
 20
41.2983177352
 30
0.0
 11
98.573346728
 21
41.030638687
 31
0.0
  0
SPLINE
  5
193
330
1F
100
AcDbEntity
  8
0
  6
Continuous
 62
     7
370
    25
100
AcDbSpline
210
0.0
220
0.0
230
1.0
 70
     8
 71
     3
 72
    14
 73
    10
 74
     0
 42
0.00000001
 43
0.00000001
 40
0.0
 40
0.0
 40
0.0
 40
0.0
 40
0.25
 40
0.25
 40
0.5
 40
0.5
 40
0.75
 40
0.75
 40
1.0
 40
1.0
 40
1.0
 40
1.0
 10
495.5762020632983
 20
44.02778335173227
 30
0.0
 10
495.5762020632983
 20
43.6742306010855
 30
0.0
 10
495.5118305332573
 20
43.29298270015639
 30
0.0
 10
495.2198235326389
 20
42.55504522011963
 30
0.0
 10
494.9912035747896
 20
42.20063566400442
 30
0.0
 10
494.4062050862807
 20
41.61563717549557
 30
0.0
 10
494.0517955301655
 20
41.3870172176461
 30
0.0
 10
493.3138580501287
 20
41.09501021702769
 30
0.0
 10
492.9326101491995
 20
41.03063868698676
 30
0.0
 10
492.5790573985528
 20
41.03063868698676
 30
0.0
  0
LINE
  5
194
330
1F
100
AcDbEntity
  8
0
  6
Continuous
 62
     7
370
    25
100
AcDbLine
 10
492.5790573986
 20
41.030638687
 30
0.0
 11
492.3113783504
 21
41.2983177352
 31
0.0
  0
LINE
  5
195
330
1F
100
AcDbEntity
  8
0
  6
Continuous
 62
     7
370
    25
100
AcDbLine
 10
495.3085230151
 20
44.2954623999
 30
0.0
 11
495.5762020633
 21
44.0277833517
 31
0.0
  0
SPLINE
  5
196
330
1F
100
AcDbEntity
  8
0
  6
Continuous
 62
     7
370
    25
100
AcDbSpline
210
0.0
220
0.0
230
1.0
 70
     8
 71
     3
 72
    14
 73
    10
 74
     0
 42
0.00000001
 43
0.00000001
 40
0.0
 40
0.0
 40
0.0
 40
0.0
 40
0.25
 40
0.25
 40
0.5
 40
0.5
 40
0.75
 40
0.75
 40
1.0
 40
1.0
 40
1.0
 40
1.0
 10
492.5790573985528
 20
541.0306386869868
 30
0.0
 10
492.9326101491995
 20
541.0306386869868
 30
0.0
 10
493.3138580501287
 20
540.9662671569458
 30
0.0
 10
494.0517955301655
 20
540.6742601563274
 30
0.0
 10
494.4062050862806
 20
540.4456401984779
 30
0.0
 10
494.9912035747896
 20
539.8606417099691
 30
0.0
 10
495.2198235326391
 20
539.506232153854
 30
0.0
 10
495.5118305332573
 20
538.7682946738172
 30
0.0
 10
495.5762020632984
 20
538.3870467728881
 30
0.0
 10
495.5762020632983
 20
538.0334940222413
 30
0.0
  0
LINE
  5
197
330
1F
100
AcDbEntity
  8
0
  6
Continuous
 62
     7
370
    25
100
AcDbLine
 10
495.5762020633
 20
538.0334940222
 30
0.0
 11
495.3085230151
 21
537.765814974
 31
0.0
  0
LINE
  5
198
330
1F
100
AcDbEntity
  8
0
  6
Continuous
 62
     7
370
    25
100
AcDbLine
 10
492.3113783504
 20
540.7629596388
 30
0.0
 11
492.5790573986
 21
541.030638687
 31
0.0
  0
SPLINE
  5
199
330
1F
100
AcDbEntity
  8
0
  6
Continuous
 62
     7
370
    25
100
AcDbSpline
210
0.0
220
0.0
230
1.0
 70
     8
 71
     3
 72
    13
 73
     9
 74
     0
 42
0.00000001
 43
0.00000001
 40
0.0
 40
0.0
 40
0.0
 40
0.0
 40
0.25
 40
0.25
 40
0.5
 40
0.75
 40
0.75
 40
1.0
 40
1.0
 40
1.0
 40
1.0
 10
451.0369264367308
 20
75.58361896600877
 30
0.0
 10
425.1268057078254
 20
75.60830844343225
 30
0.0
 10
399.2166849789198
 20
75.62849308780021
 30
0.0
 10
347.3964435211092
 20
75.65615426399025
 30
0.0
 10
295.5762020632982
 20
75.67090694678377
 30
0.0
 10
243.7559606054874
 20
75.65615426399019
 30
0.0
 10
191.9357191476765
 20
75.62849308780018
 30
0.0
 10
166.0255984187712
 20
75.60830844343225
 30
0.0
 10
140.1154776898658
 20
75.58361896600877
 30
0.0
  0
LINE
  5
19A
330
1F
100
AcDbEntity
  8
0
  6
Continuous
 62
     7
370
    25
100
AcDbLine
 10
130.7279491824
 20
515.8651869154
 30
0.0
 11
460.4244549442
 21
515.8651869154
 31
0.0
  0
SPLINE
  5
19B
330
1F
100
AcDbEntity
  8
0
  6
Continuous
 62
     7
370
    25
100
AcDbSpline
210
0.0
220
0.0
230
1.0
 70
     8
 71
     3
 72
    18
 73
    14
 74
     0
 42
0.00000001
 43
0.00000001
 40
0.0
 40
0.0
 40
0.0
 40
0.0
 40
0.125
 40
0.125
 40
0.25
 40
0.25
 40
0.375
 40
0.375
 40
0.5
 40
0.5
 40
0.75
 40
0.75
 40
1.0
 40
1.0
 40
1.0
 40
1.0
 10
460.7957312442653
 20
421.26387252041
 30
0.0
 10
460.7839551723812
 20
407.2726078944274
 30
0.0
 10
460.7746198076562
 20
393.2803790245208
 30
0.0
 10
460.7623406618973
 20
365.2959635180716
 30
0.0
 10
460.7594301591478
 20
351.3047497689133
 30
0.0
 10
460.7606581497707
 20
323.3244921617811
 30
0.0
 10
460.7647921435872
 20
309.3354469187096
 30
0.0
 10
460.7792741501673
 20
281.3592692928804
 30
0.0
 10
460.7895878407797
 20
267.372126344741
 30
0.0
 10
460.8274010665657
 20
225.4128129542136
 30
0.0
 10
460.8614930200382
 20
197.4426718547422
 30
0.0
 10
460.9374734644128
 20
141.5047896624874
 30
0.0
 10
460.9794566549463
 20
113.5370777210742
 30
0.0
 10
461.0232217842768
 20
85.56991431355424
 30
0.0
  0
LINE
  5
19C
330
1F
100
AcDbEntity
  8
0
  6
Continuous
 62
     7
370
    25
100
AcDbLine
 10
469.9637655794
 20
430.4319068555
 30
0.0
 11
460.7957312443
 21
421.2638725204
 31
0.0
  0
SPLINE
  5
19D
330
1F
100
AcDbEntity
  8
0
  6
Continuous
 62
     7
370
    25
100
AcDbSpline
210
0.0
220
0.0
230
1.0
 70
     8
 71
     3
 72
    26
 73
    22
 74
     0
 42
0.00000001
 43
0.00000001
 40
0.0
 40
0.0
 40
0.0
 40
0.0
 40
0.1250000000000035
 40
0.1250000000000035
 40
0.250000000000007
 40
0.250000000000007
 40
0.3125000000000066
 40
0.3125000000000066
 40
0.375000000000006
 40
0.375000000000006
 40
0.5000000000000048
 40
0.5000000000000048
 40
0.6250000000000037
 40
0.6250000000000037
 40
0.7500000000000024
 40
0.7500000000000024
 40
0.8750000000000013
 40
0.8750000000000013
 40
0.9375000000000007
 40
0.9375000000000007
 40
1.0
 40
1.0
 40
1.0
 40
1.0
 10
470.4107502917192
 20
444.5765098197602
 30
0.0
 10
470.4107502917192
 20
443.8568645599803
 30
0.0
 10
470.4072362297738
 20
443.1500013695748
 30
0.0
 10
470.3941280720193
 20
441.7583905393302
 30
0.0
 10
470.3845218450673
 20
441.0736870253809
 30
0.0
 10
470.3658808794468
 20
440.0620238925647
 30
0.0
 10
470.3589553438433
 20
439.7275902981492
 30
0.0
 10
470.3440097897494
 20
439.0747077772119
 30
0.0
 10
470.3359636235123
 20
438.7547514897472
 30
0.0
 10
470.3102572950937
 20
437.8126146207353
 30
0.0
 10
470.2910318896743
 20
437.2081367798729
 30
0.0
 10
470.2490813342338
 20
436.0387628510825
 30
0.0
 10
470.2262730224579
 20
435.4721886082756
 30
0.0
 10
470.1781739296137
 20
434.3799429427768
 30
0.0
 10
470.1529726920567
 20
433.8558336794087
 30
0.0
 10
470.1009393084263
 20
432.8387885434297
 30
0.0
 10
470.0741057394293
 20
432.3458798687686
 30
0.0
 10
470.0331354548683
 20
431.6202777098094
 30
0.0
 10
470.0193588571578
 20
431.3807008875211
 30
0.0
 10
469.9916523658605
 20
430.9044773596326
 30
0.0
 10
469.9776206515817
 20
430.6661303540575
 30
0.0
 10
469.9637655793618
 20
430.4319068555047
 30
0.0
  0
LINE
  5
19E
330
1F
100
AcDbEntity
  8
0
  6
Continuous
 62
     7
370
    25
100
AcDbLine
 10
470.4107502917
 20
505.8788915679
 30
0.0
 11
470.4107502917
 21
444.5765098198
 31
0.0
  0
SPLINE
  5
19F
330
1F
100
AcDbEntity
  8
0
  6
Continuous
 62
     7
370
    25
100
AcDbSpline
210
0.0
220
0.0
230
1.0
 70
     8
 71
     3
 72
    18
 73
    14
 74
     0
 42
0.00000001
 43
0.00000001
 40
0.0
 40
0.0
 40
0.0
 40
0.0
 40
0.2500000000000002
 40
0.2500000000000002
 40
0.5000000000000002
 40
0.5000000000000002
 40
0.6250000000000002
 40
0.6250000000000002
 40
0.7500000000000001
 40
0.7500000000000001
 40
0.8750000000000001
 40
0.8750000000000001
 40
1.0
 40
1.0
 40
1.0
 40
1.0
 10
130.1291823423203
 20
85.56991431355424
 30
0.0
 10
130.1729492686503
 20
113.5382260549403
 30
0.0
 10
130.2149346923743
 20
141.5074053778656
 30
0.0
 10
130.2909201115438
 20
197.4496528814342
 30
0.0
 10
130.3250155876672
 20
225.4232687046862
 30
0.0
 10
130.3628292862277
 20
267.388276270378
 30
0.0
 10
130.3731415796517
 20
281.3766738913383
 30
0.0
 10
130.3876188010952
 20
309.3536347751996
 30
0.0
 10
130.3917494333986
 20
323.3421989622052
 30
0.0
 10
130.3929719329757
 20
351.3195169970915
 30
0.0
 10
130.3900594159033
 20
365.3082709631093
 30
0.0
 10
130.3777805208603
 20
393.2859527956657
 30
0.0
 10
130.3684470420338
 20
407.2748797757305
 30
0.0
 10
130.3566728823317
 20
421.26387252041
 30
0.0
  0
LINE
  5
1A0
330
1F
100
AcDbEntity
  8
0
  6
Continuous
 62
     7
370
    25
100
AcDbLine
 10
120.7416538349
 20
444.5765098198
 30
0.0
 11
120.7416538349
 21
505.8788915679
 31
0.0
  0
SPLINE
  5
1A1
330
1F
100
AcDbEntity
  8
0
  6
Continuous
 62
     7
370
    25
100
AcDbSpline
210
0.0
220
0.0
230
1.0
 70
     8
 71
     3
 72
    22
 73
    18
 74
     0
 42
0.00000001
 43
0.00000001
 40
0.0
 40
0.0
 40
0.0
 40
0.0
 40
0.2500000000000002
 40
0.2500000000000002
 40
0.3749999999999986
 40
0.3749999999999986
 40
0.4999999999999971
 40
0.4999999999999971
 40
0.6249999999999956
 40
0.6249999999999956
 40
0.6874999999999948
 40
0.6874999999999948
 40
0.749999999999994
 40
0.749999999999994
 40
0.874999999999997
 40
0.874999999999997
 40
1.0
 40
1.0
 40
1.0
 40
1.0
 10
121.1886385472347
 20
430.4319068555047
 30
0.0
 10
121.1328942113718
 20
431.374278946086
 30
0.0
 10
121.0774779962203
 20
432.3303297273142
 30
0.0
 10
120.9994286199373
 20
433.8558911579887
 30
0.0
 10
120.9742276177518
 20
434.3799983745531
 30
0.0
 10
120.9261289880042
 20
435.4722398002987
 30
0.0
 10
120.9033209264942
 20
436.0388112847255
 30
0.0
 10
120.8613708266693
 20
437.20817966857
 30
0.0
 10
120.8421456344738
 20
437.812654572023
 30
0.0
 10
120.8164395959503
 20
438.7547866962793
 30
0.0
 10
120.8083935213682
 20
439.0747413458791
 30
0.0
 10
120.7934481392693
 20
439.7276204631007
 30
0.0
 10
120.7865226845773
 20
440.0620522883057
 30
0.0
 10
120.7678819509112
 20
441.0737092397482
 30
0.0
 10
120.7582758440483
 20
441.7584085071177
 30
0.0
 10
120.7451678514318
 20
443.1500105712527
 30
0.0
 10
120.7416538348772
 20
443.8568692433718
 30
0.0
 10
120.7416538348773
 20
444.5765098197602
 30
0.0
  0
LINE
  5
1A2
330
1F
100
AcDbEntity
  8
0
  6
Continuous
 62
     7
370
    25
100
AcDbLine
 10
130.3566728823
 20
421.2638725204
 30
0.0
 11
121.1886385472
 21
430.4319068555
 31
0.0
  0
LINE
  5
1A3
330
1F
100
AcDbEntity
  8
0
  6
Continuous
 62
     7
370
    25
100
AcDbLine
 10
98.573346728
 20
41.030638687
 30
0.0
 11
492.5790573986
 21
41.030638687
 31
0.0
  0
LINE
  5
1A4
330
1F
100
AcDbEntity
  8
0
  6
Continuous
 62
     7
370
    25
100
AcDbLine
 10
95.5762020633
 20
538.0334940222
 30
0.0
 11
95.5762020633
 21
44.0277833517
 31
0.0
  0
LINE
  5
1A5
330
1F
100
AcDbEntity
  8
0
  6
Continuous
 62
     7
370
    25
100
AcDbLine
 10
495.5762020633
 20
44.0277833517
 30
0.0
 11
495.5762020633
 21
538.0334940222
 31
0.0
  0
LINE
  5
1A6
330
1F
100
AcDbEntity
  8
0
  6
Continuous
 62
     7
370
    25
100
AcDbLine
 10
492.5790573986
 20
541.030638687
 30
0.0
 11
98.573346728
 21
541.030638687
 31
0.0
  0
LINE
  5
1A7
330
1F
100
AcDbEntity
  8
0
  6
Continuous
 62
     7
370
    25
100
AcDbLine
 10
120.7416538349
 20
444.5765098198
 30
0.0
 11
123.7375424391
 21
444.5765098198
 31
0.0
  0
SPLINE
  5
1A8
330
1F
100
AcDbEntity
  8
0
  6
Continuous
 62
     7
370
    25
100
AcDbSpline
210
0.0
220
0.0
230
1.0
 70
     8
 71
     3
 72
    18
 73
    14
 74
     0
 42
0.00000001
 43
0.00000001
 40
0.0
 40
0.0
 40
0.0
 40
0.0
 40
0.0078134541525176
 40
0.0156865841671732
 40
0.0314163851462476
 40
0.0628154231440594
 40
0.1254116426169635
 40
0.2500894911936517
 40
0.3737920296314894
 40
0.4993175616430381
 40
0.6615554545755095
 40
0.828665329421656
 40
1.0
 40
1.0
 40
1.0
 40
1.0
 10
123.7377680423076
 20
444.576080340794
 30
0.0
 10
123.7348784427838
 20
444.5612296494377
 30
0.0
 10
123.7290771741958
 20
444.5314148434178
 30
0.0
 10
123.7180367266897
 20
444.4715947734185
 30
0.0
 10
123.6983333889414
 20
444.3669427960112
 30
0.0
 10
123.6588780788934
 20
444.1582499020951
 30
0.0
 10
123.5787375165319
 20
443.7430460457753
 30
0.0
 10
123.4611259875742
 20
443.1554343944444
 30
0.0
 10
123.3143466431913
 20
442.4563134585665
 30
0.0
 10
123.1473764835163
 20
441.6967598495085
 30
0.0
 10
122.9558585482647
 20
440.8710218658534
 30
0.0
 10
122.7399886759683
 20
439.9782858287646
 30
0.0
 10
122.5927827129262
 20
439.387606291602
 30
0.0
 10
122.5182609470241
 20
439.088579803259
 30
0.0
  0
SPLINE
  5
1A9
330
1F
100
AcDbEntity
  8
0
  6
Continuous
 62
     7
370
    25
100
AcDbSpline
210
0.0
220
0.0
230
1.0
 70
     8
 71
     3
 72
    20
 73
    16
 74
     0
 42
0.00000001
 43
0.00000001
 40
0.0
 40
0.0
 40
0.0
 40
0.0
 40
0.0479384411425343
 40
0.0969632166005111
 40
0.1470375164313523
 40
0.1981303614181676
 40
0.2502173111504623
 40
0.3709606941015194
 40
0.5003759678400163
 40
0.6159503665780866
 40
0.7498001859722759
 40
0.8053025107500575
 40
0.8746657367411725
 40
0.9562818586028504
 40
1.0
 40
1.0
 40
1.0
 40
1.0
 10
122.5182609470241
 20
439.0885798032591
 30
0.0
 10
122.4830733740769
 20
438.9479658526443
 30
0.0
 10
122.411900841637
 20
438.6635514948646
 30
0.0
 10
122.3049817818601
 20
438.23555142191
 30
0.0
 10
122.1973459553433
 20
437.8003640852988
 30
0.0
 10
122.0897741310723
 20
437.3582146582497
 30
0.0
 10
121.936795205709
 20
436.7142561740234
 30
0.0
 10
121.7417182532107
 20
435.8481295002701
 30
0.0
 10
121.5361891302638
 20
434.8007095743449
 30
0.0
 10
121.3641506740829
 20
433.711616980326
 30
0.0
 10
121.266657130526
 20
432.831799989539
 30
0.0
 10
121.2125825486846
 20
432.0833915822562
 30
0.0
 10
121.1857122495702
 20
431.4855170934055
 30
0.0
 10
121.1781950399602
 20
430.9215036415657
 30
0.0
 10
121.1859387731504
 20
430.5585200294183
 30
0.0
 10
121.1886398830763
 20
430.4319068554299
 30
0.0
  0
LINE
  5
1AA
330
1F
100
AcDbEntity
  8
0
  6
Continuous
 62
     7
370
    25
100
AcDbLine
 10
460.4244549442
 20
515.8651869154
 30
0.0
 11
460.4244549442
 21
512.8692983111
 31
0.0
  0
LINE
  5
1AB
330
1F
100
AcDbEntity
  8
0
  6
Continuous
 62
     7
370
    25
100
AcDbLine
 10
460.4244549442
 20
512.8692983111
 30
0.0
 11
130.7279491824
 21
512.8692983111
 31
0.0
  0
LINE
  5
1AC
330
1F
100
AcDbEntity
  8
0
  6
Continuous
 62
     7
370
    25
100
AcDbLine
 10
130.7279491824
 20
515.8651869154
 30
0.0
 11
130.7279491824
 21
512.8692983111
 31
0.0
  0
LINE
  5
1AD
330
1F
100
AcDbEntity
  8
0
  6
Continuous
 62
     7
370
    25
100
AcDbLine
 10
120.7416538349
 20
505.8788915679
 30
0.0
 11
123.7375424391
 21
505.8788915679
 31
0.0
  0
LINE
  5
1AE
330
1F
100
AcDbEntity
  8
0
  6
Continuous
 62
     7
370
    25
100
AcDbLine
 10
123.7375424391
 20
505.8788915679
 30
0.0
 11
123.7375424391
 21
444.5765098198
 31
0.0
  0
LINE
  5
1AF
330
1F
100
AcDbEntity
  8
0
  6
Continuous
 62
     7
370
    25
100
AcDbLine
 10
470.4107502917
 20
444.5765098198
 30
0.0
 11
467.4148616875
 21
444.5765098198
 31
0.0
  0
LINE
  5
1B0
330
1F
100
AcDbEntity
  8
0
  6
Continuous
 62
     7
370
    25
100
AcDbLine
 10
467.4148616875
 20
444.5765098198
 30
0.0
 11
467.4148616875
 21
505.8788915679
 31
0.0
  0
LINE
  5
1B1
330
1F
100
AcDbEntity
  8
0
  6
Continuous
 62
     7
370
    25
100
AcDbLine
 10
470.4107502917
 20
505.8788915679
 30
0.0
 11
467.4148616875
 21
505.8788915679
 31
0.0
  0
SPLINE
  5
1B2
330
1F
100
AcDbEntity
  8
0
  6
Continuous
 62
     7
370
    25
100
AcDbSpline
210
0.0
220
0.0
230
1.0
 70
     8
 71
     3
 72
    26
 73
    22
 74
     0
 42
0.00000001
 43
0.00000001
 40
0.0
 40
0.0
 40
0.0
 40
0.0
 40
0.0311256012501981
 40
0.0623512194890888
 40
0.0936963594847658
 40
0.1251801412738457
 40
0.1872068922411637
 40
0.2498788180678581
 40
0.3823465752765898
 40
0.4998735709950189
 40
0.6291268161028866
 40
0.7500510964115694
 40
0.8750371039298999
 40
0.9373220021604793
 40
0.9685770545154323
 40
0.9842635054756268
 40
0.992125969490866
 40
0.9960626142200375
 40
0.9980323675319418
 40
0.999017611790465
 40
1.0
 40
1.0
 40
1.0
 40
1.0
 10
469.9637603608878
 20
430.43190685494
 30
0.0
 10
469.9667499191093
 20
430.5752745690959
 30
0.0
 10
469.9727386420049
 20
430.8624706859235
 30
0.0
 10
469.9692424899604
 20
431.294098801119
 30
0.0
 10
469.9567617553498
 20
431.7274550589565
 30
0.0
 10
469.9267736411659
 20
432.3034165099555
 30
0.0
 10
469.8666556887317
 20
433.0221987392602
 30
0.0
 10
469.722472901256
 20
434.2012510086197
 30
0.0
 10
469.4665062913302
 20
435.627918034547
 30
0.0
 10
469.068751514409
 20
437.3564677299412
 30
0.0
 10
468.6438976200242
 20
439.0511492577681
 30
0.0
 10
468.2006905658671
 20
440.8303012241346
 30
0.0
 10
467.8566637888579
 20
442.3512880238009
 30
0.0
 10
467.629816430023
 20
443.4571399106336
 30
0.0
 10
467.5210320559693
 20
444.0143658199328
 30
0.0
 10
467.4676533092111
 20
444.2946757774558
 30
0.0
 10
467.441184135545
 20
444.435379703868
 30
0.0
 10
467.428011415308
 20
444.5058897539387
 30
0.0
 10
467.4214248962097
 20
444.5411840029838
 30
0.0
 10
467.417688178545
 20
444.5613536573293
 30
0.0
 10
467.415783756024
 20
444.5714261383386
 30
0.0
 10
467.4148329269129
 20
444.5764550686621
 30
0.0
  0
SPLINE
  5
1B3
330
1F
100
AcDbEntity
  8
0
  6
Continuous
 62
     7
370
    25
100
AcDbSpline
210
0.0
220
0.0
230
1.0
 70
     8
 71
     3
 72
    14
 73
    10
 74
     0
 42
0.00000001
 43
0.00000001
 40
0.0
 40
0.0
 40
0.0
 40
0.0
 40
0.25
 40
0.25
 40
0.5
 40
0.5
 40
0.75
 40
0.75
 40
1.0
 40
1.0
 40
1.0
 40
1.0
 10
467.4148616874553
 20
505.8788915678618
 30
0.0
 10
467.4148616874554
 20
506.3252274041297
 30
0.0
 10
467.371839086589
 20
506.7800728159133
 30
0.0
 10
467.1946095758311
 20
507.6811415640022
 30
0.0
 10
467.0603688980059
 20
508.1271964174964
 30
0.0
 10
466.7058761085562
 20
508.9837038305546
 30
0.0
 10
466.4856915327998
 20
509.3939932133964
 30
0.0
 10
465.9745594296946
 20
510.1561087180921
 30
0.0
 10
465.6837547197607
 20
510.5078398429586
 30
0.0
 10
465.3685789695153
 20
510.8230155932038
 30
0.0
  0
LINE
  5
1B4
330
1F
100
AcDbEntity
  8
0
  6
Continuous
 62
     7
370
    25
100
AcDbLine
 10
465.3685789695
 20
510.8230155932
 30
0.0
 11
467.4840968414
 21
512.9385334651
 31
0.0
  0
SPLINE
  5
1B5
330
1F
100
AcDbEntity
  8
0
  6
Continuous
 62
     7
370
    25
100
AcDbSpline
210
0.0
220
0.0
230
1.0
 70
     8
 71
     3
 72
    14
 73
    10
 74
     0
 42
0.00000001
 43
0.00000001
 40
0.0
 40
0.0
 40
0.0
 40
0.0
 40
0.25
 40
0.25
 40
0.5
 40
0.5
 40
0.75
 40
0.75
 40
1.0
 40
1.0
 40
1.0
 40
1.0
 10
465.3685789695153
 20
510.8230155932038
 30
0.0
 10
465.05340321927
 20
511.1381913434491
 30
0.0
 10
464.7016720944036
 20
511.4289960533831
 30
0.0
 10
463.9395565897079
 20
511.9401281564882
 30
0.0
 10
463.5292672068661
 20
512.1603127322446
 30
0.0
 10
462.6727597938078
 20
512.5148055216943
 30
0.0
 10
462.2267049403138
 20
512.6490461995198
 30
0.0
 10
461.3256361922249
 20
512.8262757102775
 30
0.0
 10
460.8707907804412
 20
512.8692983111438
 30
0.0
 10
460.4244549441733
 20
512.8692983111438
 30
0.0
  0
LINE
  5
1B6
330
1F
100
AcDbEntity
  8
0
  6
Continuous
 62
     7
370
    25
100
AcDbLine
 10
125.7838251571
 20
510.8230155932
 30
0.0
 11
123.6683072852
 21
512.9385334651
 31
0.0
  0
SPLINE
  5
1B7
330
1F
100
AcDbEntity
  8
0
  6
Continuous
 62
     7
370
    25
100
AcDbSpline
210
0.0
220
0.0
230
1.0
 70
     8
 71
     3
 72
    14
 73
    10
 74
     0
 42
0.00000001
 43
0.00000001
 40
0.0
 40
0.0
 40
0.0
 40
0.0
 40
0.25
 40
0.25
 40
0.5
 40
0.5
 40
0.75
 40
0.75
 40
1.0
 40
1.0
 40
1.0
 40
1.0
 10
125.7838251570813
 20
510.8230155932038
 30
0.0
 10
125.4686494068358
 20
510.5078398429583
 30
0.0
 10
125.177844696902
 20
510.1561087180919
 30
0.0
 10
124.6667125937968
 20
509.3939932133961
 30
0.0
 10
124.4465280180405
 20
508.9837038305545
 30
0.0
 10
124.0920352285908
 20
508.1271964174962
 30
0.0
 10
123.9577945507655
 20
507.6811415640021
 30
0.0
 10
123.7805650400077
 20
506.7800728159134
 30
0.0
 10
123.7375424391413
 20
506.3252274041297
 30
0.0
 10
123.7375424391413
 20
505.8788915678618
 30
0.0
  0
SPLINE
  5
1B8
330
1F
100
AcDbEntity
  8
0
  6
Continuous
 62
     7
370
    25
100
AcDbSpline
210
0.0
220
0.0
230
1.0
 70
     8
 71
     3
 72
    14
 73
    10
 74
     0
 42
0.00000001
 43
0.00000001
 40
0.0
 40
0.0
 40
0.0
 40
0.0
 40
0.25
 40
0.25
 40
0.5
 40
0.5
 40
0.75
 40
0.75
 40
1.0
 40
1.0
 40
1.0
 40
1.0
 10
130.7279491824233
 20
512.8692983111438
 30
0.0
 10
130.2816133461553
 20
512.8692983111438
 30
0.0
 10
129.8267679343716
 20
512.8262757102775
 30
0.0
 10
128.9256991862827
 20
512.6490461995197
 30
0.0
 10
128.4796443327886
 20
512.5148055216944
 30
0.0
 10
127.6231369197304
 20
512.1603127322446
 30
0.0
 10
127.2128475368887
 20
511.9401281564884
 30
0.0
 10
126.4507320321929
 20
511.4289960533831
 30
0.0
 10
126.0990009073265
 20
511.1381913434492
 30
0.0
 10
125.7838251570813
 20
510.8230155932038
 30
0.0
  0
LINE
  5
1B9
330
1F
100
AcDbEntity
  8
0
  6
Continuous
 62
     7
370
    25
100
AcDbLine
 10
131.1749338948
 20
446.4099794116
 30
0.0
 11
459.9774702318
 21
446.4099794116
 31
0.0
  0
SPLINE
  5
1BA
330
1F
100
AcDbEntity
  8
0
  6
Continuous
 62
     7
370
    25
100
AcDbSpline
210
0.0
220
0.0
230
1.0
 70
     8
 71
     3
 72
    10
 73
     6
 74
     0
 42
0.00000001
 43
0.00000001
 40
0.0
 40
0.0
 40
0.0
 40
0.0
 40
0.5
 40
0.5
 40
1.0
 40
1.0
 40
1.0
 40
1.0
 10
123.7375424391413
 20
444.5765098197602
 30
0.0
 10
124.867215780258
 20
445.1699244310987
 30
0.0
 10
126.0859218866094
 20
445.6347817252475
 30
0.0
 10
128.6015670544261
 20
446.2549398743116
 30
0.0
 10
129.8974460919559
 20
446.4099794115778
 30
0.0
 10
131.1749338947803
 20
446.4099794115778
 30
0.0
  0
SPLINE
  5
1BB
330
1F
100
AcDbEntity
  8
0
  6
Continuous
 62
     7
370
    25
100
AcDbSpline
210
0.0
220
0.0
230
1.0
 70
     8
 71
     3
 72
    10
 73
     6
 74
     0
 42
0.00000001
 43
0.00000001
 40
0.0
 40
0.0
 40
0.0
 40
0.0
 40
0.5
 40
0.5
 40
1.0
 40
1.0
 40
1.0
 40
1.0
 10
459.9774702318163
 20
446.4099794115778
 30
0.0
 10
461.2549580346407
 20
446.4099794115778
 30
0.0
 10
462.5508370721705
 20
446.2549398743116
 30
0.0
 10
465.0664822399871
 20
445.6347817252475
 30
0.0
 10
466.2851883463385
 20
445.1699244310987
 30
0.0
 10
467.4148616874553
 20
444.5765098197602
 30
0.0
  0
CIRCLE
  5
1BC
330
1F
100
AcDbEntity
  8
0
  6
Continuous
 62
     7
370
    25
100
AcDbCircle
 10
295.5762020633
 20
476.030638687
 30
0.0
 40
17.50000000000006
  0
LINE
  5
1BD
330
1F
100
AcDbEntity
  8
0
  6
Continuous
 62
     7
370
    25
100
AcDbLine
 10
131.1749338948
 20
440.4182022031
 30
0.0
 11
131.1749338948
 21
446.4099794116
 31
0.0
  0
SPLINE
  5
1BE
330
1F
100
AcDbEntity
  8
0
  6
Continuous
 62
     7
370
    25
100
AcDbSpline
210
0.0
220
0.0
230
1.0
 70
     8
 71
     3
 72
    33
 73
    29
 74
     0
 42
0.00000001
 43
0.00000001
 40
0.0
 40
0.0
 40
0.0
 40
0.0
 40
0.0405655357740278
 40
0.0809598132272786
 40
0.1211831728416378
 40
0.1612359594604153
 40
0.2011185223540796
 40
0.2408312152870144
 40
0.2803743965853175
 40
0.3197484292056272
 40
0.358953680805046
 40
0.3979905238121276
 40
0.4368593354989222
 40
0.4755604980541713
 40
0.514094398657567
 40
0.5524614295551458
 40
0.5906619881358505
 40
0.6286964770091851
 40
0.6665653040840565
 40
0.7042688826487833
 40
0.741807631452262
 40
0.779181974786333
 40
0.8163923425693601
 40
0.8534391704309854
 40
0.890322899798093
 40
0.9270439779820352
 40
0.9636028582670677
 40
1.0
 40
1.0
 40
1.0
 40
1.0
 10
131.1749338947803
 20
440.4182022030505
 30
0.0
 10
131.0688334119355
 20
440.4174037638133
 30
0.0
 10
130.8570803779736
 20
440.4158102561648
 30
0.0
 10
130.5404056046123
 20
440.4006858534736
 30
0.0
 10
130.2256774263776
 20
440.3763935008509
 30
0.0
 10
129.9131945542589
 20
440.3421656459637
 30
0.0
 10
129.6032506156012
 20
440.2983981025241
 30
0.0
 10
129.2961298580627
 20
440.2451872664319
 30
0.0
 10
128.9921080795598
 20
440.1827190543881
 30
0.0
 10
128.6914521893267
 20
440.1111648293281
 30
0.0
 10
128.394420155516
 20
440.0307085883426
 30
0.0
 10
128.1012608715223
 20
439.9415392057684
 30
0.0
 10
127.8122140650923
 20
439.8438519829092
 30
0.0
 10
127.5275102167448
 20
439.7378477238235
 30
0.0
 10
127.2473704957108
 20
439.6237324744205
 30
0.0
 10
126.9720067113801
 20
439.5017170896072
 30
0.0
 10
126.7016212776239
 20
439.3720168541113
 30
0.0
 10
126.4364071998565
 20
439.2348510877909
 30
0.0
 10
126.1765480455727
 20
439.0904427904855
 30
0.0
 10
125.9222180419641
 20
438.9390181785528
 30
0.0
 10
125.6735817659323
 20
438.7808066488113
 30
0.0
 10
125.4307954067214
 20
438.6160391892883
 30
0.0
 10
125.1940022570734
 20
438.444952580686
 30
0.0
 10
124.963349659162
 20
438.2677721625938
 30
0.0
 10
124.7389264618756
 20
438.0847741059359
 30
0.0
 10
124.5209952299687
 20
437.8960529573978
 30
0.0
 10
124.3091317398401
 20
437.7023818968061
 30
0.0
 10
124.1730198120021
 20
437.5685123902263
 30
0.0
 10
124.1051147235388
 20
437.5017260267443
 30
0.0
  0
LINE
  5
1BF
330
1F
100
AcDbEntity
  8
0
  6
Continuous
 62
     7
370
    25
100
AcDbLine
 10
122.518260947
 20
439.0885798033
 30
0.0
 11
124.1051147235
 21
437.5017260267
 31
0.0
  0
LINE
  5
1C0
330
1F
100
AcDbEntity
  8
0
  6
Continuous
 62
     7
370
    25
100
AcDbLine
 10
459.9774702318
 20
440.4182022031
 30
0.0
 11
459.9774702318
 21
446.4099794116
 31
0.0
  0
SPLINE
  5
1C1
330
1F
100
AcDbEntity
  8
0
  6
Continuous
 62
     7
370
    25
100
AcDbSpline
210
0.0
220
0.0
230
1.0
 70
     8
 71
     3
 72
    46
 73
    42
 74
     0
 42
0.00000001
 43
0.00000001
 40
0.0
 40
0.0
 40
0.0
 40
0.0
 40
0.0202832371216515
 40
0.0404808959275105
 40
0.0605931466724952
 40
0.0806201617910406
 40
0.1005621159299327
 40
0.1204191859816346
 40
0.1401915511181338
 40
0.1598793928253255
 40
0.1794828949379089
 40
0.1990022436748362
 40
0.2184376276752755
 40
0.2377892380351607
 40
0.2570572683442644
 40
0.2762419147238408
 40
0.2953433758648382
 40
0.3143618530666743
 40
0.3332975502765905
 40
0.3521506741295965
 40
0.3709214339889836
 40
0.3896100419874464
 40
0.4082167130687888
 40
0.4267416650302428
 40
0.4451851185653798
 40
0.4635472973076446
 40
0.4818284278744805
 40
0.5000287399121007
 40
0.5365037179872687
 40
0.5733032307887828
 40
0.6104290783733317
 40
0.6478830136643602
 40
0.685666743840055
 40
0.7237819316823536
 40
0.7622301968875593
 40
0.8010131173392019
 40
0.8401322303437948
 40
0.8795890338302165
 40
0.9193849875134548
 40
0.9595215140234727
 40
1.0
 40
1.0
 40
1.0
 40
1.0
 10
469.9637655793618
 20
430.4319068555046
 30
0.0
 10
469.9629672004514
 20
430.5380036920627
 30
0.0
 10
469.9613738111225
 20
430.7497497251633
 30
0.0
 10
469.9462504071015
 20
431.0664144662929
 30
0.0
 10
469.9219595529134
 20
431.3811335445183
 30
0.0
 10
469.8877336652921
 20
431.6936082688594
 30
0.0
 10
469.8439684552704
 20
432.0035450263264
 30
0.0
 10
469.790760234429
 20
432.3106595781133
 30
0.0
 10
469.7282948314281
 20
432.6146761297457
 30
0.0
 10
469.6567435232492
 20
432.9153277701531
 30
0.0
 10
469.5762902220095
 20
433.212356524199
 30
0.0
 10
469.4871237186359
 20
433.5055134865067
 30
0.0
 10
469.3894392327309
 20
433.7945589124945
 30
0.0
 10
469.2834374886379
 20
434.0792623001531
 30
0.0
 10
469.169324454615
 20
434.3594024541503
 30
0.0
 10
469.047310910658
 20
434.6347675350337
 30
0.0
 10
468.9176120677478
 20
434.9051550933477
 30
0.0
 10
468.7804471798642
 20
435.170372089237
 30
0.0
 10
468.6360391647881
 20
435.4302348980967
 30
0.0
 10
468.4846142305559
 20
435.6845693021807
 30
0.0
 10
468.326401506704
 20
435.9332104707116
 30
0.0
 10
468.1616326891685
 20
436.1760029212771
 30
0.0
 10
467.9905416666273
 20
436.4128004914818
 30
0.0
 10
467.8133642495859
 20
436.6434662157282
 30
0.0
 10
467.6303375538562
 20
436.867872499139
 30
0.0
 10
467.4417007020403
 20
437.0859001375401
 30
0.0
 10
467.2476906765348
 20
437.297441565566
 30
0.0
 10
466.9816132294422
 20
437.5712852663548
 30
0.0
 10
466.6333087912724
 20
437.9000705546671
 30
0.0
 10
466.19071521943
 20
438.2718696073221
 30
0.0
 10
465.7230681372326
 20
438.6202795380407
 30
0.0
 10
465.2314342020971
 20
438.9433977487686
 30
0.0
 10
464.7170171858801
 20
439.2393626688167
 30
0.0
 10
464.18117355411
 20
439.5063520316052
 30
0.0
 10
463.6254095996482
 20
439.742591114323
 30
0.0
 10
463.0513824391196
 20
439.9463919086157
 30
0.0
 10
462.4608991815682
 20
440.116059218164
 30
0.0
 10
461.8559140675403
 20
440.2503064291612
 30
0.0
 10
461.2385298874473
 20
440.3467445061711
 30
0.0
 10
460.6109779910138
 20
440.4076561906024
 30
0.0
 10
460.1892358119024
 20
440.4146769385035
 30
0.0
 10
459.9774702318163
 20
440.4182022030504
 30
0.0
  0
LINE
  5
1C2
330
1F
100
AcDbEntity
  8
0
  6
Continuous
 62
     7
370
    25
100
AcDbLine
 10
459.9774702318
 20
440.4182022031
 30
0.0
 11
131.1749338948
 21
440.4182022031
 31
0.0
  0
SPLINE
  5
1C3
330
1F
100
AcDbEntity
  8
0
  6
Continuous
 62
     7
370
    25
100
AcDbSpline
210
0.0
220
0.0
230
1.0
 70
     8
 71
     3
 72
    30
 73
    26
 74
     0
 42
0.00000001
 43
0.00000001
 40
0.0
 40
0.0
 40
0.0
 40
0.0
 40
0.0411565522034392
 40
0.0825198605686732
 40
0.1240905868851698
 40
0.1658693830803444
 40
0.2078568913843452
 40
0.2500537444922661
 40
0.2924605657237865
 40
0.3350779691802893
 40
0.3779065598994521
 40
0.4209469340073378
 40
0.4641996788680309
 40
0.5076653732307711
 40
0.5513445873747286
 40
0.5952378832513087
 40
0.6393458146241278
 40
0.6836689272066374
 40
0.728207758797383
 40
0.7729628394130187
 40
0.8179346914190445
 40
0.8631238296582703
 40
0.9085307615771281
 40
0.9541559873497638
 40
1.0
 40
1.0
 40
1.0
 40
1.0
 10
124.1051147235388
 20
437.5017260267443
 30
0.0
 10
124.0296779887111
 20
437.4248587723609
 30
0.0
 10
123.8784255512143
 20
437.2707381093216
 30
0.0
 10
123.6607033718592
 20
437.0297382550644
 30
0.0
 10
123.4493858353476
 20
436.7810206583599
 30
0.0
 10
123.245501728426
 20
436.5240645002326
 30
0.0
 10
123.0492104198517
 20
436.259231552085
 30
0.0
 10
122.8609033277041
 20
435.9866642402889
 30
0.0
 10
122.6809057827299
 20
435.7065833068368
 30
0.0
 10
122.5095567113325
 20
435.4192076025558
 30
0.0
 10
122.3471863028313
 20
435.1247758584975
 30
0.0
 10
122.1941211968825
 20
434.8235408959642
 30
0.0
 10
122.0506822246501
 20
434.5157712434445
 30
0.0
 10
121.9171841390695
 20
434.201750719338
 30
0.0
 10
121.7939348068509
 20
433.8817785277049
 30
0.0
 10
121.6812344761601
 20
433.5561691778622
 30
0.0
 10
121.5793752171026
 20
433.2252524132397
 30
0.0
 10
121.4886395271382
 20
432.8893730953632
 30
0.0
 10
121.4093020708724
 20
432.5488910666845
 30
0.0
 10
121.3416195903467
 20
432.2041809455563
 30
0.0
 10
121.2858652582954
 20
431.8556320115918
 30
0.0
 10
121.2421959368538
 20
431.5036475856147
 30
0.0
 10
121.2111475516846
 20
431.1486461387674
 30
0.0
 10
121.1917693250907
 20
430.7910557271527
 30
0.0
 10
121.1896838026526
 20
430.5518138949672
 30
0.0
 10
121.1886385472346
 20
430.4319068555047
 30
0.0
  0
ARC
  5
1C4
330
1F
100
AcDbEntity
  8
0
  6
Continuous
 62
     7
370
    25
100
AcDbCircle
 10
450.8092295367
 20
421.236518956
 30
0.0
 40
9.98653916891693
100
AcDbArc
 50
0.156935824
 51
0.2335699808
  0
ARC
  5
1C5
330
1F
100
AcDbEntity
  8
0
  6
Continuous
 62
     7
370
    25
100
AcDbCircle
 10
450.7773255788
 20
421.2317559772
 30
0.0
 40
10.01846334945698
100
AcDbArc
 50
0.260065515
 51
89.8163601762
  0
LINE
  5
1C6
330
1F
100
AcDbEntity
  8
0
  6
Continuous
 62
     7
370
    25
100
AcDbLine
 10
450.8094358967
 20
431.250167868
 30
0.0
 11
459.9774702318
 21
440.4182022031
 31
0.0
  0
ARC
  5
1C7
330
1F
100
AcDbEntity
  8
0
  6
Continuous
 62
     7
370
    25
100
AcDbCircle
 10
140.3750708918
 20
421.2317698585
 30
0.0
 40
10.01844944373282
100
AcDbArc
 50
90.1835962936
 51
179.8164037064
  0
LINE
  5
1C8
330
1F
100
AcDbEntity
  8
0
  6
Continuous
 62
     7
370
    25
100
AcDbLine
 10
131.1749338948
 20
440.4182022031
 30
0.0
 11
140.3429682299
 21
431.250167868
 31
0.0
  0
SPLINE
  5
1C9
330
1F
100
AcDbEntity
  8
0
  6
Continuous
 62
     7
370
    25
100
AcDbSpline
210
0.0
220
0.0
230
1.0
 70
     8
 71
     3
 72
    22
 73
    18
 74
     0
 42
0.00000001
 43
0.00000001
 40
0.0
 40
0.0
 40
0.0
 40
0.0
 40
0.125
 40
0.125
 40
0.25
 40
0.25
 40
0.375
 40
0.375
 40
0.5
 40
0.5
 40
0.625
 40
0.625
 40
0.75
 40
0.75
 40
0.875
 40
0.875
 40
1.0
 40
1.0
 40
1.0
 40
1.0
 10
140.3429682298773
 20
431.2501678679558
 30
0.0
 10
153.2777464586665
 20
431.2291208139948
 30
0.0
 10
166.2127619980337
 20
431.2085957372458
 30
0.0
 10
192.0837086208271
 20
431.1695593714972
 30
0.0
 10
205.0196256232772
 20
431.151017110644
 30
0.0
 10
230.8933202842394
 20
431.1180252006985
 30
0.0
 10
243.8310927556532
 20
431.1035641423091
 30
0.0
 10
269.7103809731169
 20
431.0828755567643
 30
0.0
 10
282.6531639847219
 20
431.0768835988853
 30
0.0
 10
308.5327655280646
 20
431.0768935337312
 30
0.0
 10
321.4704505646172
 20
431.0828929116538
 30
0.0
 10
347.3427517274154
 20
431.103586663391
 30
0.0
 10
360.2774504832165
 20
431.118046926862
 30
0.0
 10
386.1454123787588
 20
431.1510349157031
 30
0.0
 10
399.078671500118
 20
431.1695740261614
 30
0.0
 10
424.9445010571649
 20
431.2086034670499
 30
0.0
 10
437.8770605773208
 20
431.2291247239314
 30
0.0
 10
450.8094358967193
 20
431.2501678679558
 30
0.0
  0
ARC
  5
1CA
330
1F
100
AcDbEntity
  8
0
  6
Continuous
 62
     7
370
    25
100
AcDbCircle
 10
453.3190363565
 20
177.5644833846
 30
0.0
 40
92.316603120349
100
AcDbArc
 50
268.6961106078
 51
274.7871269836
  0
SPLINE
  5
1CB
330
1F
100
AcDbEntity
  8
0
  6
Continuous
 62
     7
370
    25
100
AcDbSpline
210
0.0
220
0.0
230
1.0
 70
     8
 71
     3
 72
    30
 73
    26
 74
     0
 42
0.00000001
 43
0.00000001
 40
0.0
 40
0.0
 40
0.0
 40
0.0
 40
0.0431878939273092
 40
0.0848502750923653
 40
0.1249985506376382
 40
0.1892185923084804
 40
0.2499941195777829
 40
0.3141049214489
 40
0.3749862603203686
 40
0.4387885154871159
 40
0.4999751699272029
 40
0.5624691276705918
 40
0.6249636336361584
 40
0.6563008739340839
 40
0.6874598199945784
 40
0.7187415409617356
 40
0.7499590093754185
 40
0.7811951462151564
 40
0.8124626874490971
 40
0.8436486103764713
 40
0.8749720730591677
 40
0.9060950290643744
 40
0.9374856058970034
 40
0.9685360732409591
 40
1.0
 40
1.0
 40
1.0
 40
1.0
 10
451.2183537048773
 20
85.2717840846583
 30
0.0
 10
451.2136230922952
 20
90.10978382054094
 30
0.0
 10
451.2043289651118
 20
99.61489210800148
 30
0.0
 10
451.1911848294104
 20
113.6177559157383
 30
0.0
 10
451.1749328962164
 20
129.9769740009664
 30
0.0
 10
451.1633137122363
 20
148.4777917530859
 30
0.0
 10
451.145441376086
 20
169.6637605661305
 30
0.0
 10
451.1381190387328
 20
190.4764680474068
 30
0.0
 10
451.1262905784275
 20
211.6291740333806
 30
0.0
 10
451.12317174989
 20
232.4552603099849
 30
0.0
 10
451.1190943627087
 20
253.4631320542712
 30
0.0
 10
451.1191837387382
 20
274.3255832572078
 30
0.0
 10
451.1207832543132
 20
291.8440642808279
 30
0.0
 10
451.1203677147167
 20
305.8514427301171
 30
0.0
 10
451.1224547381389
 20
316.3610658925337
 30
0.0
 10
451.1211856223555
 20
326.8573966697167
 30
0.0
 10
451.1233367476466
 20
337.3624564842231
 30
0.0
 10
451.1213311879119
 20
347.8659475539902
 30
0.0
 10
451.1228871071092
 20
358.3658650952203
 30
0.0
 10
451.1206648348194
 20
368.8754751807996
 30
0.0
 10
451.1214824622476
 20
379.3687348489604
 30
0.0
 10
451.1196249921308
 20
389.8847412255727
 30
0.0
 10
451.119964624593
 20
400.369922397468
 30
0.0
 10
451.1190282587833
 20
410.8930818889525
 30
0.0
 10
451.1193208551217
 20
417.8983265011059
 30
0.0
 10
451.1194681208815
 20
421.4241145467009
 30
0.0
  0
ARC
  5
1CC
330
1F
100
AcDbEntity
  8
0
  6
Continuous
 62
     7
370
    25
100
AcDbCircle
 10
453.1698831442
 20
253.0068889497
 30
0.0
 40
168.4297066420958
100
AcDbArc
 50
87.4049807671
 51
90.6975196441
  0
SPLINE
  5
1CD
330
1F
100
AcDbEntity
  8
0
  6
Continuous
 62
     7
370
    25
100
AcDbSpline
210
0.0
220
0.0
230
1.0
 70
     8
 71
     3
 72
    30
 73
    26
 74
     0
 42
0.00000001
 43
0.00000001
 40
0.0
 40
0.0
 40
0.0
 40
0.0
 40
0.0210243242967708
 40
0.0418445348930343
 40
0.0625023931715517
 40
0.0938848943786929
 40
0.1250014871304116
 40
0.1563177469566261
 40
0.1874979730972396
 40
0.2187604414155546
 40
0.2499929585872513
 40
0.281207526429982
 40
0.3124877685222757
 40
0.3436458269220842
 40
0.3749837048055009
 40
0.4374817777255945
 40
0.4999826540488072
 40
0.5611761330728582
 40
0.6249873772830145
 40
0.6858733178941047
 40
0.7499917415163129
 40
0.8107695231246554
 40
0.8749955409510275
 40
0.9357868114606392
 40
1.0
 40
1.0
 40
1.0
 40
1.0
 10
140.0329360057152
 20
421.4241145467012
 30
0.0
 10
140.033020987322
 20
419.0681747820601
 30
0.0
 10
140.0331901254956
 20
414.3791677873118
 30
0.0
 10
140.0331131719357
 20
407.3751306766741
 30
0.0
 10
140.0324457444142
 20
399.2102270715285
 30
0.0
 10
140.0327907355071
 20
389.8912992998148
 30
0.0
 10
140.0309195740145
 20
379.3777198417555
 30
0.0
 10
140.0317396609256
 20
368.8866186851075
 30
0.0
 10
140.0295178601395
 20
358.3790230115512
 30
0.0
 10
140.0310724324831
 20
347.8807181417499
 30
0.0
 10
140.0290674964975
 20
337.3785263307473
 30
0.0
 10
140.031217603177
 20
326.8743628815624
 30
0.0
 10
140.0299489321673
 20
316.378622190509
 30
0.0
 10
140.0320333199629
 20
305.8691924984968
 30
0.0
 10
140.0316207110891
 20
291.8614418470113
 30
0.0
 10
140.0332196668101
 20
274.3417135896991
 30
0.0
 10
140.0333103108976
 20
253.4773217720347
 30
0.0
 10
140.0292361482557
 20
232.4669020621868
 30
0.0
 10
140.0261200961062
 20
211.6385277810126
 30
0.0
 10
140.0142731846319
 20
190.4834445628727
 30
0.0
 10
140.0069538087513
 20
169.6691153245303
 30
0.0
 10
139.9891540582323
 20
148.4813681447779
 30
0.0
 10
139.9757933813031
 20
127.6670327749615
 30
0.0
 10
139.9542449310215
 20
106.4683885826243
 30
0.0
 10
139.9409036610956
 20
92.46509601073974
 30
0.0
 10
139.9340504217182
 20
85.27178408465896
 30
0.0
  0
ARC
  5
1CE
330
1F
100
AcDbEntity
  8
0
  6
Continuous
 62
     7
370
    25
100
AcDbCircle
 10
137.8333677701
 20
177.5644833847
 30
0.0
 40
92.31660312037684
100
AcDbArc
 50
265.2128730164
 51
271.3038893922
  0
ARC
  5
1CF
330
1F
100
AcDbEntity
  8
0
  6
Continuous
 62
     7
370
    25
100
AcDbCircle
 10
137.9825209824
 20
253.0068889498
 30
0.0
 40
168.4297066420787
100
AcDbArc
 50
89.3024803559
 51
92.5950192329
  0
ARC
  5
1D0
330
1F
100
AcDbEntity
  8
0
  6
Continuous
 62
     7
370
    25
100
AcDbCircle
 10
288.9612508426
 20
83.2167889938
 30
0.0
 40
149.0413683179808
100
AcDbArc
 50
179.2099758747
 51
182.9356939694
  0
SPLINE
  5
1D1
330
1F
100
AcDbEntity
  8
0
  6
Continuous
 62
     7
370
    25
100
AcDbSpline
210
0.0
220
0.0
230
1.0
 70
     8
 71
     3
 72
    19
 73
    15
 74
     0
 42
0.00000001
 43
0.00000001
 40
0.0
 40
0.0
 40
0.0
 40
0.0
 40
0.0633847322950663
 40
0.1261343007146388
 40
0.1883162109058283
 40
0.2500035387168606
 40
0.3757678446457668
 40
0.5000059829275662
 40
0.6254156196376666
 40
0.750007069812708
 40
0.8125518292821596
 40
0.8750050489956248
 40
0.9375170165206911
 40
0.9999999999999999
 40
0.9999999999999999
 40
0.9999999999999999
 40
0.9999999999999999
 10
139.9340504217182
 20
85.27178408465896
 30
0.0
 10
143.2221712573313
 20
85.27320326370113
 30
0.0
 10
149.7654634232519
 20
85.27602740051753
 30
0.0
 10
159.5346681529426
 20
85.27981598266435
 30
0.0
 10
169.2159524994297
 20
85.28306528366672
 30
0.0
 10
182.1664665735572
 20
85.28669306277908
 30
0.0
 10
198.3366942906147
 20
85.29243993033703
 30
0.0
 10
217.8133160277936
 20
85.29401250520266
 30
0.0
 10
237.2295481128154
 20
85.30004862237139
 30
0.0
 10
253.4453285260715
 20
85.29885133170315
 30
0.0
 10
266.394874489569
 20
85.30032196681661
 30
0.0
 10
276.1235774404021
 20
85.30040716734175
 30
0.0
 10
285.849109001454
 20
85.3009808869061
 30
0.0
 10
292.3343389781378
 20
85.30088094518246
 30
0.0
 10
295.5762020632993
 20
85.30083098590791
 30
0.0
  0
SPLINE
  5
1D2
330
1F
100
AcDbEntity
  8
0
  6
Continuous
 62
     7
370
    25
100
AcDbSpline
210
0.0
220
0.0
230
1.0
 70
     8
 71
     3
 72
    18
 73
    14
 74
     0
 42
0.00000001
 43
0.00000001
 40
0.0
 40
0.0
 40
0.0
 40
0.0
 40
0.0416613806899521
 40
0.0833099249709801
 40
0.1249989892585519
 40
0.1874499578328395
 40
0.2499968032758462
 40
0.3745832617155577
 40
0.4999922129360588
 40
0.6242266651585531
 40
0.7499920448403612
 40
0.8738621186925698
 40
1.0
 40
1.0
 40
1.0
 40
1.0
 10
295.5762020632982
 20
85.30083098590791
 30
0.0
 10
297.7377583134071
 20
85.300857116316
 30
0.0
 10
302.0602048102548
 20
85.30090936908091
 30
0.0
 10
308.5456388370738
 20
85.30080638472538
 30
0.0
 10
316.1097055994946
 20
85.30038694176412
 30
0.0
 10
324.7580314629688
 20
85.30032530974275
 30
0.0
 10
337.7073095105986
 20
85.29884974426072
 30
0.0
 10
353.9229034480919
 20
85.30004722366846
 30
0.0
 10
373.3386486479101
 20
85.29402049020632
 30
0.0
 10
392.8151014370239
 20
85.29240998124332
 30
0.0
 10
412.2111771726354
 20
85.28564523568977
 30
0.0
 10
431.7054772002167
 20
85.28021260542626
 30
0.0
 10
444.6748467405861
 20
85.27461053027902
 30
0.0
 10
451.2183537048773
 20
85.2717840846583
 30
0.0
  0
ARC
  5
1D3
330
1F
100
AcDbEntity
  8
0
  6
Continuous
 62
     7
370
    25
100
AcDbCircle
 10
302.1911532841
 20
83.2167889938
 30
0.0
 40
149.0413683179666
100
AcDbArc
 50
357.0643060306
 51
0.7900241253
  0
SPLINE
  5
1D4
330
1F
100
AcDbEntity
  8
0
  6
Continuous
 62
     7
370
    25
100
AcDbSpline
210
0.0
220
0.0
230
1.0
 70
     8
 71
     3
 72
    23
 73
    19
 74
     0
 42
0.00000001
 43
0.00000001
 40
0.0
 40
0.0
 40
0.0
 40
0.0
 40
0.066973290749111
 40
0.1309550173670807
 40
0.1919577897317924
 40
0.2500061830901711
 40
0.3140527704513604
 40
0.3750064540332869
 40
0.4390116762156826
 40
0.5000043874525193
 40
0.6250000660092394
 40
0.68851741917589
 40
0.749994826480313
 40
0.81305930177825
 40
0.8749924168001357
 40
0.9168839316982513
 40
0.9583830810744646
 40
1.0
 40
1.0
 40
1.0
 40
1.0
 10
451.1194681208815
 20
421.4241145467009
 30
0.0
 10
447.6477917381463
 20
421.4220039787328
 30
0.0
 10
440.859511874505
 20
421.417877117684
 30
0.0
 10
430.9088572926641
 20
421.41378104154
 30
0.0
 10
421.4207021046818
 20
421.4064868120709
 30
0.0
 10
411.9290066834834
 20
421.3995959944909
 30
0.0
 10
402.4396458179656
 20
421.3984912328487
 30
0.0
 10
392.6412296358406
 20
421.3959805356955
 30
0.0
 10
383.0008460748534
 20
421.3975035390555
 30
0.0
 10
370.0398676192865
 20
421.39876506116
 30
0.0
 10
357.103431074191
 20
421.4057620844509
 30
0.0
 10
344.1409737294201
 20
421.4136403866223
 30
0.0
 10
334.3892913055507
 20
421.4218955431443
 30
0.0
 10
324.7193026079257
 20
421.425196215983
 30
0.0
 10
316.0646094503334
 20
421.4353341093072
 30
0.0
 10
308.5280728821899
 20
421.4337954901688
 30
0.0
 10
302.0450419229794
 20
421.4361397102458
 30
0.0
 10
297.734517918366
 20
421.4384376064768
 30
0.0
 10
295.5762020632981
 20
421.4395881825699
 30
0.0
  0
SPLINE
  5
1D5
330
1F
100
AcDbEntity
  8
0
  6
Continuous
 62
     7
370
    25
100
AcDbSpline
210
0.0
220
0.0
230
1.0
 70
     8
 71
     3
 72
    23
 73
    19
 74
     0
 42
0.00000001
 43
0.00000001
 40
0.0
 40
0.0
 40
0.0
 40
0.0
 40
0.0250113284347253
 40
0.049905537568098
 40
0.0747953328707602
 40
0.0997911204300793
 40
0.124999942199877
 40
0.1869355009990734
 40
0.2500065819958589
 40
0.3114843354065338
 40
0.3750062295999066
 40
0.500003777284123
 40
0.5609943582023957
 40
0.6250014889954237
 40
0.6859520071885477
 40
0.7500000500479226
 40
0.8690468048913016
 40
1.0
 40
1.0
 40
1.0
 40
1.0
 10
295.5762020632981
 20
421.4395881825699
 30
0.0
 10
294.2790771831854
 20
421.4391500226475
 30
0.0
 10
291.6909014050009
 20
421.4382757545524
 30
0.0
 10
287.811915288926
 20
421.4353115366366
 30
0.0
 10
283.933755802091
 20
421.4342193686598
 30
0.0
 10
280.0393123472107
 20
421.4347120636456
 30
0.0
 10
274.2237140966183
 20
421.4341086974614
 30
0.0
 10
266.4336975846804
 20
421.4252719007114
 30
0.0
 10
256.7632217617264
 20
421.4218762922725
 30
0.0
 10
247.0109431754681
 20
421.4136436549522
 30
0.0
 10
234.0481353609691
 20
421.4057590748287
 30
0.0
 10
221.1114767951718
 20
421.3987678822721
 30
0.0
 10
208.1504127126823
 20
421.3974984461375
 30
0.0
 10
198.5102048383266
 20
421.3959918647402
 30
0.0
 10
188.7117774792503
 20
421.3984526302722
 30
0.0
 10
176.06031442706
 20
421.4001945975155
 30
0.0
 10
159.7803765966555
 20
421.4149415696515
 30
0.0
 10
146.8211472966084
 20
421.4209613225609
 30
0.0
 10
140.0329360057152
 20
421.4241145467012
 30
0.0
  0
ARC
  5
1D6
330
1F
100
AcDbEntity
  8
0
  6
Continuous
 62
     7
370
    25
100
AcDbCircle
 10
229.0538335878
 20
423.5332395814
 30
0.0
 40
89.04587926864895
100
AcDbArc
 50
175.0283746702
 51
181.357224681
  0
ARC
  5
1D7
330
1F
100
AcDbEntity
  8
0
  6
Continuous
 62
     7
370
    25
100
AcDbCircle
 10
362.0985705389
 20
423.5332395814
 30
0.0
 40
89.04587926861487
100
AcDbArc
 50
358.642775319
 51
4.9716253298
  0
ARC
  5
1D8
330
1F
100
AcDbEntity
  8
0
  6
Continuous
 62
     7
370
    25
100
AcDbCircle
 10
453.3952252926
 20
252.5527379724
 30
0.0
 40
168.8867102432564
100
AcDbArc
 50
87.4885474482
 51
90.7720869646
  0
ARC
  5
1D9
330
1F
100
AcDbEntity
  8
0
  6
Continuous
 62
     7
370
    25
100
AcDbCircle
 10
295.5762020633
 20
341.030638687
 30
0.0
 40
63.21045612373223
100
AcDbArc
 50
270.0
 51
90.0
  0
ARC
  5
1DA
330
1F
100
AcDbEntity
  8
0
  6
Continuous
 62
     7
370
    25
100
AcDbCircle
 10
295.5762020633
 20
341.030638687
 30
0.0
 40
63.21045612373223
100
AcDbArc
 50
90.0
 51
270.0
  0
ARC
  5
1DB
330
1F
100
AcDbEntity
  8
0
  6
Continuous
 62
     7
370
    25
100
AcDbCircle
 10
295.5762020633
 20
341.030638687
 30
0.0
 40
59.42972770433329
100
AcDbArc
 50
270.0
 51
90.0
  0
ARC
  5
1DC
330
1F
100
AcDbEntity
  8
0
  6
Continuous
 62
     7
370
    25
100
AcDbCircle
 10
295.5762020633
 20
341.030638687
 30
0.0
 40
59.42972770433329
100
AcDbArc
 50
90.0
 51
270.0
  0
ARC
  5
1DD
330
1F
100
AcDbEntity
  8
0
  6
Continuous
 62
     7
370
    25
100
AcDbCircle
 10
295.5762020633
 20
341.030638687
 30
0.0
 40
59.0
100
AcDbArc
 50
90.0
 51
270.0
  0
ARC
  5
1DE
330
1F
100
AcDbEntity
  8
0
  6
Continuous
 62
     7
370
    25
100
AcDbCircle
 10
295.5762020633
 20
341.030638687
 30
0.0
 40
59.0
100
AcDbArc
 50
270.0
 51
90.0
  0
LINE
  5
1DF
330
1F
100
AcDbEntity
  8
0
  6
Continuous
 62
     8
370
    25
100
AcDbLine
 10
275.5275845053
 20
341.0306386952
 30
0.0
 11
275.5524652761
 21
342.0291531157
 31
0.0
  0
LWPOLYLINE
  5
1E0
330
1F
100
AcDbEntity
  8
0
  6
Continuous
 62
     8
370
    25
100
AcDbPolyline
 90
        3
 70
   128
 43
0.0
 10
277.1043356087
 20
348.8240471629
 10
277.1873834622
 20
349.0180297781
 10
277.963495471
 20
350.6087195219
  0
LINE
  5
1E1
330
1F
100
AcDbEntity
  8
0
  6
Continuous
 62
     8
370
    25
100
AcDbLine
 10
282.3198300726
 20
356.0711063537
 30
0.0
 11
283.7151532943
 21
357.1942579626
 31
0.0
  0
LWPOLYLINE
  5
1E2
330
1F
100
AcDbEntity
  8
0
  6
Continuous
 62
     8
370
    25
100
AcDbPolyline
 90
        3
 70
   128
 43
0.0
 10
290.1485820933
 20
360.3305870664
 10
291.4971902707
 20
360.6599211187
 10
292.0936454557
 20
360.7744697606
  0
LWPOLYLINE
  5
1E3
330
1F
100
AcDbEntity
  8
0
  6
Continuous
 62
     8
370
    25
100
AcDbPolyline
 90
        3
 70
   128
 43
0.0
 10
299.2448183521
 20
360.740745752
 10
299.6552138604
 20
360.6599211177
 10
300.9982151972
 20
360.3321629678
  0
LINE
  5
1E4
330
1F
100
AcDbEntity
  8
0
  6
Continuous
 62
     8
370
    25
100
AcDbLine
 10
307.4365656251
 20
357.1947607531
 30
0.0
 11
308.6880672485
 21
356.1972486362
 31
0.0
  0
LWPOLYLINE
  5
1E5
330
1F
100
AcDbEntity
  8
0
  6
Continuous
 62
     8
370
    25
100
AcDbPolyline
 90
        3
 70
   128
 43
0.0
 10
313.1864929434
 20
350.6131603334
 10
313.9650206662
 20
349.0180297739
 10
313.9755450715
 20
348.9937563461
  0
LINE
  5
1E6
330
1F
100
AcDbEntity
  8
0
  6
Continuous
 62
     8
370
    25
100
AcDbLine
 10
315.6000318509
 20
342.0272863797
 30
0.0
 11
315.6248196213
 21
341.0306386906
 31
0.0
  0
LINE
  5
1E7
330
1F
100
AcDbEntity
  8
0
  6
Continuous
 62
     8
370
    25
100
AcDbLine
 10
315.6248196213
 20
341.030638687
 30
0.0
 11
315.5999388505
 21
340.0321242583
 31
0.0
  0
LWPOLYLINE
  5
1E8
330
1F
100
AcDbEntity
  8
0
  6
Continuous
 62
     8
370
    25
100
AcDbPolyline
 90
        3
 70
   128
 43
0.0
 10
314.0480685179
 20
333.2372302111
 10
313.9650206666
 20
333.043247601
 10
313.1889086556
 20
331.4525578521
  0
LINE
  5
1E9
330
1F
100
AcDbEntity
  8
0
  6
Continuous
 62
     8
370
    25
100
AcDbLine
 10
308.832574054
 20
325.9901710203
 30
0.0
 11
307.430285433
 21
324.8619104299
 31
0.0
  0
LWPOLYLINE
  5
1EA
330
1F
100
AcDbEntity
  8
0
  6
Continuous
 62
     8
370
    25
100
AcDbPolyline
 90
        3
 70
   128
 43
0.0
 10
301.0038220333
 20
321.7306903076
 10
299.6552138554
 20
321.4013562552
 10
299.058758671
 20
321.2868076134
  0
LWPOLYLINE
  5
1EB
330
1F
100
AcDbEntity
  8
0
  6
Continuous
 62
     8
370
    25
100
AcDbPolyline
 90
        3
 70
   128
 43
0.0
 10
292.0912150015
 20
321.2872364684
 10
291.4971902632
 20
321.4013562569
 10
290.1541889293
 20
321.7291144062
  0
LINE
  5
1EC
330
1F
100
AcDbEntity
  8
0
  6
Continuous
 62
     8
370
    25
100
AcDbLine
 10
283.7157470259
 20
324.8665837411
 30
0.0
 11
282.4643368786
 21
325.8640287373
 31
0.0
  0
LWPOLYLINE
  5
1ED
330
1F
100
AcDbEntity
  8
0
  6
Continuous
 62
     8
370
    25
100
AcDbPolyline
 90
        3
 70
   128
 43
0.0
 10
277.9659111831
 20
331.4481170406
 10
277.1873834567
 20
333.0432476085
 10
277.176859055
 20
333.067521028
  0
LINE
  5
1EE
330
1F
100
AcDbEntity
  8
0
  6
Continuous
 62
     8
370
    25
100
AcDbLine
 10
275.5523722757
 20
340.0339909942
 30
0.0
 11
275.5275845053
 21
341.0306386952
 31
0.0
  0
LINE
  5
1EF
330
1F
100
AcDbEntity
  8
0
  6
Continuous
 62
     8
370
    25
100
AcDbLine
 10
316.2335368038
 20
341.030638687
 30
0.0
 11
316.2079599364
 21
342.0582795032
 31
0.0
  0
LINE
  5
1F0
330
1F
100
AcDbEntity
  8
0
  6
Continuous
 62
     8
370
    25
100
AcDbLine
 10
314.6088095127
 20
349.0609146633
 30
0.0
 11
313.7236454658
 21
350.8995685445
 31
0.0
  0
LWPOLYLINE
  5
1F1
330
1F
100
AcDbEntity
  8
0
  6
Continuous
 62
     8
370
    25
100
AcDbPolyline
 90
        3
 70
   128
 43
0.0
 10
309.2347319753
 20
356.5280590925
 10
308.1515906794
 20
357.4192042049
 10
307.6442227505
 20
357.796328511
  0
LWPOLYLINE
  5
1F2
330
1F
100
AcDbEntity
  8
0
  6
Continuous
 62
     8
370
    25
100
AcDbPolyline
 90
        3
 70
   128
 43
0.0
 10
301.1645302805
 20
360.9177215882
 10
300.9227137152
 20
360.9840918151
 10
299.1670715278
 20
361.3734785839
  0
LWPOLYLINE
  5
1F3
330
1F
100
AcDbEntity
  8
0
  6
Continuous
 62
     8
370
    25
100
AcDbPolyline
 90
        3
 70
   128
 43
0.0
 10
291.9864577597
 20
361.3736771625
 10
290.2296904114
 20
360.9840918151
 10
289.9853478511
 20
360.9170116031
  0
LWPOLYLINE
  5
1F4
330
1F
100
AcDbEntity
  8
0
  6
Continuous
 62
     8
370
    25
100
AcDbPolyline
 90
        3
 70
   128
 43
0.0
 10
283.5094537461
 20
357.7972442955
 10
283.0008134472
 20
357.4192042049
 10
281.9178303771
 20
356.5281985421
  0
LINE
  5
1F5
330
1F
100
AcDbEntity
  8
0
  6
Continuous
 62
     8
370
    25
100
AcDbLine
 10
277.428123269
 20
350.8984000672
 30
0.0
 11
276.5442924053
 21
349.0625683027
 31
0.0
  0
LINE
  5
1F6
330
1F
100
AcDbEntity
  8
0
  6
Continuous
 62
     8
370
    25
100
AcDbLine
 10
274.9444075599
 20
342.0575438189
 30
0.0
 11
274.9188673228
 21
341.030638687
 31
0.0
  0
LINE
  5
1F7
330
1F
100
AcDbEntity
  8
0
  6
Continuous
 62
     8
370
    25
100
AcDbLine
 10
274.9188673228
 20
341.030638687
 30
0.0
 11
274.9444441902
 21
340.0029978708
 31
0.0
  0
LINE
  5
1F8
330
1F
100
AcDbEntity
  8
0
  6
Continuous
 62
     8
370
    25
100
AcDbLine
 10
276.5435946138
 20
333.0003627106
 30
0.0
 11
277.4287586608
 21
331.1617088295
 31
0.0
  0
LWPOLYLINE
  5
1F9
330
1F
100
AcDbEntity
  8
0
  6
Continuous
 62
     8
370
    25
100
AcDbPolyline
 90
        3
 70
   128
 43
0.0
 10
281.9176721513
 20
325.5332182815
 10
283.0008134472
 20
324.6420731691
 10
283.5081813761
 20
324.264948863
  0
LWPOLYLINE
  5
1FA
330
1F
100
AcDbEntity
  8
0
  6
Continuous
 62
     8
370
    25
100
AcDbPolyline
 90
        3
 70
   128
 43
0.0
 10
289.9878738461
 20
321.1435557858
 10
290.2296904114
 20
321.0771855588
 10
291.9853325988
 20
320.6877987901
  0
LWPOLYLINE
  5
1FB
330
1F
100
AcDbEntity
  8
0
  6
Continuous
 62
     8
370
    25
100
AcDbPolyline
 90
        3
 70
   128
 43
0.0
 10
299.1659463669
 20
320.6876002115
 10
300.9227137152
 20
321.0771855588
 10
301.1670562755
 20
321.1442657709
  0
LWPOLYLINE
  5
1FC
330
1F
100
AcDbEntity
  8
0
  6
Continuous
 62
     8
370
    25
100
AcDbPolyline
 90
        3
 70
   128
 43
0.0
 10
307.6429503805
 20
324.2640330785
 10
308.1515906794
 20
324.6420731691
 10
309.2345737495
 20
325.5330788319
  0
LINE
  5
1FD
330
1F
100
AcDbEntity
  8
0
  6
Continuous
 62
     8
370
    25
100
AcDbLine
 10
313.7242808576
 20
331.1628773068
 30
0.0
 11
314.6081117213
 21
332.9987090713
 31
0.0
  0
LINE
  5
1FE
330
1F
100
AcDbEntity
  8
0
  6
Continuous
 62
     8
370
    25
100
AcDbLine
 10
316.2079965667
 20
340.0037335551
 30
0.0
 11
316.2335368038
 21
341.030638687
 31
0.0
  0
LINE
  5
1FF
330
1F
100
AcDbEntity
  8
0
  6
Continuous
 62
     8
370
    25
100
AcDbLine
 10
317.6213129033
 20
341.0306386909
 30
0.0
 11
317.5941484634
 21
342.1246899969
 31
0.0
  0
LINE
  5
200
330
1F
100
AcDbEntity
  8
0
  6
Continuous
 62
     8
370
    25
100
AcDbLine
 10
315.8871427749
 20
349.6010878793
 30
0.0
 11
314.9424071024
 21
351.5633028481
 31
0.0
  0
LWPOLYLINE
  5
201
330
1F
100
AcDbEntity
  8
0
  6
Continuous
 62
     8
370
    25
100
AcDbPolyline
 90
        3
 70
   128
 43
0.0
 10
310.1525429934
 20
357.5689940175
 10
308.9964152408
 20
358.5202010091
 10
308.4579042445
 20
358.9205425678
  0
LWPOLYLINE
  5
202
330
1F
100
AcDbEntity
  8
0
  6
Continuous
 62
     8
370
    25
100
AcDbPolyline
 90
        3
 70
   128
 43
0.0
 10
301.5318014616
 20
362.2560420461
 10
301.2818966015
 20
362.3245805904
 10
299.4155385079
 20
362.7388492907
  0
LWPOLYLINE
  5
203
330
1F
100
AcDbEntity
  8
0
  6
Continuous
 62
     8
370
    25
100
AcDbPolyline
 90
        3
 70
   128
 43
0.0
 10
291.7412128984
 20
362.7396177061
 10
289.87050753
 20
362.3245805917
 10
289.6109846107
 20
362.2533409817
  0
LWPOLYLINE
  5
204
330
1F
100
AcDbEntity
  8
0
  6
Continuous
 62
     8
370
    25
100
AcDbPolyline
 90
        3
 70
   128
 43
0.0
 10
282.7031045535
 20
358.9267352572
 10
282.1559888898
 20
358.5202010122
 10
280.9940902207
 20
357.563905943
  0
LINE
  5
205
330
1F
100
AcDbEntity
  8
0
  6
Continuous
 62
     8
370
    25
100
AcDbLine
 10
276.2104994519
 20
351.5642265996
 30
0.0
 11
275.268141032
 21
349.6079091793
 31
0.0
  0
LINE
  5
206
330
1F
100
AcDbEntity
  8
0
  6
Continuous
 62
     8
370
    25
100
AcDbLine
 10
273.5579801017
 20
342.1191301187
 30
0.0
 11
273.5310912233
 21
341.030638696
 31
0.0
  0
LINE
  5
207
330
1F
100
AcDbEntity
  8
0
  6
Continuous
 62
     8
370
    25
100
AcDbLine
 10
273.5310912233
 20
341.030638696
 30
0.0
 11
273.5582556632
 21
339.9365873771
 31
0.0
  0
LINE
  5
208
330
1F
100
AcDbEntity
  8
0
  6
Continuous
 62
     8
370
    25
100
AcDbLine
 10
275.2652613517
 20
332.4601894948
 30
0.0
 11
276.2099970242
 21
330.4979745258
 31
0.0
  0
LWPOLYLINE
  5
209
330
1F
100
AcDbEntity
  8
0
  6
Continuous
 62
     8
370
    25
100
AcDbPolyline
 90
        3
 70
   128
 43
0.0
 10
280.9998611332
 20
324.4922833565
 10
282.1559888806
 20
323.5410763689
 10
282.6944998821
 20
323.1407348062
  0
LWPOLYLINE
  5
20A
330
1F
100
AcDbEntity
  8
0
  6
Continuous
 62
     8
370
    25
100
AcDbPolyline
 90
        3
 70
   128
 43
0.0
 10
289.6206026651
 20
319.8052353279
 10
289.8705075214
 20
319.7366967846
 10
291.7368656186
 20
319.3224280833
  0
LWPOLYLINE
  5
20B
330
1F
100
AcDbEntity
  8
0
  6
Continuous
 62
     8
370
    25
100
AcDbPolyline
 90
        3
 70
   128
 43
0.0
 10
299.4111912283
 20
319.3216596679
 10
301.2818965964
 20
319.7366967823
 10
301.5414195159
 20
319.8079363922
  0
LWPOLYLINE
  5
20C
330
1F
100
AcDbEntity
  8
0
  6
Continuous
 62
     8
370
    25
100
AcDbPolyline
 90
        3
 70
   128
 43
0.0
 10
308.4492995731
 20
323.1345421167
 10
308.9964152388
 20
323.5410763634
 10
310.1583139059
 20
324.497371431
  0
LINE
  5
20D
330
1F
100
AcDbEntity
  8
0
  6
Continuous
 62
     8
370
    25
100
AcDbLine
 10
314.9419046747
 20
330.4970507743
 30
0.0
 11
315.8842630946
 21
332.4533681947
 31
0.0
  0
LINE
  5
20E
330
1F
100
AcDbEntity
  8
0
  6
Continuous
 62
     8
370
    25
100
AcDbLine
 10
317.5944240249
 20
339.9421472553
 30
0.0
 11
317.6213129033
 21
341.030638687
 31
0.0
  0
LINE
  5
20F
330
1F
100
AcDbEntity
  8
0
  6
Continuous
 62
     8
370
    25
100
AcDbLine
 10
268.9067427924
 20
341.030638687
 30
0.0
 11
268.9392019953
 21
342.3460417353
 31
0.0
  0
LWPOLYLINE
  5
210
330
1F
100
AcDbEntity
  8
0
  6
Continuous
 62
     8
370
    25
100
AcDbPolyline
 90
        3
 70
   128
 43
0.0
 10
271.0064262263
 20
351.4030141682
 10
271.7435027591
 20
352.9998701441
 10
272.1477466793
 20
353.7729907508
  0
LWPOLYLINE
  5
211
330
1F
100
AcDbEntity
  8
0
  6
Continuous
 62
     8
370
    25
100
AcDbPolyline
 90
        3
 70
   128
 43
0.0
 10
277.9403388917
 20
361.0365475139
 10
279.6503053236
 20
362.4228305064
 10
279.9961487067
 20
362.676007596
  0
LINE
  5
212
330
1F
100
AcDbEntity
  8
0
  6
Continuous
 62
     8
370
    25
100
AcDbLine
 10
288.3677312846
 20
366.707437686
 30
0.0
 11
290.9296710002
 21
367.2922038894
 31
0.0
  0
LINE
  5
213
330
1F
100
AcDbEntity
  8
0
  6
Continuous
 62
     8
370
    25
100
AcDbLine
 10
300.2231909512
 20
367.2921228811
 30
0.0
 11
302.7828863459
 21
366.7079391575
 31
0.0
  0
LWPOLYLINE
  5
214
330
1F
100
AcDbEntity
  8
0
  6
Continuous
 62
     8
370
    25
100
AcDbPolyline
 90
        3
 70
   128
 43
0.0
 10
311.1582373008
 20
362.6745809263
 10
311.502098803
 20
362.4228305064
 10
313.2086734141
 20
361.0395370041
  0
LWPOLYLINE
  5
215
330
1F
100
AcDbEntity
  8
0
  6
Continuous
 62
     8
370
    25
100
AcDbPolyline
 90
        3
 70
   128
 43
0.0
 10
319.0066051492
 20
353.7694089978
 10
319.4089013675
 20
352.9998701441
 10
320.1432655036
 20
351.40943687
  0
LINE
  5
216
330
1F
100
AcDbEntity
  8
0
  6
Continuous
 62
     8
370
    25
100
AcDbLine
 10
322.2133827059
 20
342.3423799781
 30
0.0
 11
322.2456613342
 21
341.030638687
 31
0.0
  0
LINE
  5
217
330
1F
100
AcDbEntity
  8
0
  6
Continuous
 62
     8
370
    25
100
AcDbLine
 10
322.2456613342
 20
341.030638687
 30
0.0
 11
322.2132021313
 21
339.7152356387
 31
0.0
  0
LWPOLYLINE
  5
218
330
1F
100
AcDbEntity
  8
0
  6
Continuous
 62
     8
370
    25
100
AcDbPolyline
 90
        3
 70
   128
 43
0.0
 10
320.1459779003
 20
330.6582632058
 10
319.4089013675
 20
329.0614072298
 10
319.0046574473
 20
328.2882866231
  0
LWPOLYLINE
  5
219
330
1F
100
AcDbEntity
  8
0
  6
Continuous
 62
     8
370
    25
100
AcDbPolyline
 90
        3
 70
   128
 43
0.0
 10
313.2120652349
 20
321.02472986
 10
311.502098803
 20
319.6384468676
 10
311.1562554199
 20
319.385269778
  0
LINE
  5
21A
330
1F
100
AcDbEntity
  8
0
  6
Continuous
 62
     8
370
    25
100
AcDbLine
 10
302.784672842
 20
315.353839688
 30
0.0
 11
300.2227331264
 21
314.7690734846
 31
0.0
  0
LINE
  5
21B
330
1F
100
AcDbEntity
  8
0
  6
Continuous
 62
     8
370
    25
100
AcDbLine
 10
290.9292131754
 20
314.7691544929
 30
0.0
 11
288.3695177807
 21
315.3533382165
 31
0.0
  0
LWPOLYLINE
  5
21C
330
1F
100
AcDbEntity
  8
0
  6
Continuous
 62
     8
370
    25
100
AcDbPolyline
 90
        3
 70
   128
 43
0.0
 10
279.9941668258
 20
319.3866964477
 10
279.6503053236
 20
319.6384468676
 10
277.9437307125
 20
321.0217403699
  0
LWPOLYLINE
  5
21D
330
1F
100
AcDbEntity
  8
0
  6
Continuous
 62
     8
370
    25
100
AcDbPolyline
 90
        3
 70
   128
 43
0.0
 10
272.1457989774
 20
328.2918683761
 10
271.7435027591
 20
329.0614072298
 10
271.009138623
 20
330.651840504
  0
LINE
  5
21E
330
1F
100
AcDbEntity
  8
0
  6
Continuous
 62
     8
370
    25
100
AcDbLine
 10
268.9390214207
 20
339.7188973959
 30
0.0
 11
268.9067427924
 21
341.030638687
 31
0.0
  0
LWPOLYLINE
  5
21F
330
1F
100
AcDbEntity
  8
0
  6
Continuous
 62
     8
370
    25
100
AcDbPolyline
 90
        3
 70
   128
 43
0.0
 10
300.9255159221
 20
310.8195954491
 10
302.171704994
 20
311.066966793
 10
303.864483534
 20
311.4903833979
  0
LWPOLYLINE
  5
220
330
1F
100
AcDbEntity
  8
0
  6
Continuous
 62
     8
370
    25
100
AcDbPolyline
 90
        3
 70
   128
 43
0.0
 10
313.5052251026
 20
316.1334013877
 10
314.1435376746
 20
316.6057263928
 10
315.859538231
 20
318.0108957217
  0
LWPOLYLINE
  5
221
330
1F
100
AcDbEntity
  8
0
  6
Continuous
 62
     8
370
    25
100
AcDbPolyline
 90
        3
 70
   128
 43
0.0
 10
322.5341532113
 20
326.3817082762
 10
322.6832139518
 20
326.6594105294
 10
323.8378484449
 20
329.0890459926
  0
LINE
  5
222
330
1F
100
AcDbEntity
  8
0
  6
Continuous
 62
     8
370
    25
100
AcDbLine
 10
326.2205560092
 20
339.5320181482
 30
0.0
 11
326.2204484891
 21
342.531456222
 31
0.0
  0
LWPOLYLINE
  5
223
330
1F
100
AcDbEntity
  8
0
  6
Continuous
 62
     8
370
    25
100
AcDbPolyline
 90
        3
 70
   128
 43
0.0
 10
323.8357546303
 20
352.9771855099
 10
322.6832139518
 20
355.4018668446
 10
322.535484821
 20
355.6771183143
  0
LWPOLYLINE
  5
224
330
1F
100
AcDbEntity
  8
0
  6
Continuous
 62
     8
370
    25
100
AcDbPolyline
 90
        3
 70
   128
 43
0.0
 10
315.8544666376
 20
364.0548493822
 10
314.1435376746
 20
365.4555509811
 10
313.5115657608
 20
365.9233087189
  0
LWPOLYLINE
  5
225
330
1F
100
AcDbEntity
  8
0
  6
Continuous
 62
     8
370
    25
100
AcDbPolyline
 90
        3
 70
   128
 43
0.0
 10
303.8583734788
 20
370.5726076282
 10
302.171704994
 20
370.994310581
 10
300.9341682949
 20
371.2401486158
  0
LWPOLYLINE
  5
226
330
1F
100
AcDbEntity
  8
0
  6
Continuous
 62
     8
370
    25
100
AcDbPolyline
 90
        3
 70
   128
 43
0.0
 10
290.2228137948
 20
371.2409602067
 10
288.9806991326
 20
370.994310581
 10
287.293266532
 20
370.5723933956
  0
LWPOLYLINE
  5
227
330
1F
100
AcDbEntity
  8
0
  6
Continuous
 62
     8
370
    25
100
AcDbPolyline
 90
        3
 70
   128
 43
0.0
 10
277.6470761814
 20
365.9278019268
 10
277.008866452
 20
365.4555509811
 10
275.292777126
 20
364.0503034346
  0
LWPOLYLINE
  5
228
330
1F
100
AcDbEntity
  8
0
  6
Continuous
 62
     8
370
    25
100
AcDbPolyline
 90
        3
 70
   128
 43
0.0
 10
268.6208979555
 20
355.6844393112
 10
268.4691901748
 20
355.4018668446
 10
267.3129474886
 20
352.968424626
  0
LINE
  5
229
330
1F
100
AcDbEntity
  8
0
  6
Continuous
 62
     8
370
    25
100
AcDbLine
 10
264.9322784912
 20
342.5380339199
 30
0.0
 11
264.9322666002
 21
339.5234852072
 31
0.0
  0
LWPOLYLINE
  5
22A
330
1F
100
AcDbEntity
  8
0
  6
Continuous
 62
     8
370
    25
100
AcDbPolyline
 90
        3
 70
   128
 43
0.0
 10
267.3136056217
 20
329.0912947075
 10
268.4691901748
 20
326.6594105294
 10
268.620146879
 20
326.3782197338
  0
LWPOLYLINE
  5
22B
330
1F
100
AcDbEntity
  8
0
  6
Continuous
 62
     8
370
    25
100
AcDbPolyline
 90
        3
 70
   128
 43
0.0
 10
275.2958368824
 20
318.0082782431
 10
277.008866452
 20
316.6057263928
 10
277.6452055289
 20
316.1348226617
  0
LWPOLYLINE
  5
22C
330
1F
100
AcDbEntity
  8
0
  6
Continuous
 62
     8
370
    25
100
AcDbPolyline
 90
        3
 70
   128
 43
0.0
 10
287.2961419051
 20
311.4880779304
 10
288.9806991326
 20
311.066966793
 10
290.220408547
 20
310.8207434854
  0
LINE
  5
22D
330
1F
100
AcDbEntity
  8
0
  6
Continuous
 62
     8
370
    25
100
AcDbLine
 10
371.2693312783
 20
437.4782648344
 30
0.0
 11
369.5124130098
 21
437.4782648344
 31
0.0
  0
LINE
  5
22E
330
1F
100
AcDbEntity
  8
0
  6
Continuous
 62
     8
370
    25
100
AcDbLine
 10
331.6399911179
 20
437.4782648344
 30
0.0
 11
329.8830728483
 21
437.4782648344
 31
0.0
  0
LINE
  5
22F
330
1F
100
AcDbEntity
  8
0
  6
Continuous
 62
     8
370
    25
100
AcDbLine
 10
371.2693313007
 20
438.7165934034
 30
0.0
 11
371.2693313007
 21
438.7146747521
 31
0.0
  0
LINE
  5
230
330
1F
100
AcDbEntity
  8
0
  6
Continuous
 62
     8
370
    25
100
AcDbLine
 10
329.8830728263
 20
438.7146747524
 30
0.0
 11
329.8830728263
 21
438.7165934037
 31
0.0
  0
LWPOLYLINE
  5
231
330
1F
100
AcDbEntity
  8
0
  6
Continuous
 62
     8
370
    25
100
AcDbPolyline
 90
        3
 70
   128
 43
0.0
 10
373.5954137467
 20
438.666279706
 10
373.4172468585
 20
438.6797843719
 10
373.3954988659
 20
438.6846216931
  0
LWPOLYLINE
  5
232
330
1F
100
AcDbEntity
  8
0
  6
Continuous
 62
     8
370
    25
100
AcDbPolyline
 90
        3
 70
   128
 43
0.0
 10
327.7572645081
 20
438.6847076026
 10
327.7351572719
 20
438.6797843727
 10
327.5569903803
 20
438.666279706
  0
LWPOLYLINE
  5
233
330
1F
100
AcDbEntity
  8
0
  6
Continuous
 62
     8
370
    25
100
AcDbPolyline
 90
        3
 70
   128
 43
0.0
 10
374.114508734
 20
438.6161359065
 10
374.2986414966
 20
438.5685120731
 10
374.556773804
 20
438.5445419567
  0
LWPOLYLINE
  5
234
330
1F
100
AcDbEntity
  8
0
  6
Continuous
 62
     8
370
    25
100
AcDbPolyline
 90
        3
 70
   128
 43
0.0
 10
326.5956303224
 20
438.5445419567
 10
326.8537626298
 20
438.5685120731
 10
326.9737677892
 20
438.59650475
  0
ARC
  5
235
330
1F
100
AcDbEntity
  8
0
  6
Continuous
 62
     8
370
    25
100
AcDbCircle
 10
374.5560463531
 20
439.0498717042
 30
0.0
 40
1.399555612362265
100
AcDbArc
 50
195.4775957875
 51
270.0297807958
  0
ARC
  5
236
330
1F
100
AcDbEntity
  8
0
  6
Continuous
 62
     8
370
    25
100
AcDbCircle
 10
326.5961579215
 20
439.0501389915
 30
0.0
 40
1.399822810065464
100
AcDbArc
 50
269.9784049813
 51
344.2891101966
  0
ARC
  5
237
330
1F
100
AcDbEntity
  8
0
  6
Continuous
 62
     8
370
    25
100
AcDbCircle
 10
327.2850682305
 20
438.7425318378
 30
0.0
 40
1.244035483458616
100
AcDbArc
 50
282.6256844725
 51
358.5137431045
  0
ARC
  5
238
330
1F
100
AcDbEntity
  8
0
  6
Continuous
 62
     8
370
    25
100
AcDbCircle
 10
373.8670220248
 20
438.7419863298
 30
0.0
 40
1.243434574443477
100
AcDbArc
 50
181.5752389814
 51
257.3829342418
  0
LINE
  5
239
330
1F
100
AcDbEntity
  8
0
  6
Continuous
 62
     8
370
    25
100
AcDbLine
 10
329.8830728263
 20
437.4782648338
 30
0.0
 11
329.8830728263
 21
438.7146747524
 31
0.0
  0
LINE
  5
23A
330
1F
100
AcDbEntity
  8
0
  6
Continuous
 62
     8
370
    25
100
AcDbLine
 10
371.2693313003
 20
438.7146747524
 30
0.0
 11
371.2693313003
 21
437.4782648338
 31
0.0
  0
LINE
  5
23B
330
1F
100
AcDbEntity
  8
0
  6
Continuous
 62
     8
370
    25
100
AcDbLine
 10
368.6762020633
 20
438.7146747524
 30
0.0
 11
368.6762020633
 21
437.8840694973
 31
0.0
  0
LINE
  5
23C
330
1F
100
AcDbEntity
  8
0
  6
Continuous
 62
     8
370
    25
100
AcDbLine
 10
332.4762020633
 20
437.8840694973
 30
0.0
 11
332.4762020633
 21
438.7146747524
 31
0.0
  0
ARC
  5
23D
330
1F
100
AcDbEntity
  8
0
  6
Continuous
 62
     8
370
    25
100
AcDbCircle
 10
369.1768192526
 20
438.8573842092
 30
0.0
 40
0.9994828805505166
100
AcDbArc
 50
269.9646193576
 51
351.7910644191
  0
ARC
  5
23E
330
1F
100
AcDbEntity
  8
0
  6
Continuous
 62
     8
370
    25
100
AcDbCircle
 10
331.975584874
 20
438.8573842092
 30
0.0
 40
0.9994828805516986
100
AcDbArc
 50
188.208935581
 51
270.0353806482
  0
ARC
  5
23F
330
1F
100
AcDbEntity
  8
0
  6
Continuous
 62
     8
370
    25
100
AcDbCircle
 10
331.9757102274
 20
438.2296586116
 30
0.0
 40
0.999788688238562
100
AcDbArc
 50
202.5330834255
 51
270.0281860864
  0
ARC
  5
240
330
1F
100
AcDbEntity
  8
0
  6
Continuous
 62
     8
370
    25
100
AcDbCircle
 10
369.1765582287
 20
438.2298621659
 30
0.0
 40
0.9999921850592911
100
AcDbArc
 50
269.9795930667
 51
337.436386474
  0
LINE
  5
241
330
1F
100
AcDbEntity
  8
0
  6
Continuous
 62
     8
370
    25
100
AcDbLine
 10
332.4762020633
 20
437.2023316009
 30
0.0
 11
332.4762020633
 21
437.2037020662
 31
0.0
  0
LINE
  5
242
330
1F
100
AcDbEntity
  8
0
  6
Continuous
 62
     8
370
    25
100
AcDbLine
 10
368.6762020633
 20
437.2037020662
 30
0.0
 11
368.6762020633
 21
437.2023316009
 31
0.0
  0
ENDSEC
  0
SECTION
  2
OBJECTS
  0
DICTIONARY
  5
C
330
0
100
AcDbDictionary
281
     1
  3
ACAD_DETAILVIEWSTYLE
350
24A
  3
ACAD_GROUP
350
D
  3
ACAD_LAYOUT
350
1A
  3
ACAD_MATERIAL
350
43
  3
ACAD_MLEADERSTYLE
350
6B
  3
ACAD_MLINESTYLE
350
17
  3
ACAD_PLOTSETTINGS
350
19
  3
ACAD_PLOTSTYLENAME
350
E
  3
ACAD_SCALELIST
350
47
  3
ACAD_SECTIONVIEWSTYLE
350
24B
  3
ACAD_TABLESTYLE
350
69
  3
ACAD_VISUALSTYLE
350
2A
  3
ACDB_RECOMPOSE_DATA
350
247
  3
AcDbVariableDictionary
350
243
  0
SUN
  5
6D
330
29
100
AcDbSun
 90
        1
290
     0
 63
     7
421
 16777215
 40
1.0
291
     1
 91
  2455826
 92
 54000000
292
     0
 70
     2
 71
   256
280
     1
  0
DICTIONARY
  5
24A
102
{ACAD_REACTORS
330
C
102
}
330
C
100
AcDbDictionary
281
     1
  0
DICTIONARY
  5
D
102
{ACAD_REACTORS
330
C
102
}
330
C
100
AcDbDictionary
281
     1
  0
DICTIONARY
  5
1A
102
{ACAD_REACTORS
330
C
102
}
330
C
100
AcDbDictionary
281
     1
  3
Layout1
350
1E
  3
Layout2
350
26
  3
Model
350
22
  0
DICTIONARY
  5
43
102
{ACAD_REACTORS
330
C
102
}
330
C
100
AcDbDictionary
281
     1
  3
ByBlock
350
45
  3
ByLayer
350
44
  3
Global
350
46
  0
DICTIONARY
  5
6B
102
{ACAD_REACTORS
330
C
102
}
330
C
100
AcDbDictionary
281
     1
  3
Standard
350
6C
  0
DICTIONARY
  5
17
102
{ACAD_REACTORS
330
C
102
}
330
C
100
AcDbDictionary
281
     1
  3
Standard
350
18
  0
DICTIONARY
  5
19
102
{ACAD_REACTORS
330
C
102
}
330
C
100
AcDbDictionary
281
     1
  0
ACDBDICTIONARYWDFLT
  5
E
102
{ACAD_REACTORS
330
C
102
}
330
C
100
AcDbDictionary
281
     1
  3
Normal
350
F
100
AcDbDictionaryWithDefault
340
F
  0
DICTIONARY
  5
47
102
{ACAD_REACTORS
330
C
102
}
330
C
100
AcDbDictionary
281
     1
  3
A0
350
48
  3
A1
350
49
  3
A2
350
4A
  3
A3
350
4B
  3
A4
350
4C
  3
A5
350
4D
  3
A6
350
4E
  3
A7
350
4F
  3
A8
350
50
  3
A9
350
51
  3
B0
350
52
  3
B1
350
53
  3
B2
350
54
  3
B3
350
55
  3
B4
350
56
  3
B5
350
57
  3
B6
350
58
  3
B7
350
59
  3
B8
350
5A
  3
B9
350
5B
  3
C0
350
5C
  3
C1
350
5D
  3
C2
350
5E
  3
C3
350
5F
  3
C4
350
60
  3
C5
350
61
  3
C6
350
62
  3
C7
350
63
  3
C8
350
64
  3
C9
350
65
  3
D0
350
66
  3
D1
350
67
  3
D2
350
68
  0
DICTIONARY
  5
24B
102
{ACAD_REACTORS
330
C
102
}
330
C
100
AcDbDictionary
281
     1
  0
DICTIONARY
  5
69
102
{ACAD_REACTORS
330
C
102
}
330
C
100
AcDbDictionary
281
     1
  3
Standard
350
6A
  0
DICTIONARY
  5
2A
102
{ACAD_REACTORS
330
C
102
}
330
C
100
AcDbDictionary
281
     1
  3
2dWireframe
350
2F
  3
Basic
350
32
  3
Brighten
350
36
  3
ColorChange
350
3A
  3
Conceptual
350
34
  3
Dim
350
35
  3
EdgeColorOff
350
3D
  3
Facepattern
350
39
  3
Flat
350
2B
  3
FlatWithEdges
350
2C
  3
Gouraud
350
2D
  3
GouraudWithEdges
350
2E
  3
Hidden
350
31
  3
JitterOff
350
3B
  3
Linepattern
350
38
  3
OverhangOff
350
3C
  3
Realistic
350
33
  3
Shaded
350
42
  3
Shaded with edges
350
41
  3
Shades of Gray
350
3E
  3
Sketchy
350
3F
  3
Thicken
350
37
  3
Wireframe
350
30
  3
X-Ray
350
40
  0
XRECORD
  5
247
102
{ACAD_REACTORS
330
C
102
}
330
C
100
AcDbXrecord
280
     1
 90
        1
330
6A
  0
DICTIONARY
  5
243
102
{ACAD_REACTORS
330
C
102
}
330
C
100
AcDbDictionary
281
     1
  3
CANNOSCALE
350
244
  3
CENTEREXE
350
24C
  3
CENTERLTYPEFILE
350
24D
  3
CMLEADERSTYLE
350
249
  3
CTABLESTYLE
350
248
  0
LAYOUT
  5
1E
102
{ACAD_REACTORS
330
1A
102
}
330
1A
100
AcDbPlotSettings
  1

  2
none_device
  4

  6

 40
0.0
 41
0.0
 42
0.0
 43
0.0
 44
0.0
 45
0.0
 46
0.0
 47
0.0
 48
0.0
 49
0.0
140
0.0
141
0.0
142
1.0
143
1.0
 70
   688
 72
     1
 73
     0
 74
     5
  7

 75
    16
 76
     0
 77
     2
 78
   300
147
1.0
148
0.0
149
0.0
100
AcDbLayout
  1
Layout1
 70
     1
 71
     1
 10
0.0
 20
0.0
 11
420.0
 21
297.0
 12
0.0
 22
0.0
 32
0.0
 14
1.0000000000E+20
 24
1.0000000000E+20
 34
1.0000000000E+20
 15
-1.0000000000E+20
 25
-1.0000000000E+20
 35
-1.0000000000E+20
146
0.0
 13
0.0
 23
0.0
 33
0.0
 16
1.0
 26
0.0
 36
0.0
 17
0.0
 27
1.0
 37
0.0
 76
     0
330
1B
  0
LAYOUT
  5
26
102
{ACAD_REACTORS
330
1A
102
}
330
1A
100
AcDbPlotSettings
  1

  2
none_device
  4

  6

 40
0.0
 41
0.0
 42
0.0
 43
0.0
 44
0.0
 45
0.0
 46
0.0
 47
0.0
 48
0.0
 49
0.0
140
0.0
141
0.0
142
1.0
143
1.0
 70
   688
 72
     1
 73
     0
 74
     5
  7

 75
    16
 76
     0
 77
     2
 78
   300
147
1.0
148
0.0
149
0.0
100
AcDbLayout
  1
Layout2
 70
     1
 71
     2
 10
0.0
 20
0.0
 11
0.0
 21
0.0
 12
0.0
 22
0.0
 32
0.0
 14
0.0
 24
0.0
 34
0.0
 15
0.0
 25
0.0
 35
0.0
146
0.0
 13
0.0
 23
0.0
 33
0.0
 16
1.0
 26
0.0
 36
0.0
 17
0.0
 27
1.0
 37
0.0
 76
     0
330
23
  0
LAYOUT
  5
22
102
{ACAD_REACTORS
330
1A
102
}
330
1A
100
AcDbPlotSettings
  1

  2
none_device
  4
Letter_(8.50_x_11.00_Inches)
  6

 40
6.35
 41
6.35
 42
6.35000508
 43
6.35000508
 44
215.9
 45
279.4
 46
0.0
 47
0.0
 48
0.0
 49
0.0
140
0.0
141
0.0
142
1.0
143
1.0
 70
  1712
 72
     1
 73
     0
 74
     0
  7

 75
     0
 76
     0
 77
     2
 78
   300
147
1.0
148
0.0
149
0.0
100
AcDbLayout
  1
Model
 70
     1
 71
     0
 10
0.0
 20
0.0
 11
600.0
 21
600.0
 12
0.0
 22
0.0
 32
0.0
 14
0.0
 24
0.0
 34
0.0
 15
600.0
 25
600.0
 35
0.0
146
0.0
 13
0.0
 23
0.0
 33
0.0
 16
1.0
 26
0.0
 36
0.0
 17
0.0
 27
1.0
 37
0.0
 76
     0
330
1F
331
29
  0
MATERIAL
  5
45
102
{ACAD_REACTORS
330
43
102
}
330
43
100
AcDbMaterial
  1
ByBlock
 72
     1
 94
      127
  0
MATERIAL
  5
44
102
{ACAD_REACTORS
330
43
102
}
330
43
100
AcDbMaterial
  1
ByLayer
 72
     1
 94
      127
  0
MATERIAL
  5
46
102
{ACAD_REACTORS
330
43
102
}
330
43
100
AcDbMaterial
  1
Global
 72
     1
 94
      127
  0
MLEADERSTYLE
  5
6C
102
{ACAD_REACTORS
330
6B
102
}
330
6B
100
AcDbMLeaderStyle
179
     2
170
     2
171
     1
172
     0
 90
        2
 40
0.0
 41
0.0
173
     1
 91
-1056964608
340
14
 92
       -2
290
     1
 42
2.0
291
     1
 43
8.0
  3
Standard
341
0
 44
4.0
300

342
11
174
     1
178
     6
175
     1
176
     0
 93
-1056964608
 45
4.0
292
     0
297
     0
 46
4.0
343
0
 94
-1056964608
 47
1.0
 49
1.0
140
1.0
293
     1
141
0.0
294
     1
177
     0
142
1.0
295
     0
296
     0
143
3.75
271
     0
272
     9
273
     9
  0
MLINESTYLE
  5
18
102
{ACAD_REACTORS
330
17
102
}
330
17
100
AcDbMlineStyle
  2
Standard
 70
     0
  3

 62
   256
 51
90.0
 52
90.0
 71
     2
 49
0.5
 62
   256
  6
BYLAYER
 49
-0.5
 62
   256
  6
BYLAYER
  0
ACDBPLACEHOLDER
  5
F
102
{ACAD_REACTORS
330
E
102
}
330
E
  0
SCALE
  5
48
102
{ACAD_REACTORS
330
47
102
}
330
47
100
AcDbScale
 70
     0
300
1:1
140
1.0
141
1.0
290
     1
  0
SCALE
  5
49
102
{ACAD_REACTORS
330
47
102
}
330
47
100
AcDbScale
 70
     0
300
1:2
140
1.0
141
2.0
290
     0
  0
SCALE
  5
4A
102
{ACAD_REACTORS
330
47
102
}
330
47
100
AcDbScale
 70
     0
300
1:4
140
1.0
141
4.0
290
     0
  0
SCALE
  5
4B
102
{ACAD_REACTORS
330
47
102
}
330
47
100
AcDbScale
 70
     0
300
1:5
140
1.0
141
5.0
290
     0
  0
SCALE
  5
4C
102
{ACAD_REACTORS
330
47
102
}
330
47
100
AcDbScale
 70
     0
300
1:8
140
1.0
141
8.0
290
     0
  0
SCALE
  5
4D
102
{ACAD_REACTORS
330
47
102
}
330
47
100
AcDbScale
 70
     0
300
1:10
140
1.0
141
10.0
290
     0
  0
SCALE
  5
4E
102
{ACAD_REACTORS
330
47
102
}
330
47
100
AcDbScale
 70
     0
300
1:16
140
1.0
141
16.0
290
     0
  0
SCALE
  5
4F
102
{ACAD_REACTORS
330
47
102
}
330
47
100
AcDbScale
 70
     0
300
1:20
140
1.0
141
20.0
290
     0
  0
SCALE
  5
50
102
{ACAD_REACTORS
330
47
102
}
330
47
100
AcDbScale
 70
     0
300
1:30
140
1.0
141
30.0
290
     0
  0
SCALE
  5
51
102
{ACAD_REACTORS
330
47
102
}
330
47
100
AcDbScale
 70
     0
300
1:40
140
1.0
141
40.0
290
     0
  0
SCALE
  5
52
102
{ACAD_REACTORS
330
47
102
}
330
47
100
AcDbScale
 70
     0
300
1:50
140
1.0
141
50.0
290
     0
  0
SCALE
  5
53
102
{ACAD_REACTORS
330
47
102
}
330
47
100
AcDbScale
 70
     0
300
1:100
140
1.0
141
100.0
290
     0
  0
SCALE
  5
54
102
{ACAD_REACTORS
330
47
102
}
330
47
100
AcDbScale
 70
     0
300
2:1
140
2.0
141
1.0
290
     0
  0
SCALE
  5
55
102
{ACAD_REACTORS
330
47
102
}
330
47
100
AcDbScale
 70
     0
300
4:1
140
4.0
141
1.0
290
     0
  0
SCALE
  5
56
102
{ACAD_REACTORS
330
47
102
}
330
47
100
AcDbScale
 70
     0
300
8:1
140
8.0
141
1.0
290
     0
  0
SCALE
  5
57
102
{ACAD_REACTORS
330
47
102
}
330
47
100
AcDbScale
 70
     0
300
10:1
140
10.0
141
1.0
290
     0
  0
SCALE
  5
58
102
{ACAD_REACTORS
330
47
102
}
330
47
100
AcDbScale
 70
     0
300
100:1
140
100.0
141
1.0
290
     0
  0
SCALE
  5
59
102
{ACAD_REACTORS
330
47
102
}
330
47
100
AcDbScale
 70
     0
300
1/128" = 1'-0"
140
0.0078125
141
12.0
290
     0
  0
SCALE
  5
5A
102
{ACAD_REACTORS
330
47
102
}
330
47
100
AcDbScale
 70
     0
300
1/64" = 1'-0"
140
0.015625
141
12.0
290
     0
  0
SCALE
  5
5B
102
{ACAD_REACTORS
330
47
102
}
330
47
100
AcDbScale
 70
     0
300
1/32" = 1'-0"
140
0.03125
141
12.0
290
     0
  0
SCALE
  5
5C
102
{ACAD_REACTORS
330
47
102
}
330
47
100
AcDbScale
 70
     0
300
1/16" = 1'-0"
140
0.0625
141
12.0
290
     0
  0
SCALE
  5
5D
102
{ACAD_REACTORS
330
47
102
}
330
47
100
AcDbScale
 70
     0
300
3/32" = 1'-0"
140
0.09375
141
12.0
290
     0
  0
SCALE
  5
5E
102
{ACAD_REACTORS
330
47
102
}
330
47
100
AcDbScale
 70
     0
300
1/8" = 1'-0"
140
0.125
141
12.0
290
     0
  0
SCALE
  5
5F
102
{ACAD_REACTORS
330
47
102
}
330
47
100
AcDbScale
 70
     0
300
3/16" = 1'-0"
140
0.1875
141
12.0
290
     0
  0
SCALE
  5
60
102
{ACAD_REACTORS
330
47
102
}
330
47
100
AcDbScale
 70
     0
300
1/4" = 1'-0"
140
0.25
141
12.0
290
     0
  0
SCALE
  5
61
102
{ACAD_REACTORS
330
47
102
}
330
47
100
AcDbScale
 70
     0
300
3/8" = 1'-0"
140
0.375
141
12.0
290
     0
  0
SCALE
  5
62
102
{ACAD_REACTORS
330
47
102
}
330
47
100
AcDbScale
 70
     0
300
1/2" = 1'-0"
140
0.5
141
12.0
290
     0
  0
SCALE
  5
63
102
{ACAD_REACTORS
330
47
102
}
330
47
100
AcDbScale
 70
     0
300
3/4" = 1'-0"
140
0.75
141
12.0
290
     0
  0
SCALE
  5
64
102
{ACAD_REACTORS
330
47
102
}
330
47
100
AcDbScale
 70
     0
300
1" = 1'-0"
140
1.0
141
12.0
290
     0
  0
SCALE
  5
65
102
{ACAD_REACTORS
330
47
102
}
330
47
100
AcDbScale
 70
     0
300
1-1/2" = 1'-0"
140
1.5
141
12.0
290
     0
  0
SCALE
  5
66
102
{ACAD_REACTORS
330
47
102
}
330
47
100
AcDbScale
 70
     0
300
3" = 1'-0"
140
3.0
141
12.0
290
     0
  0
SCALE
  5
67
102
{ACAD_REACTORS
330
47
102
}
330
47
100
AcDbScale
 70
     0
300
6" = 1'-0"
140
6.0
141
12.0
290
     0
  0
SCALE
  5
68
102
{ACAD_REACTORS
330
47
102
}
330
47
100
AcDbScale
 70
     0
300
1'-0" = 1'-0"
140
12.0
141
12.0
290
     0
  0
TABLESTYLE
  5
6A
102
{ACAD_REACTORS
330
69
102
}
102
{ACAD_XDICTIONARY
360
245
102
}
330
69
100
AcDbTableStyle
  3
Standard
 70
     0
 71
     0
 40
0.06
 41
0.06
280
     0
281
     0
  7
Standard
140
4.5
170
     2
 62
     0
 63
   257
283
     0
 90
        4
 91
        0
  1

274
    -2
284
     1
 64
     0
275
    -2
285
     1
 65
     0
276
    -2
286
     1
 66
     0
277
    -2
287
     1
 67
     0
278
    -2
288
     1
 68
     0
279
    -2
289
     1
 69
     0
  7
Standard
140
6.0
170
     5
 62
     0
 63
   257
283
     0
 90
        4
 91
        0
  1

274
    -2
284
     1
 64
     0
275
    -2
285
     1
 65
     0
276
    -2
286
     1
 66
     0
277
    -2
287
     1
 67
     0
278
    -2
288
     1
 68
     0
279
    -2
289
     1
 69
     0
  7
Standard
140
4.5
170
     5
 62
     0
 63
   257
283
     0
 90
        4
 91
        0
  1

274
    -2
284
     1
 64
     0
275
    -2
285
     1
 65
     0
276
    -2
286
     1
 66
     0
277
    -2
287
     1
 67
     0
278
    -2
288
     1
 68
     0
279
    -2
289
     1
 69
     0
  0
VISUALSTYLE
  5
2F
102
{ACAD_REACTORS
330
2A
102
}
330
2A
100
AcDbVisualStyle
  2
2dWireframe
 70
     4
177
     2
291
     0
 71
     0
176
     1
 72
     2
176
     1
 73
     0
176
     1
 90
        0
176
     1
 40
0.6
176
     1
 41
30.0
176
     1
 62
     5
 63
     7
421
 16777215
176
     1
 74
     1
176
     1
 91
        4
176
     1
 64
     7
176
     1
 65
   257
176
     1
 75
     1
176
     1
175
     1
176
     1
 42
1.0
176
     1
 92
        0
176
     1
 66
   257
176
     1
 43
1.0
176
     1
 76
     1
176
     1
 77
     6
176
     1
 78
     2
176
     1
 67
     7
176
     1
 79
     5
176
     1
170
     0
176
     1
171
     0
176
     1
290
     0
176
     1
 93
        1
176
     1
 44
0.0
176
     1
173
     0
176
     1
  0
VISUALSTYLE
  5
32
102
{ACAD_REACTORS
330
2A
102
}
330
2A
100
AcDbVisualStyle
  2
Basic
 70
     7
177
     2
291
     1
 71
     1
176
     1
 72
     0
176
     1
 73
     1
176
     1
 90
        0
176
     1
 40
0.6
176
     1
 41
30.0
176
     1
 62
     5
 63
     7
421
 16777215
176
     1
 74
     0
176
     1
 91
        4
176
     1
 64
     7
176
     1
 65
   257
176
     1
 75
     1
176
     1
175
     1
176
     1
 42
1.0
176
     1
 92
        8
176
     1
 66
     7
176
     1
 43
1.0
176
     1
 76
     1
176
     1
 77
     6
176
     1
 78
     2
176
     1
 67
     7
176
     1
 79
     5
176
     1
170
     0
176
     1
171
     0
176
     1
290
     0
176
     1
 93
        1
176
     1
 44
0.0
176
     1
173
     0
176
     1
  0
VISUALSTYLE
  5
36
102
{ACAD_REACTORS
330
2A
102
}
330
2A
100
AcDbVisualStyle
  2
Brighten
 70
    12
177
     2
291
     1
 71
     2
176
     1
 72
     2
176
     1
 73
     0
176
     1
 90
        0
176
     1
 40
0.6
176
     1
 41
30.0
176
     1
 62
     5
 63
     7
421
 16777215
176
     1
 74
     1
176
     1
 91
        4
176
     1
 64
     7
176
     1
 65
   257
176
     1
 75
     1
176
     1
175
     1
176
     1
 42
1.0
176
     1
 92
        8
176
     1
 66
     7
176
     1
 43
1.0
176
     1
 76
     1
176
     1
 77
     6
176
     1
 78
     2
176
     1
 67
     7
176
     1
 79
     5
176
     1
170
     0
176
     1
171
     0
176
     1
290
     0
176
     1
 93
        1
176
     1
 44
50.0
176
     1
173
     0
176
     1
  0
VISUALSTYLE
  5
3A
102
{ACAD_REACTORS
330
2A
102
}
330
2A
100
AcDbVisualStyle
  2
ColorChange
 70
    16
177
     2
291
     1
 71
     2
176
     1
 72
     2
176
     1
 73
     3
176
     1
 90
        0
176
     1
 40
0.6
176
     1
 41
30.0
176
     1
 62
     5
 63
     8
421
  8421504
176
     1
 74
     1
176
     1
 91
        4
176
     1
 64
     7
176
     1
 65
   257
176
     1
 75
     1
176
     1
175
     1
176
     1
 42
1.0
176
     1
 92
        8
176
     1
 66
     8
424
  8421504
176
     1
 43
1.0
176
     1
 76
     1
176
     1
 77
     6
176
     1
 78
     2
176
     1
 67
     7
176
     1
 79
     5
176
     1
170
     0
176
     1
171
     0
176
     1
290
     0
176
     1
 93
        1
176
     1
 44
0.0
176
     1
173
     0
176
     1
  0
VISUALSTYLE
  5
34
102
{ACAD_REACTORS
330
2A
102
}
330
2A
100
AcDbVisualStyle
  2
Conceptual
 70
     9
177
     2
291
     0
 71
     3
176
     1
 72
     2
176
     1
 73
     0
176
     1
 90
        0
176
     1
 40
0.6
176
     1
 41
30.0
176
     1
 62
     5
 63
     7
421
 16777215
176
     1
 74
     2
176
     1
 91
        2
176
     1
 64
     7
176
     1
 65
   257
176
     1
 75
     1
176
     1
175
     1
176
     1
 42
179.0
176
     1
 92
        8
176
     1
 66
     7
176
     1
 43
1.0
176
     1
 76
     1
176
     1
 77
     6
176
     1
 78
     2
176
     1
 67
     7
176
     1
 79
     3
176
     1
170
     0
176
     1
171
     0
176
     1
290
     0
176
     1
 93
        1
176
     1
 44
0.0
176
     1
173
     0
176
     1
  0
VISUALSTYLE
  5
35
102
{ACAD_REACTORS
330
2A
102
}
330
2A
100
AcDbVisualStyle
  2
Dim
 70
    11
177
     2
291
     1
 71
     2
176
     1
 72
     2
176
     1
 73
     0
176
     1
 90
        0
176
     1
 40
0.6
176
     1
 41
30.0
176
     1
 62
     5
 63
     7
421
 16777215
176
     1
 74
     1
176
     1
 91
        4
176
     1
 64
     7
176
     1
 65
   257
176
     1
 75
     1
176
     1
175
     1
176
     1
 42
1.0
176
     1
 92
        8
176
     1
 66
     7
176
     1
 43
1.0
176
     1
 76
     1
176
     1
 77
     6
176
     1
 78
     2
176
     1
 67
     7
176
     1
 79
     5
176
     1
170
     0
176
     1
171
     0
176
     1
290
     0
176
     1
 93
        1
176
     1
 44
-50.0
176
     1
173
     0
176
     1
  0
VISUALSTYLE
  5
3D
102
{ACAD_REACTORS
330
2A
102
}
330
2A
100
AcDbVisualStyle
  2
EdgeColorOff
 70
    22
177
     2
291
     1
 71
     2
176
     0
 72
     2
176
     0
 73
     0
176
     0
 90
        0
176
     0
 40
0.6
176
     0
 41
30.0
176
     0
 62
     5
 63
     7
421
 16777215
176
     0
 74
     1
176
     0
 91
        4
176
     0
 64
     7
176
     0
 65
   257
176
     0
 75
     1
176
     0
175
     1
176
     0
 42
1.0
176
     0
 92
        8
176
     2
 66
     7
176
     0
 43
1.0
176
     0
 76
     1
176
     0
 77
     6
176
     0
 78
     2
176
     0
 67
     7
176
     0
 79
     5
176
     0
170
     0
176
     0
171
     0
176
     0
290
     0
176
     0
 93
        1
176
     0
 44
0.0
176
     0
173
     0
176
     0
  0
VISUALSTYLE
  5
39
102
{ACAD_REACTORS
330
2A
102
}
330
2A
100
AcDbVisualStyle
  2
Facepattern
 70
    15
177
     2
291
     1
 71
     2
176
     1
 72
     2
176
     1
 73
     0
176
     1
 90
        0
176
     1
 40
0.6
176
     1
 41
30.0
176
     1
 62
     5
 63
     7
421
 16777215
176
     1
 74
     1
176
     1
 91
        4
176
     1
 64
     7
176
     1
 65
   257
176
     1
 75
     1
176
     1
175
     1
176
     1
 42
1.0
176
     1
 92
        8
176
     1
 66
     7
176
     1
 43
1.0
176
     1
 76
     1
176
     1
 77
     6
176
     1
 78
     2
176
     1
 67
     7
176
     1
 79
     5
176
     1
170
     0
176
     1
171
     0
176
     1
290
     0
176
     1
 93
        1
176
     1
 44
0.0
176
     1
173
     0
176
     1
  0
VISUALSTYLE
  5
2B
102
{ACAD_REACTORS
330
2A
102
}
330
2A
100
AcDbVisualStyle
  2
Flat
 70
     0
177
     2
291
     1
 71
     2
176
     1
 72
     1
176
     1
 73
     1
176
     1
 90
        2
176
     1
 40
0.6
176
     1
 41
30.0
176
     1
 62
     5
 63
     7
421
 16777215
176
     1
 74
     0
176
     1
 91
        0
176
     1
 64
     7
176
     1
 65
   257
176
     1
 75
     1
176
     1
175
     1
176
     1
 42
1.0
176
     1
 92
        8
176
     1
 66
     7
176
     1
 43
1.0
176
     1
 76
     1
176
     1
 77
     6
176
     1
 78
     2
176
     1
 67
     7
176
     1
 79
     5
176
     1
170
     0
176
     1
171
     0
176
     1
290
     0
176
     1
 93
       13
176
     1
 44
0.0
176
     1
173
     0
176
     1
  0
VISUALSTYLE
  5
2C
102
{ACAD_REACTORS
330
2A
102
}
330
2A
100
AcDbVisualStyle
  2
FlatWithEdges
 70
     1
177
     2
291
     1
 71
     2
176
     1
 72
     1
176
     1
 73
     1
176
     1
 90
        2
176
     1
 40
0.6
176
     1
 41
30.0
176
     1
 62
     5
 63
     7
421
 16777215
176
     1
 74
     1
176
     1
 91
        0
176
     1
 64
     7
176
     1
 65
   257
176
     1
 75
     1
176
     1
175
     1
176
     1
 42
1.0
176
     1
 92
        0
176
     1
 66
   257
176
     1
 43
1.0
176
     1
 76
     1
176
     1
 77
     6
176
     1
 78
     2
176
     1
 67
     7
176
     1
 79
     5
176
     1
170
     0
176
     1
171
     0
176
     1
290
     0
176
     1
 93
       13
176
     1
 44
0.0
176
     1
173
     0
176
     1
  0
VISUALSTYLE
  5
2D
102
{ACAD_REACTORS
330
2A
102
}
330
2A
100
AcDbVisualStyle
  2
Gouraud
 70
     2
177
     2
291
     1
 71
     2
176
     1
 72
     2
176
     1
 73
     1
176
     1
 90
        2
176
     1
 40
0.6
176
     1
 41
30.0
176
     1
 62
     5
 63
     7
421
 16777215
176
     1
 74
     0
176
     1
 91
        0
176
     1
 64
     7
176
     1
 65
   257
176
     1
 75
     1
176
     1
175
     1
176
     1
 42
1.0
176
     1
 92
        0
176
     1
 66
     7
176
     1
 43
1.0
176
     1
 76
     1
176
     1
 77
     6
176
     1
 78
     2
176
     1
 67
     7
176
     1
 79
     5
176
     1
170
     0
176
     1
171
     0
176
     1
290
     0
176
     1
 93
       13
176
     1
 44
0.0
176
     1
173
     0
176
     1
  0
VISUALSTYLE
  5
2E
102
{ACAD_REACTORS
330
2A
102
}
330
2A
100
AcDbVisualStyle
  2
GouraudWithEdges
 70
     3
177
     2
291
     1
 71
     2
176
     1
 72
     2
176
     1
 73
     1
176
     1
 90
        2
176
     1
 40
0.6
176
     1
 41
30.0
176
     1
 62
     5
 63
     7
421
 16777215
176
     1
 74
     1
176
     1
 91
        0
176
     1
 64
     7
176
     1
 65
   257
176
     1
 75
     1
176
     1
175
     1
176
     1
 42
1.0
176
     1
 92
        0
176
     1
 66
   257
176
     1
 43
1.0
176
     1
 76
     1
176
     1
 77
     6
176
     1
 78
     2
176
     1
 67
     7
176
     1
 79
     5
176
     1
170
     0
176
     1
171
     0
176
     1
290
     0
176
     1
 93
       13
176
     1
 44
0.0
176
     1
173
     0
176
     1
  0
VISUALSTYLE
  5
31
102
{ACAD_REACTORS
330
2A
102
}
330
2A
100
AcDbVisualStyle
  2
Hidden
 70
     6
177
     2
291
     0
 71
     1
176
     1
 72
     2
176
     1
 73
     2
176
     1
 90
        0
176
     1
 40
0.6
176
     1
 41
30.0
176
     1
 62
     5
 63
     7
421
 16777215
176
     1
 74
     2
176
     1
 91
        2
176
     1
 64
     7
176
     1
 65
   257
176
     1
 75
     2
176
     1
175
     1
176
     1
 42
40.0
176
     1
 92
        0
176
     1
 66
   257
176
     1
 43
1.0
176
     1
 76
     1
176
     1
 77
     6
176
     1
 78
     2
176
     1
 67
     7
176
     1
 79
     3
176
     1
170
     0
176
     1
171
     0
176
     1
290
     0
176
     1
 93
        1
176
     1
 44
0.0
176
     1
173
     0
176
     1
  0
VISUALSTYLE
  5
3B
102
{ACAD_REACTORS
330
2A
102
}
330
2A
100
AcDbVisualStyle
  2
JitterOff
 70
    20
177
     2
291
     1
 71
     2
176
     0
 72
     2
176
     0
 73
     0
176
     0
 90
        0
176
     0
 40
0.6
176
     0
 41
30.0
176
     0
 62
     5
 63
     7
421
 16777215
176
     0
 74
     1
176
     0
 91
        4
176
     0
 64
     7
176
     0
 65
   257
176
     0
 75
     1
176
     0
175
     1
176
     0
 42
1.0
176
     0
 92
       10
176
     2
 66
     7
176
     0
 43
1.0
176
     0
 76
     1
176
     0
 77
     6
176
     0
 78
     2
176
     0
 67
     7
176
     0
 79
     5
176
     0
170
     0
176
     0
171
     0
176
     0
290
     0
176
     0
 93
        1
176
     0
 44
0.0
176
     0
173
     0
176
     0
  0
VISUALSTYLE
  5
38
102
{ACAD_REACTORS
330
2A
102
}
330
2A
100
AcDbVisualStyle
  2
Linepattern
 70
    14
177
     2
291
     1
 71
     2
176
     1
 72
     2
176
     1
 73
     0
176
     1
 90
        0
176
     1
 40
0.6
176
     1
 41
30.0
176
     1
 62
     5
 63
     7
421
 16777215
176
     1
 74
     1
176
     1
 91
        4
176
     1
 64
     7
176
     1
 65
   257
176
     1
 75
     7
176
     1
175
     7
176
     1
 42
1.0
176
     1
 92
        8
176
     1
 66
     7
176
     1
 43
1.0
176
     1
 76
     1
176
     1
 77
     6
176
     1
 78
     2
176
     1
 67
     7
176
     1
 79
     5
176
     1
170
     0
176
     1
171
     0
176
     1
290
     0
176
     1
 93
        1
176
     1
 44
0.0
176
     1
173
     0
176
     1
  0
VISUALSTYLE
  5
3C
102
{ACAD_REACTORS
330
2A
102
}
330
2A
100
AcDbVisualStyle
  2
OverhangOff
 70
    21
177
     2
291
     1
 71
     2
176
     0
 72
     2
176
     0
 73
     0
176
     0
 90
        0
176
     0
 40
0.6
176
     0
 41
30.0
176
     0
 62
     5
 63
     7
421
 16777215
176
     0
 74
     1
176
     0
 91
        4
176
     0
 64
     7
176
     0
 65
   257
176
     0
 75
     1
176
     0
175
     1
176
     0
 42
1.0
176
     0
 92
        9
176
     2
 66
     7
176
     0
 43
1.0
176
     0
 76
     1
176
     0
 77
     6
176
     0
 78
     2
176
     0
 67
     7
176
     0
 79
     5
176
     0
170
     0
176
     0
171
     0
176
     0
290
     0
176
     0
 93
        1
176
     0
 44
0.0
176
     0
173
     0
176
     0
  0
VISUALSTYLE
  5
33
102
{ACAD_REACTORS
330
2A
102
}
330
2A
100
AcDbVisualStyle
  2
Realistic
 70
     8
177
     2
291
     0
 71
     2
176
     1
 72
     3
176
     1
 73
     0
176
     1
 90
        2
176
     1
 40
0.6
176
     1
 41
30.0
176
     1
 62
     5
 63
     7
421
 16777215
176
     1
 74
     0
176
     1
 91
        0
176
     1
 64
     7
176
     1
 65
   257
176
     1
 75
     1
176
     1
175
     1
176
     1
 42
1.0
176
     1
 92
        8
176
     1
 66
   257
176
     1
 43
1.0
176
     1
 76
     1
176
     1
 77
     6
176
     1
 78
     2
176
     1
 67
     7
176
     1
 79
     3
176
     1
170
     0
176
     1
171
     0
176
     1
290
     0
176
     1
 93
       13
176
     1
 44
0.0
176
     1
173
     0
176
     1
  0
VISUALSTYLE
  5
42
102
{ACAD_REACTORS
330
2A
102
}
330
2A
100
AcDbVisualStyle
  2
Shaded
 70
    27
177
     2
291
     0
 71
     2
176
     1
 72
     2
176
     1
 73
     1
176
     1
 90
        2
176
     1
 40
0.6
176
     1
 41
30.0
176
     1
 62
     5
 63
     7
421
 16777215
176
     1
 74
     0
176
     1
 91
        4
176
     1
 64
     7
176
     1
 65
   257
176
     1
 75
     1
176
     1
175
     1
176
     1
 42
1.0
176
     1
 92
        8
176
     1
 66
   257
176
     1
 43
1.0
176
     1
 76
     1
176
     1
 77
     6
176
     1
 78
     2
176
     1
 67
     8
425
  7895160
176
     1
 79
     3
176
     1
170
     0
176
     1
171
     0
176
     1
290
     0
176
     1
 93
        5
176
     1
 44
0.0
176
     1
173
     0
176
     1
  0
VISUALSTYLE
  5
41
102
{ACAD_REACTORS
330
2A
102
}
330
2A
100
AcDbVisualStyle
  2
Shaded with edges
 70
    26
177
     2
291
     0
 71
     2
176
     1
 72
     2
176
     1
 73
     1
176
     1
 90
        2
176
     1
 40
0.6
176
     1
 41
30.0
176
     1
 62
     5
 63
     7
421
 16777215
176
     1
 74
     1
176
     1
 91
       10
176
     1
 64
     7
176
     1
 65
   257
176
     1
 75
     2
176
     1
175
     1
176
     1
 42
1.0
176
     1
 92
        8
176
     1
 66
   257
176
     1
 43
1.0
176
     1
 76
     1
176
     1
 77
     6
176
     1
 78
     2
176
     1
 67
     7
176
     1
 79
     3
176
     1
170
     0
176
     1
171
     0
176
     1
290
     0
176
     1
 93
        5
176
     1
 44
0.0
176
     1
173
     0
176
     1
  0
VISUALSTYLE
  5
3E
102
{ACAD_REACTORS
330
2A
102
}
330
2A
100
AcDbVisualStyle
  2
Shades of Gray
 70
    23
177
     2
291
     0
 71
     2
176
     1
 72
     2
176
     1
 73
     3
176
     1
 90
        0
176
     1
 40
0.6
176
     1
 41
30.0
176
     1
 62
     5
 63
     7
421
 16777215
176
     1
 74
     2
176
     1
 91
        2
176
     1
 64
     7
176
     1
 65
     7
176
     1
 75
     1
176
     1
175
     1
176
     1
 42
40.0
176
     1
 92
        8
176
     1
 66
     7
176
     1
 43
1.0
176
     1
 76
     1
176
     1
 77
     6
176
     1
 78
     2
176
     1
 67
     7
176
     1
 79
     3
176
     1
170
     0
176
     1
171
     0
176
     1
290
     0
176
     1
 93
        1
176
     1
 44
0.0
176
     1
173
     0
176
     1
  0
VISUALSTYLE
  5
3F
102
{ACAD_REACTORS
330
2A
102
}
330
2A
100
AcDbVisualStyle
  2
Sketchy
 70
    24
177
     2
291
     0
 71
     1
176
     1
 72
     2
176
     1
 73
     2
176
     1
 90
        0
176
     1
 40
0.6
176
     1
 41
30.0
176
     1
 62
     5
 63
     7
421
 16777215
176
     1
 74
     2
176
     1
 91
        2
176
     1
 64
     7
176
     1
 65
     7
176
     1
 75
     1
176
     1
175
     1
176
     1
 42
40.0
176
     1
 92
       11
176
     1
 66
     7
176
     1
 43
1.0
176
     1
 76
     1
176
     1
 77
     6
176
     1
 78
     2
176
     1
 67
     7
176
     1
 79
     6
176
     1
170
     0
176
     1
171
     0
176
     1
290
     0
176
     1
 93
        1
176
     1
 44
0.0
176
     1
173
     0
176
     1
  0
VISUALSTYLE
  5
37
102
{ACAD_REACTORS
330
2A
102
}
330
2A
100
AcDbVisualStyle
  2
Thicken
 70
    13
177
     2
291
     1
 71
     2
176
     1
 72
     2
176
     1
 73
     0
176
     1
 90
        0
176
     1
 40
0.6
176
     1
 41
30.0
176
     1
 62
     5
 63
     7
421
 16777215
176
     1
 74
     1
176
     1
 91
        4
176
     1
 64
     7
176
     1
 65
   257
176
     1
 75
     1
176
     1
175
     1
176
     1
 42
1.0
176
     1
 92
       12
176
     1
 66
     7
176
     1
 43
1.0
176
     1
 76
     1
176
     1
 77
     6
176
     1
 78
     2
176
     1
 67
     7
176
     1
 79
     5
176
     1
170
     0
176
     1
171
     0
176
     1
290
     0
176
     1
 93
        1
176
     1
 44
0.0
176
     1
173
     0
176
     1
  0
VISUALSTYLE
  5
30
102
{ACAD_REACTORS
330
2A
102
}
330
2A
100
AcDbVisualStyle
  2
Wireframe
 70
     5
177
     2
291
     0
 71
     0
176
     1
 72
     2
176
     1
 73
     0
176
     1
 90
        0
176
     1
 40
0.6
176
     1
 41
30.0
176
     1
 62
     5
 63
     7
421
 16777215
176
     1
 74
     1
176
     1
 91
        4
176
     1
 64
     7
176
     1
 65
   257
176
     1
 75
     1
176
     1
175
     1
176
     1
 42
1.0
176
     1
 92
        0
176
     1
 66
   257
176
     1
 43
1.0
176
     1
 76
     1
176
     1
 77
     6
176
     1
 78
     2
176
     1
 67
     7
176
     1
 79
     3
176
     1
170
     0
176
     1
171
     0
176
     1
290
     0
176
     1
 93
        1
176
     1
 44
0.0
176
     1
173
     0
176
     1
  0
VISUALSTYLE
  5
40
102
{ACAD_REACTORS
330
2A
102
}
330
2A
100
AcDbVisualStyle
  2
X-Ray
 70
    25
177
     2
291
     0
 71
     2
176
     1
 72
     2
176
     1
 73
     1
176
     1
 90
        1
176
     1
 40
0.5
176
     1
 41
30.0
176
     1
 62
     5
 63
     7
421
 16777215
176
     1
 74
     1
176
     1
 91
        0
176
     1
 64
     7
176
     1
 65
   257
176
     1
 75
     1
176
     1
175
     1
176
     1
 42
1.0
176
     1
 92
        8
176
     1
 66
     7
176
     1
 43
1.0
176
     1
 76
     1
176
     1
 77
     6
176
     1
 78
     2
176
     1
 67
     7
176
     1
 79
     3
176
     1
170
     0
176
     1
171
     0
176
     1
290
     0
176
     1
 93
       13
176
     1
 44
0.0
176
     1
173
     0
176
     1
  0
DICTIONARYVAR
  5
244
102
{ACAD_REACTORS
330
243
102
}
330
243
100
DictionaryVariables
280
     0
  1
1:1
  0
DICTIONARYVAR
  5
24C
102
{ACAD_REACTORS
330
243
102
}
330
243
100
DictionaryVariables
280
     0
  1
3.500000
  0
DICTIONARYVAR
  5
24D
102
{ACAD_REACTORS
330
243
102
}
330
243
100
DictionaryVariables
280
     0
  1
acadiso.lin
  0
DICTIONARYVAR
  5
249
102
{ACAD_REACTORS
330
243
102
}
330
243
100
DictionaryVariables
280
     0
  1
Standard
  0
DICTIONARYVAR
  5
248
102
{ACAD_REACTORS
330
243
102
}
330
243
100
DictionaryVariables
280
     0
  1
Standard
  0
DICTIONARY
  5
245
330
6A
100
AcDbDictionary
280
     1
281
     1
  3
ACAD_ROUNDTRIP_2008_TABLESTYLE_CELLSTYLEMAP
360
246
  0
CELLSTYLEMAP
  5
246
102
{ACAD_REACTORS
330
245
102
}
330
245
100
AcDbCellStyleMap
 90
        3
300
CELLSTYLE
  1
TABLEFORMAT_BEGIN
 90
        5
170
     1
 91
        0
 92
    32768
 62
   257
 93
        1
300
CONTENTFORMAT
  1
CONTENTFORMAT_BEGIN
 90
        0
 91
        0
 92
        4
 93
        0
300

 40
0.0
140
1.0
 94
        5
 62
     0
340
11
144
6.0
309
CONTENTFORMAT_END
171
     1
301
MARGIN
  1
CELLMARGIN_BEGIN
 40
1.5
 40
1.5
 40
1.5
 40
1.5
 40
1.5
 40
1.5
309
CELLMARGIN_END
 94
        6
 95
        1
302
GRIDFORMAT
  1
GRIDFORMAT_BEGIN
 90
        0
 91
        1
 62
     0
 92
       -2
340
14
 93
        0
 40
0.045
309
GRIDFORMAT_END
 95
        2
302
GRIDFORMAT
  1
GRIDFORMAT_BEGIN
 90
        0
 91
        1
 62
     0
 92
       -2
340
14
 93
        0
 40
0.045
309
GRIDFORMAT_END
 95
        4
302
GRIDFORMAT
  1
GRIDFORMAT_BEGIN
 90
        0
 91
        1
 62
     0
 92
       -2
340
14
 93
        0
 40
0.045
309
GRIDFORMAT_END
 95
        8
302
GRIDFORMAT
  1
GRIDFORMAT_BEGIN
 90
        0
 91
        1
 62
     0
 92
       -2
340
14
 93
        0
 40
0.045
309
GRIDFORMAT_END
 95
       16
302
GRIDFORMAT
  1
GRIDFORMAT_BEGIN
 90
        0
 91
        1
 62
     0
 92
       -2
340
14
 93
        0
 40
0.045
309
GRIDFORMAT_END
 95
       32
302
GRIDFORMAT
  1
GRIDFORMAT_BEGIN
 90
        0
 91
        1
 62
     0
 92
       -2
340
14
 93
        0
 40
0.045
309
GRIDFORMAT_END
309
TABLEFORMAT_END
  1
CELLSTYLE_BEGIN
 90
        1
 91
        1
300
_TITLE
309
CELLSTYLE_END
300
CELLSTYLE
  1
TABLEFORMAT_BEGIN
 90
        5
170
     1
 91
        0
 92
        0
 62
   257
 93
        1
300
CONTENTFORMAT
  1
CONTENTFORMAT_BEGIN
 90
        0
 91
        0
 92
        4
 93
        0
300

 40
0.0
140
1.0
 94
        5
 62
     0
340
11
144
4.5
309
CONTENTFORMAT_END
171
     1
301
MARGIN
  1
CELLMARGIN_BEGIN
 40
1.5
 40
1.5
 40
1.5
 40
1.5
 40
1.5
 40
1.5
309
CELLMARGIN_END
 94
        6
 95
        1
302
GRIDFORMAT
  1
GRIDFORMAT_BEGIN
 90
        0
 91
        1
 62
     0
 92
       -2
340
14
 93
        0
 40
0.045
309
GRIDFORMAT_END
 95
        2
302
GRIDFORMAT
  1
GRIDFORMAT_BEGIN
 90
        0
 91
        1
 62
     0
 92
       -2
340
14
 93
        0
 40
0.045
309
GRIDFORMAT_END
 95
        4
302
GRIDFORMAT
  1
GRIDFORMAT_BEGIN
 90
        0
 91
        1
 62
     0
 92
       -2
340
14
 93
        0
 40
0.045
309
GRIDFORMAT_END
 95
        8
302
GRIDFORMAT
  1
GRIDFORMAT_BEGIN
 90
        0
 91
        1
 62
     0
 92
       -2
340
14
 93
        0
 40
0.045
309
GRIDFORMAT_END
 95
       16
302
GRIDFORMAT
  1
GRIDFORMAT_BEGIN
 90
        0
 91
        1
 62
     0
 92
       -2
340
14
 93
        0
 40
0.045
309
GRIDFORMAT_END
 95
       32
302
GRIDFORMAT
  1
GRIDFORMAT_BEGIN
 90
        0
 91
        1
 62
     0
 92
       -2
340
14
 93
        0
 40
0.045
309
GRIDFORMAT_END
309
TABLEFORMAT_END
  1
CELLSTYLE_BEGIN
 90
        2
 91
        1
300
_HEADER
309
CELLSTYLE_END
300
CELLSTYLE
  1
TABLEFORMAT_BEGIN
 90
        5
170
     1
 91
        0
 92
        0
 62
   257
 93
        1
300
CONTENTFORMAT
  1
CONTENTFORMAT_BEGIN
 90
        0
 91
        0
 92
        4
 93
        0
300

 40
0.0
140
1.0
 94
        2
 62
     0
340
11
144
4.5
309
CONTENTFORMAT_END
171
     1
301
MARGIN
  1
CELLMARGIN_BEGIN
 40
1.5
 40
1.5
 40
1.5
 40
1.5
 40
1.5
 40
1.5
309
CELLMARGIN_END
 94
        6
 95
        1
302
GRIDFORMAT
  1
GRIDFORMAT_BEGIN
 90
        0
 91
        1
 62
     0
 92
       -2
340
14
 93
        0
 40
0.045
309
GRIDFORMAT_END
 95
        2
302
GRIDFORMAT
  1
GRIDFORMAT_BEGIN
 90
        0
 91
        1
 62
     0
 92
       -2
340
14
 93
        0
 40
0.045
309
GRIDFORMAT_END
 95
        4
302
GRIDFORMAT
  1
GRIDFORMAT_BEGIN
 90
        0
 91
        1
 62
     0
 92
       -2
340
14
 93
        0
 40
0.045
309
GRIDFORMAT_END
 95
        8
302
GRIDFORMAT
  1
GRIDFORMAT_BEGIN
 90
        0
 91
        1
 62
     0
 92
       -2
340
14
 93
        0
 40
0.045
309
GRIDFORMAT_END
 95
       16
302
GRIDFORMAT
  1
GRIDFORMAT_BEGIN
 90
        0
 91
        1
 62
     0
 92
       -2
340
14
 93
        0
 40
0.045
309
GRIDFORMAT_END
 95
       32
302
GRIDFORMAT
  1
GRIDFORMAT_BEGIN
 90
        0
 91
        1
 62
     0
 92
       -2
340
14
 93
        0
 40
0.045
309
GRIDFORMAT_END
309
TABLEFORMAT_END
  1
CELLSTYLE_BEGIN
 90
        3
 91
        2
300
_DATA
309
CELLSTYLE_END
  0
ENDSEC
  0
EOF
