  0
SECTION
  2
HEADER
  9
$ACADVER
  1
AC1015
  9
$ACADMAINTVER
 70
     6
  9
$DWGCODEPAGE
  3
ANSI_1252
  9
$INSBASE
 10
0.0
 20
0.0
 30
0.0
  9
$EXTMIN
 10
0.0
 20
0.0
 30
0.0
  9
$EXTMAX
 10
420.0
 20
500.0
 30
0.0
  9
$LIMMIN
 10
0.0
 20
0.0
  9
$LIMMAX
 10
420.0
 20
500.0
  9
$ORTHOMODE
 70
     0
  9
$REGENMODE
 70
     1
  9
$FILLMODE
 70
     1
  9
$QTEXTMODE
 70
     0
  9
$MIRRTEXT
 70
     1
  9
$LTSCALE
 40
1.0
  9
$ATTMODE
 70
     1
  9
$TEXTSIZE
 40
3.5
  9
$TRACEWID
 40
1.0
  9
$TEXTSTYLE
  7
Standard
  9
$CLAYER
  8
0
  9
$CELTYPE
  6
ByLayer
  9
$CECOLOR
 62
   256
  9
$CELTSCALE
 40
1.0
  9
$DISPSILH
 70
     0
  9
$DIMSCALE
 40
1.0
  9
$DIMASZ
 40
3.302
  9
$DIMEXO
 40
1.0
  9
$DIMDLI
 40
3.75
  9
$DIMRND
 40
0.0
  9
$DIMDLE
 40
0.0
  9
$DIMEXE
 40
1.0
  9
$DIMTP
 40
0.0
  9
$DIMTM
 40
0.0
  9
$DIMTXT
 40
3.5
  9
$DIMCEN
 40
2.5
  9
$DIMTSZ
 40
0.0
  9
$DIMTOL
 70
     0
  9
$DIMLIM
 70
     0
  9
$DIMTIH
 70
     1
  9
$DIMTOH
 70
     1
  9
$DIMSE1
 70
     0
  9
$DIMSE2
 70
     0
  9
$DIMTAD
 70
     1
  9
$DIMZIN
 70
     1
  9
$DIMBLK
  1

  9
$DIMASO
 70
     1
  9
$DIMSHO
 70
     1
  9
$DIMPOST
  1

  9
$DIMAPOST
  1

  9
$DIMALT
 70
     0
  9
$DIMALTD
 70
     3
  9
$DIMALTF
 40
0.0393700787
  9
$DIMLFAC
 40
1.0
  9
$DIMTOFL
 70
     1
  9
$DIMTVP
 40
0.0
  9
$DIMTIX
 70
     0
  9
$DIMSOXD
 70
     0
  9
$DIMSAH
 70
     0
  9
$DIMBLK1
  1

  9
$DIMBLK2
  1

  9
$DIMSTYLE
  2
ISO-25
  9
$DIMCLRD
 70
     0
  9
$DIMCLRE
 70
     0
  9
$DIMCLRT
 70
     0
  9
$DIMTFAC
 40
1.0
  9
$DIMGAP
 40
1.524
  9
$DIMJUST
 70
     0
  9
$DIMSD1
 70
     0
  9
$DIMSD2
 70
     0
  9
$DIMTOLJ
 70
     0
  9
$DIMTZIN
 70
     1
  9
$DIMALTZ
 70
     0
  9
$DIMALTTZ
 70
     0
  9
$DIMUPT
 70
     0
  9
$DIMDEC
 70
     2
  9
$DIMTDEC
 70
     2
  9
$DIMALTU
 70
     2
  9
$DIMALTTD
 70
     3
  9
$DIMTXSTY
  7
Standard
  9
$DIMAUNIT
 70
     0
  9
$DIMADEC
 70
     2
  9
$DIMALTRND
 40
0.0
  9
$DIMAZIN
 70
     0
  9
$DIMDSEP
 70
    44
  9
$DIMATFIT
 70
     3
  9
$DIMFRAC
 70
     0
  9
$DIMLDRBLK
  1

  9
$DIMLUNIT
 70
     2
  9
$DIMLWD
 70
    -2
  9
$DIMLWE
 70
    -2
  9
$DIMTMOVE
 70
     0
  9
$LUNITS
 70
     2
  9
$LUPREC
 70
     2
  9
$SKETCHINC
 40
1.0
  9
$FILLETRAD
 40
0.0
  9
$AUNITS
 70
     0
  9
$AUPREC
 70
     2
  9
$MENU
  1
.
  9
$ELEVATION
 40
0.0
  9
$PELEVATION
 40
0.0
  9
$THICKNESS
 40
0.0
  9
$LIMCHECK
 70
     0
  9
$CHAMFERA
 40
0.0
  9
$CHAMFERB
 40
0.0
  9
$CHAMFERC
 40
0.0
  9
$CHAMFERD
 40
0.0
  9
$SKPOLY
 70
     0
  9
$TDCREATE
 40
2460404.418058878
  9
$TDUCREATE
 40
2460404.293058878
  9
$TDUPDATE
 40
2460404.418059769
  9
$TDUUPDATE
 40
2460404.293059769
  9
$TDINDWG
 40
0.0000000116
  9
$TDUSRTIMER
 40
0.0000000116
  9
$USRTIMER
 70
     1
  9
$ANGBASE
 50
0.0
  9
$ANGDIR
 70
     0
  9
$PDMODE
 70
     0
  9
$PDSIZE
 40
-1.0
  9
$PLINEWID
 40
0.0
  9
$SPLFRAME
 70
     0
  9
$SPLINETYPE
 70
     6
  9
$SPLINESEGS
 70
     8
  9
$HANDSEED
  5
1F7
  9
$SURFTAB1
 70
     6
  9
$SURFTAB2
 70
     6
  9
$SURFTYPE
 70
     6
  9
$SURFU
 70
     6
  9
$SURFV
 70
     6
  9
$UCSBASE
  2

  9
$UCSNAME
  2

  9
$UCSORG
 10
0.0
 20
0.0
 30
0.0
  9
$UCSXDIR
 10
1.0
 20
0.0
 30
0.0
  9
$UCSYDIR
 10
0.0
 20
1.0
 30
0.0
  9
$UCSORTHOREF
  2

  9
$UCSORTHOVIEW
 70
     0
  9
$UCSORGTOP
 10
0.0
 20
0.0
 30
0.0
  9
$UCSORGBOTTOM
 10
0.0
 20
0.0
 30
0.0
  9
$UCSORGLEFT
 10
0.0
 20
0.0
 30
0.0
  9
$UCSORGRIGHT
 10
0.0
 20
0.0
 30
0.0
  9
$UCSORGFRONT
 10
0.0
 20
0.0
 30
0.0
  9
$UCSORGBACK
 10
0.0
 20
0.0
 30
0.0
  9
$PUCSBASE
  2

  9
$PUCSNAME
  2

  9
$PUCSORG
 10
0.0
 20
0.0
 30
0.0
  9
$PUCSXDIR
 10
1.0
 20
0.0
 30
0.0
  9
$PUCSYDIR
 10
0.0
 20
1.0
 30
0.0
  9
$PUCSORTHOREF
  2

  9
$PUCSORTHOVIEW
 70
     0
  9
$PUCSORGTOP
 10
0.0
 20
0.0
 30
0.0
  9
$PUCSORGBOTTOM
 10
0.0
 20
0.0
 30
0.0
  9
$PUCSORGLEFT
 10
0.0
 20
0.0
 30
0.0
  9
$PUCSORGRIGHT
 10
0.0
 20
0.0
 30
0.0
  9
$PUCSORGFRONT
 10
0.0
 20
0.0
 30
0.0
  9
$PUCSORGBACK
 10
0.0
 20
0.0
 30
0.0
  9
$USERI1
 70
     0
  9
$USERI2
 70
     0
  9
$USERI3
 70
     0
  9
$USERI4
 70
     0
  9
$USERI5
 70
     0
  9
$USERR1
 40
0.0
  9
$USERR2
 40
0.0
  9
$USERR3
 40
0.0
  9
$USERR4
 40
0.0
  9
$USERR5
 40
0.0
  9
$WORLDVIEW
 70
     1
  9
$SHADEDGE
 70
     3
  9
$SHADEDIF
 70
    70
  9
$TILEMODE
 70
     1
  9
$MAXACTVP
 70
    64
  9
$PINSBASE
 10
0.0
 20
0.0
 30
0.0
  9
$PLIMCHECK
 70
     0
  9
$PEXTMIN
 10
1.0000000000E+20
 20
1.0000000000E+20
 30
1.0000000000E+20
  9
$PEXTMAX
 10
-1.0000000000E+20
 20
-1.0000000000E+20
 30
-1.0000000000E+20
  9
$PLIMMIN
 10
0.0
 20
0.0
  9
$PLIMMAX
 10
420.0
 20
297.0
  9
$UNITMODE
 70
     0
  9
$VISRETAIN
 70
     1
  9
$PLINEGEN
 70
     0
  9
$PSLTSCALE
 70
     1
  9
$TREEDEPTH
 70
  3020
  9
$CMLSTYLE
  2
Standard
  9
$CMLJUST
 70
     0
  9
$CMLSCALE
 40
20.0
  9
$PROXYGRAPHICS
 70
     1
  9
$MEASUREMENT
 70
     1
  9
$CELWEIGHT
370
    -1
  9
$ENDCAPS
280
     0
  9
$JOINSTYLE
280
     0
  9
$LWDISPLAY
290
     1
  9
$INSUNITS
 70
     4
  9
$HYPERLINKBASE
  1

  9
$STYLESHEET
  1

  9
$XEDIT
290
     1
  9
$CEPSNTYPE
380
     0
  9
$PSTYLEMODE
290
     1
  9
$FINGERPRINTGUID
  2
{4df0f732-9773-4015-82a5-09773592bca0}
  9
$VERSIONGUID
  2
{FAEB1C32-E019-11D5-929B-00C0DF256EC4}
  9
$EXTNAMES
290
     1
  9
$PSVPSCALE
 40
0.0
  9
$OLESTARTUP
290
     0
  0
ENDSEC
  0
SECTION
  2
CLASSES
  0
CLASS
  1
ACDBDICTIONARYWDFLT
  2
AcDbDictionaryWithDefault
  3
ObjectDBX Classes
 90
        0
280
     0
281
     0
  0
CLASS
  1
VISUALSTYLE
  2
AcDbVisualStyle
  3
ObjectDBX Classes
 90
     4095
280
     0
281
     0
  0
CLASS
  1
MATERIAL
  2
AcDbMaterial
  3
ObjectDBX Classes
 90
     1153
280
     0
281
     0
  0
CLASS
  1
SCALE
  2
AcDbScale
  3
ObjectDBX Classes
 90
     1153
280
     0
281
     0
  0
CLASS
  1
TABLESTYLE
  2
AcDbTableStyle
  3
ObjectDBX Classes
 90
     4095
280
     0
281
     0
  0
CLASS
  1
MLEADERSTYLE
  2
AcDbMLeaderStyle
  3
ACDB_MLEADERSTYLE_CLASS
 90
     4095
280
     0
281
     0
  0
CLASS
  1
SUN
  2
AcDbSun
  3
SCENEOE
 90
     1153
280
     0
281
     0
  0
CLASS
  1
ACDBPLACEHOLDER
  2
AcDbPlaceHolder
  3
ObjectDBX Classes
 90
        0
280
     0
281
     0
  0
CLASS
  1
LAYOUT
  2
AcDbLayout
  3
ObjectDBX Classes
 90
        0
280
     0
281
     0
  0
ENDSEC
  0
SECTION
  2
TABLES
  0
TABLE
  2
VPORT
  5
8
330
0
100
AcDbSymbolTable
 70
     1
  0
VPORT
  5
29
330
8
100
AcDbSymbolTableRecord
100
AcDbViewportTableRecord
  2
*Active
 70
     0
 10
0.0
 20
0.0
 11
1.0
 21
1.0
 12
210.0
 22
250.0
 13
0.0
 23
0.0
 14
10.0
 24
10.0
 15
10.0
 25
10.0
 16
0.0
 26
0.0
 36
1.0
 17
0.0
 27
0.0
 37
0.0
 40
500.0
 41
0.84
 42
50.0
 43
0.0
 44
0.0
 50
0.0
 51
0.0
 71
     0
 72
  2000
 73
     1
 74
     3
 75
     0
 76
     0
 77
     0
 78
     0
281
     0
 65
     1
110
0.0
120
0.0
130
0.0
111
1.0
121
0.0
131
0.0
112
0.0
122
1.0
132
0.0
 79
     0
146
0.0
  0
ENDTAB
  0
TABLE
  2
LTYPE
  5
5
330
0
100
AcDbSymbolTable
 70
     6
  0
LTYPE
  5
14
330
5
100
AcDbSymbolTableRecord
100
AcDbLinetypeTableRecord
  2
ByBlock
 70
     0
  3

 72
    65
 73
     0
 40
0.0
  0
LTYPE
  5
15
330
5
100
AcDbSymbolTableRecord
100
AcDbLinetypeTableRecord
  2
ByLayer
 70
     0
  3

 72
    65
 73
     0
 40
0.0
  0
LTYPE
  5
16
330
5
100
AcDbSymbolTableRecord
100
AcDbLinetypeTableRecord
  2
Continuous
 70
     0
  3
Solid line
 72
    65
 73
     0
 40
0.0
  0
LTYPE
  5
5E
330
5
100
AcDbSymbolTableRecord
100
AcDbLinetypeTableRecord
  2
HIDDEN
 70
     0
  3
Hidden __ __ __ __ __ __ __ __ __ __ __ __ __ __
 72
    65
 73
     2
 40
1.905
 49
1.27
 74
     0
 49
-0.635
 74
     0
  0
LTYPE
  5
5F
330
5
100
AcDbSymbolTableRecord
100
AcDbLinetypeTableRecord
  2
PHANTOM
 70
     0
  3
Phantom ______  __  __  ______  __  __  ______
 72
    65
 73
     6
 40
12.7
 49
6.35
 74
     0
 49
-1.27
 74
     0
 49
1.27
 74
     0
 49
-1.27
 74
     0
 49
1.27
 74
     0
 49
-1.27
 74
     0
  0
LTYPE
  5
60
330
5
100
AcDbSymbolTableRecord
100
AcDbLinetypeTableRecord
  2
CENTER
 70
     0
  3
Center ____ _ ____ _ ____ _ ____ _ ____ _ ____
 72
    65
 73
     4
 40
10.16
 49
6.35
 74
     0
 49
-1.27
 74
     0
 49
1.27
 74
     0
 49
-1.27
 74
     0
  0
LTYPE
  5
61
330
5
100
AcDbSymbolTableRecord
100
AcDbLinetypeTableRecord
  2
CENTERX2
 70
     0
  3
Center (2x) ________  __  ________  __  _____
 72
    65
 73
     4
 40
20.32
 49
12.7
 74
     0
 49
-2.54
 74
     0
 49
2.54
 74
     0
 49
-2.54
 74
     0
  0
LTYPE
  5
62
330
5
100
AcDbSymbolTableRecord
100
AcDbLinetypeTableRecord
  2
DOT2
 70
     0
  3
Dot (.5x) ........................................
 72
    65
 73
     2
 40
0.635
 49
0.0
 74
     0
 49
-0.635
 74
     0
  0
ENDTAB
  0
TABLE
  2
LAYER
  5
2
330
0
100
AcDbSymbolTable
 70
     2
  0
LAYER
  5
10
330
2
100
AcDbSymbolTableRecord
100
AcDbLayerTableRecord
  2
0
 70
     0
 62
     7
  6
Continuous
370
    -3
390
F
  0
LAYER
  5
63
330
2
100
AcDbSymbolTableRecord
100
AcDbLayerTableRecord
  2
TABLE_BL1
 70
     0
 62
   179
  6
Continuous
370
    -3
390
F
  0
ENDTAB
  0
TABLE
  2
STYLE
  5
3
330
0
100
AcDbSymbolTable
 70
     1
  0
STYLE
  5
11
330
3
100
AcDbSymbolTableRecord
100
AcDbTextStyleTableRecord
  2
Standard
 70
     0
 40
0.0
 41
1.0
 50
0.0
 71
     0
 42
3.5
  3
txt
  4

  0
ENDTAB
  0
TABLE
  2
VIEW
  5
6
330
0
100
AcDbSymbolTable
 70
     0
  0
ENDTAB
  0
TABLE
  2
UCS
  5
7
330
0
100
AcDbSymbolTable
 70
     0
  0
ENDTAB
  0
TABLE
  2
APPID
  5
9
330
0
100
AcDbSymbolTable
 70
     1
  0
APPID
  5
12
330
9
100
AcDbSymbolTableRecord
100
AcDbRegAppTableRecord
  2
ACAD
 70
     0
  0
ENDTAB
  0
TABLE
  2
DIMSTYLE
  5
A
330
0
100
AcDbSymbolTable
 70
     1
100
AcDbDimStyleTable
  0
DIMSTYLE
105
27
330
A
100
AcDbSymbolTableRecord
100
AcDbDimStyleTableRecord
  2
ISO-25
 70
     0
 41
2.5
 42
0.625
 43
3.75
 44
1.25
 73
     0
 74
     0
 77
     1
 78
     8
140
2.5
141
2.5
143
0.0393700787
147
0.625
171
     3
172
     1
178
     0
271
     2
272
     2
274
     3
278
    44
283
     0
284
     8
340
11
  0
ENDTAB
  0
TABLE
  2
BLOCK_RECORD
  5
1
330
0
100
AcDbSymbolTable
 70
     1
  0
BLOCK_RECORD
  5
1F
330
1
100
AcDbSymbolTableRecord
100
AcDbBlockTableRecord
  2
*Model_Space
340
22
  0
BLOCK_RECORD
  5
1B
330
1
100
AcDbSymbolTableRecord
100
AcDbBlockTableRecord
  2
*Paper_Space
340
1E
  0
BLOCK_RECORD
  5
23
330
1
100
AcDbSymbolTableRecord
100
AcDbBlockTableRecord
  2
*Paper_Space0
340
26
  0
ENDTAB
  0
ENDSEC
  0
SECTION
  2
BLOCKS
  0
BLOCK
  5
20
330
1F
100
AcDbEntity
  8
0
100
AcDbBlockBegin
  2
*Model_Space
 70
     0
 10
0.0
 20
0.0
 30
0.0
  3
*Model_Space
  1

  0
ENDBLK
  5
21
330
1F
100
AcDbEntity
  8
0
100
AcDbBlockEnd
  0
BLOCK
  5
1C
330
1B
100
AcDbEntity
 67
     1
  8
0
100
AcDbBlockBegin
  2
*Paper_Space
 70
     0
 10
0.0
 20
0.0
 30
0.0
  3
*Paper_Space
  1

  0
ENDBLK
  5
1D
330
1B
100
AcDbEntity
 67
     1
  8
0
100
AcDbBlockEnd
  0
BLOCK
  5
24
330
23
100
AcDbEntity
  8
0
100
AcDbBlockBegin
  2
*Paper_Space0
 70
     0
 10
0.0
 20
0.0
 30
0.0
  3
*Paper_Space0
  1

  0
ENDBLK
  5
25
330
23
100
AcDbEntity
  8
0
100
AcDbBlockEnd
  0
ENDSEC
  0
SECTION
  2
ENTITIES
  0
CIRCLE
  5
64
330
1F
100
AcDbEntity
  8
0
  6
Continuous
 62
     7
370
    25
100
AcDbCircle
 10
206.8462760492
 20
332.5676638121
 30
0.0
 40
8.900000000000034
  0
CIRCLE
  5
65
330
1F
100
AcDbEntity
  8
0
  6
Continuous
 62
     7
370
    25
100
AcDbCircle
 10
206.8462760492
 20
332.5676638121
 30
0.0
 40
8.100000000000307
  0
CIRCLE
  5
66
330
1F
100
AcDbEntity
  8
0
  6
Continuous
 62
     7
370
    25
100
AcDbCircle
 10
206.8462760492
 20
332.5676638121
 30
0.0
 40
55.995401635387
  0
CIRCLE
  5
67
330
1F
100
AcDbEntity
  8
0
  6
Continuous
 62
     7
370
    25
100
AcDbCircle
 10
206.8462760492
 20
332.5676638121
 30
0.0
 40
56.58542857502283
  0
SPLINE
  5
68
330
1F
100
AcDbEntity
  8
0
  6
Continuous
 62
     7
370
    25
100
AcDbSpline
210
0.0
220
0.0
230
1.0
 70
     8
 71
     3
 72
    17
 73
    13
 74
     0
 42
0.00000001
 43
0.00000001
 40
0.0
 40
0.0
 40
0.0
 40
0.0
 40
0.1073415831265764
 40
0.2147340135530392
 40
0.3221186568153764
 40
0.4294882791417634
 40
0.5368445105544666
 40
0.6441943157237001
 40
0.7515471508447213
 40
0.8589113006667319
 40
0.966290600210578
 40
1.0
 40
1.0
 40
1.0
 40
1.0
 10
227.1724090084347
 20
379.3848435533431
 30
0.0
 10
227.2898601610035
 20
379.5778059045046
 30
0.0
 10
227.5248181023058
 20
379.9638220123597
 30
0.0
 10
228.0951100519785
 20
380.3536249040635
 30
0.0
 10
228.7500487503657
 20
380.5433958414797
 30
0.0
 10
229.434130821046
 20
380.5027998625303
 30
0.0
 10
230.065301579425
 20
380.2388239355092
 30
0.0
 10
230.573620010405
 20
379.7807563883957
 30
0.0
 10
230.9020448844765
 20
379.1799331941415
 30
0.0
 10
231.0115501940768
 20
378.505731272908
 30
0.0
 10
230.923678899442
 20
377.982736786593
 30
0.0
 10
230.8047091450446
 20
377.7136094342662
 30
0.0
 10
230.7762844800446
 20
377.649308596873
 30
0.0
  0
ARC
  5
69
330
1F
100
AcDbEntity
  8
0
  6
Continuous
 62
     7
370
    25
100
AcDbCircle
 10
206.8462760492
 20
332.5676638121
 30
0.0
 40
47.00000000000256
100
AcDbArc
 50
66.7245689767
 51
113.2754310233
  0
SPLINE
  5
6A
330
1F
100
AcDbEntity
  8
0
  6
Continuous
 62
     7
370
    25
100
AcDbSpline
210
0.0
220
0.0
230
1.0
 70
     8
 71
     3
 72
    17
 73
    13
 74
     0
 42
0.00000001
 43
0.00000001
 40
0.0
 40
0.0
 40
0.0
 40
0.0
 40
0.1073415831263694
 40
0.2147340135528247
 40
0.3221186568154226
 40
0.4294882791418312
 40
0.5368445105545279
 40
0.644194315723692
 40
0.7515471508445373
 40
0.8589113006665389
 40
0.9662906002103843
 40
1.0
 40
1.0
 40
1.0
 40
1.0
 10
182.9162676184415
 20
377.6493085968727
 30
0.0
 10
182.8386331732161
 20
377.8614456636948
 30
0.0
 10
182.6833275076237
 20
378.2858202858613
 30
0.0
 10
182.7341385496355
 20
378.9747306140259
 30
0.0
 10
182.9941172555937
 20
379.6051025516804
 30
0.0
 10
183.4523746647019
 20
380.1146282722592
 30
0.0
 10
184.0522878861414
 20
380.4435111435395
 30
0.0
 10
184.727350873384
 20
380.5553300518093
 30
0.0
 10
185.401862921709
 20
380.4374958236486
 30
0.0
 10
185.9972506530544
 20
380.1027524999083
 30
0.0
 10
186.3513573515328
 20
379.7079702267122
 30
0.0
 10
186.4875931597778
 20
379.4471577676847
 30
0.0
 10
186.5201430900521
 20
379.3848435533429
 30
0.0
  0
ARC
  5
6B
330
1F
100
AcDbEntity
  8
0
  6
Continuous
 62
     7
370
    25
100
AcDbCircle
 10
206.8462760492
 20
332.5676638121
 30
0.0
 40
47.00000000000156
100
AcDbArc
 50
118.1531404052
 51
164.7040024519
  0
SPLINE
  5
6C
330
1F
100
AcDbEntity
  8
0
  6
Continuous
 62
     7
370
    25
100
AcDbSpline
210
0.0
220
0.0
230
1.0
 70
     8
 71
     3
 72
    17
 73
    13
 74
     0
 42
0.00000001
 43
0.00000001
 40
0.0
 40
0.0
 40
0.0
 40
0.0
 40
0.1073415831263968
 40
0.2147340135528759
 40
0.3221186568152352
 40
0.4294882791417752
 40
0.5368445105546167
 40
0.6441943157238057
 40
0.7515471508446753
 40
0.8589113006667053
 40
0.966290600210574
 40
0.9999999999999999
 40
0.9999999999999999
 40
0.9999999999999999
 40
0.9999999999999999
 10
156.6799106600554
 20
341.9663756194903
 30
0.0
 10
156.4656509377446
 20
342.0379438638489
 30
0.0
 10
156.0370299991064
 20
342.1811142541716
 30
0.0
 10
155.5300983824666
 20
342.6503684904788
 30
0.0
 10
155.1993478278092
 20
343.2466585020733
 30
0.0
 10
155.0867033995386
 20
343.9226226621538
 30
0.0
 10
155.2036121922948
 20
344.5967088216739
 30
0.0
 10
155.5370835376325
 20
345.1942122667105
 30
0.0
 10
156.0497614302823
 20
345.6480985818269
 30
0.0
 10
156.6826924779742
 20
345.9048824058757
 30
0.0
 10
157.2121276031498
 20
345.9355914496057
 30
0.0
 10
157.5009806317259
 20
345.8794909851311
 30
0.0
 10
157.5699943958804
 20
345.8660872682191
 30
0.0
  0
ARC
  5
6D
330
1F
100
AcDbEntity
  8
0
  6
Continuous
 62
     7
370
    25
100
AcDbCircle
 10
206.8462760492
 20
332.5676638121
 30
0.0
 40
47.00000000000144
100
AcDbArc
 50
169.5817118338
 51
216.1325738805
  0
SPLINE
  5
6E
330
1F
100
AcDbEntity
  8
0
  6
Continuous
 62
     7
370
    25
100
AcDbSpline
210
0.0
220
0.0
230
1.0
 70
     8
 71
     3
 72
    17
 73
    13
 74
     0
 42
0.00000001
 43
0.00000001
 40
0.0
 40
0.0
 40
0.0
 40
0.0
 40
0.1073415831264275
 40
0.214734013552942
 40
0.3221186568153352
 40
0.4294882791417753
 40
0.5368445105545301
 40
0.6441943157237485
 40
0.751547150844651
 40
0.8589113006666647
 40
0.9662906002105653
 40
1.0
 40
1.0
 40
1.0
 40
1.0
 10
168.2198500470896
 20
299.2060209523498
 30
0.0
 10
168.0303069886951
 20
299.0831280265169
 30
0.0
 10
167.6511310860796
 20
298.837283960939
 30
0.0
 10
166.9681866576384
 20
298.733524094408
 30
0.0
 10
166.2957687561049
 20
298.8467136391125
 30
0.0
 10
165.6970460424715
 20
299.1801014389979
 30
0.0
 10
165.2429157010944
 20
299.6917902597867
 30
0.0
 10
164.9836846799119
 20
300.3250459606281
 30
0.0
 10
164.9484715069977
 20
301.0088671661454
 30
0.0
 10
165.1423358826851
 20
301.6638146810386
 30
0.0
 10
165.448423986793
 20
302.0968905054157
 30
0.0
 10
165.6723820136534
 20
302.2877468294834
 30
0.0
 10
165.7258908396556
 20
302.3333468822213
 30
0.0
  0
ARC
  5
6F
330
1F
100
AcDbEntity
  8
0
  6
Continuous
 62
     7
370
    25
100
AcDbCircle
 10
206.8462760492
 20
332.5676638121
 30
0.0
 40
47.00000000000177
100
AcDbArc
 50
221.0102832624
 51
267.5611453091
  0
SPLINE
  5
70
330
1F
100
AcDbEntity
  8
0
  6
Continuous
 62
     7
370
    25
100
AcDbSpline
210
0.0
220
0.0
230
1.0
 70
     8
 71
     3
 72
    17
 73
    13
 74
     0
 42
0.00000001
 43
0.00000001
 40
0.0
 40
0.0
 40
0.0
 40
0.0
 40
0.1073415831264705
 40
0.2147340135529648
 40
0.3221186568153383
 40
0.42948827914176
 40
0.5368445105544982
 40
0.6441943157237002
 40
0.7515471508445846
 40
0.8589113006666294
 40
0.9662906002105692
 40
1.0
 40
1.0
 40
1.0
 40
1.0
 10
208.8462760492439
 20
281.5676638120805
 30
0.0
 10
208.8241794437107
 20
281.3428505957669
 30
0.0
 10
208.7799757655661
 20
280.8931176699734
 30
0.0
 10
208.4352896094672
 20
280.2944769964176
 30
0.0
 10
207.9275487557377
 20
279.8393320384238
 30
0.0
 10
207.2935981718249
 20
279.5790956649292
 30
0.0
 10
206.6103981059421
 20
279.5430750283836
 30
0.0
 10
205.9536709645391
 20
279.7352285262342
 30
0.0
 10
205.3970829634836
 20
280.1340533069875
 30
0.0
 10
205.0058968381591
 20
280.6939756755165
 30
0.0
 10
204.8581473357472
 20
281.2033033516483
 30
0.0
 10
204.8485653987549
 20
281.4973977594757
 30
0.0
 10
204.8462760492438
 20
281.5676638120805
 30
0.0
  0
ARC
  5
71
330
1F
100
AcDbEntity
  8
0
  6
Continuous
 62
     7
370
    25
100
AcDbCircle
 10
206.8462760492
 20
332.5676638121
 30
0.0
 40
47.00000000000176
100
AcDbArc
 50
272.438854691
 51
318.9897167376
  0
SPLINE
  5
72
330
1F
100
AcDbEntity
  8
0
  6
Continuous
 62
     7
370
    25
100
AcDbSpline
210
0.0
220
0.0
230
1.0
 70
     8
 71
     3
 72
    17
 73
    13
 74
     0
 42
0.00000001
 43
0.00000001
 40
0.0
 40
0.0
 40
0.0
 40
0.0
 40
0.1073415831264219
 40
0.2147340135529549
 40
0.3221186568153379
 40
0.4294882791417701
 40
0.5368445105545181
 40
0.6441943157237301
 40
0.7515471508446261
 40
0.8589113006666793
 40
0.9662906002105647
 40
0.9999999999999999
 40
0.9999999999999999
 40
0.9999999999999999
 40
0.9999999999999999
 10
247.9666612588324
 20
302.3333468822229
 30
0.0
 10
248.1286503008156
 20
302.1759023126668
 30
0.0
 10
248.4527051183758
 20
301.8609385926603
 30
0.0
 10
248.7058329404762
 20
301.2182057493108
 30
0.0
 10
248.7451083534354
 20
300.5374597252534
 30
0.0
 10
248.5533076191647
 20
299.8795624754748
 30
0.0
 10
248.1555014131275
 20
299.3229566556007
 30
0.0
 10
247.5958070837729
 20
298.929312447362
 30
0.0
 10
246.9369663716965
 20
298.7428176089011
 30
0.0
 10
246.2553008764742
 20
298.7860818672282
 30
0.0
 10
245.7649721563986
 20
298.9881272665959
 30
0.0
 10
245.5290656495446
 20
299.1640006706563
 30
0.0
 10
245.4727020513965
 20
299.2060209523502
 30
0.0
  0
ARC
  5
73
330
1F
100
AcDbEntity
  8
0
  6
Continuous
 62
     7
370
    25
100
AcDbCircle
 10
206.8462760492
 20
332.5676638121
 30
0.0
 40
47.00000000000173
100
AcDbArc
 50
323.8674261195
 51
10.4182881662
  0
SPLINE
  5
74
330
1F
100
AcDbEntity
  8
0
  6
Continuous
 62
     7
370
    25
100
AcDbSpline
210
0.0
220
0.0
230
1.0
 70
     8
 71
     3
 72
    17
 73
    13
 74
     0
 42
0.00000001
 43
0.00000001
 40
0.0
 40
0.0
 40
0.0
 40
0.0
 40
0.1073415831264036
 40
0.2147340135528907
 40
0.3221186568152556
 40
0.4294882791416719
 40
0.5368445105544001
 40
0.6441943157237784
 40
0.7515471508446623
 40
0.8589113006666961
 40
0.9662906002105706
 40
1.0
 40
1.0
 40
1.0
 40
1.0
 10
256.1225577026059
 20
345.8660872682192
 30
0.0
 10
256.3466513395178
 20
345.8945703175801
 30
0.0
 10
256.7949447656461
 20
345.9515499086143
 30
0.0
 10
257.4552761530397
 20
345.7487158358748
 30
0.0
 10
258.0119926456563
 20
345.3549843865571
 30
0.0
 10
258.4067716259557
 20
344.794836308236
 30
0.0
 10
258.5939154666777
 20
344.1367808400879
 30
0.0
 10
258.5527151950597
 20
343.4537610434415
 30
0.0
 10
258.2877422660571
 20
342.8223810029286
 30
0.0
 10
257.8289054222811
 20
342.3164082821035
 30
0.0
 10
257.3652250116421
 20
342.0590270980084
 30
0.0
 10
257.0806363462033
 20
341.9842432378808
 30
0.0
 10
257.0126414384314
 20
341.9663756194907
 30
0.0
  0
ARC
  5
75
330
1F
100
AcDbEntity
  8
0
  6
Continuous
 62
     7
370
    25
100
AcDbCircle
 10
206.8462760492
 20
332.5676638121
 30
0.0
 40
47.00000000000252
100
AcDbArc
 50
15.2959975481
 51
61.8468595948
  0
LINE
  5
76
330
1F
100
AcDbEntity
  8
0
  6
Continuous
 62
     7
370
    25
100
AcDbLine
 10
160.6211274005
 20
341.0668186173
 30
0.0
 11
156.6799106601
 21
341.9663756195
 31
0.0
  0
LINE
  5
77
330
1F
100
AcDbEntity
  8
0
  6
Continuous
 62
     7
370
    25
100
AcDbLine
 10
171.3804604763
 20
301.7265236622
 30
0.0
 11
168.2198500471
 21
299.2060209523
 31
0.0
  0
LINE
  5
78
330
1F
100
AcDbEntity
  8
0
  6
Continuous
 62
     7
370
    25
100
AcDbLine
 10
208.8462760492
 20
285.6102362846
 30
0.0
 11
208.8462760492
 21
281.5676638121
 31
0.0
  0
LINE
  5
79
330
1F
100
AcDbEntity
  8
0
  6
Continuous
 62
     7
370
    25
100
AcDbLine
 10
184.6702740785
 20
374.0070766529
 30
0.0
 11
182.9162676184
 21
377.6493085969
 31
0.0
  0
LINE
  5
7A
330
1F
100
AcDbEntity
  8
0
  6
Continuous
 62
     7
370
    25
100
AcDbLine
 10
225.4184025484
 20
375.7426116094
 30
0.0
 11
227.1724090084
 21
379.3848435533
 31
0.0
  0
LINE
  5
7B
330
1F
100
AcDbEntity
  8
0
  6
Continuous
 62
     7
370
    25
100
AcDbLine
 10
252.1813409621
 20
344.9665302661
 30
0.0
 11
256.1225577026
 21
345.8660872682
 31
0.0
  0
LINE
  5
7C
330
1F
100
AcDbEntity
  8
0
  6
Continuous
 62
     7
370
    25
100
AcDbLine
 10
244.8060508297
 20
304.8538495921
 30
0.0
 11
247.9666612588
 21
302.3333468822
 31
0.0
  0
LINE
  5
7D
330
1F
100
AcDbEntity
  8
0
  6
Continuous
 62
     7
370
    25
100
AcDbLine
 10
245.4727020514
 20
299.2060209524
 30
0.0
 11
242.3120916222
 21
301.7265236622
 31
0.0
  0
LINE
  5
7E
330
1F
100
AcDbEntity
  8
0
  6
Continuous
 62
     7
370
    25
100
AcDbLine
 10
204.8462760492
 20
281.5676638121
 30
0.0
 11
204.8462760492
 21
285.6102362846
 31
0.0
  0
LINE
  5
7F
330
1F
100
AcDbEntity
  8
0
  6
Continuous
 62
     7
370
    25
100
AcDbLine
 10
257.0126414384
 20
341.9663756195
 30
0.0
 11
253.071424698
 21
341.0668186173
 31
0.0
  0
LINE
  5
80
330
1F
100
AcDbEntity
  8
0
  6
Continuous
 62
     7
370
    25
100
AcDbLine
 10
165.7258908397
 20
302.3333468822
 30
0.0
 11
168.8865012688
 21
304.8538495921
 31
0.0
  0
LINE
  5
81
330
1F
100
AcDbEntity
  8
0
  6
Continuous
 62
     7
370
    25
100
AcDbLine
 10
230.77628448
 20
377.6493085969
 30
0.0
 11
229.02227802
 21
374.0070766529
 31
0.0
  0
LINE
  5
82
330
1F
100
AcDbEntity
  8
0
  6
Continuous
 62
     7
370
    25
100
AcDbLine
 10
186.5201430901
 20
379.3848435533
 30
0.0
 11
188.2741495501
 21
375.7426116094
 31
0.0
  0
LINE
  5
83
330
1F
100
AcDbEntity
  8
0
  6
Continuous
 62
     7
370
    25
100
AcDbLine
 10
157.5699943959
 20
345.8660872682
 30
0.0
 11
161.5112111363
 21
344.9665302661
 31
0.0
  0
ARC
  5
84
330
1F
100
AcDbEntity
  8
0
  6
Continuous
 62
     7
370
    25
100
AcDbCircle
 10
206.8462760492
 20
332.5676638121
 30
0.0
 40
32.28988981635912
100
AcDbArc
 50
67.836824457
 51
112.163175543
  0
SPLINE
  5
85
330
1F
100
AcDbEntity
  8
0
  6
Continuous
 62
     7
370
    25
100
AcDbSpline
210
0.0
220
0.0
230
1.0
 70
    24
 71
     3
 72
    14
 73
    10
 74
     0
 42
0.00000001
 43
0.00000001
 40
0.0
 40
0.0
 40
0.0
 40
0.0
 40
0.1599365945527999
 40
0.3204782349631372
 40
0.4327831140154486
 40
0.5446248701610693
 40
0.6577837919875176
 40
0.7712520390670965
 40
1.0
 40
1.0
 40
1.0
 40
1.0
 10
219.0274963397107
 20
362.4717581235261
 30
0.0
 10
219.331673217751
 20
363.1033879191192
 30
0.0
 10
219.9411776858407
 20
364.3690369884133
 30
0.0
 10
220.6403306839269
 20
365.8208431484161
 30
0.0
 10
221.31689690772
 20
367.2257473883208
 30
0.0
 10
222.0071617319447
 20
368.6590970651249
 30
0.0
 10
222.8051437510115
 20
370.3161238017969
 30
0.0
 10
223.9429684531666
 20
372.6788411413705
 30
0.0
 10
224.8272927045104
 20
374.5151593707938
 30
0.0
 10
225.4184025484107
 20
375.7426116093774
 30
0.0
  0
SPLINE
  5
86
330
1F
100
AcDbEntity
  8
0
  6
Continuous
 62
     7
370
    25
100
AcDbSpline
210
0.0
220
0.0
230
1.0
 70
    24
 71
     3
 72
    13
 73
     9
 74
     0
 42
0.00000001
 43
0.00000001
 40
0.0
 40
0.0
 40
0.0
 40
0.0
 40
0.1649272304777213
 40
0.3291782252303421
 40
0.5219202432989429
 40
0.682045321098321
 40
0.8413177176945064
 40
1.0
 40
1.0
 40
1.0
 40
1.0
 10
188.274149550076
 20
375.7426116093771
 30
0.0
 10
188.6989849902437
 20
374.8604317278466
 30
0.0
 10
189.5469139574874
 20
373.0996890845911
 30
0.0
 10
190.8707438630109
 20
370.3507279603484
 30
0.0
 10
192.0780381820445
 20
367.8437554749152
 30
0.0
 10
192.9854407056347
 20
365.9595147193763
 30
0.0
 10
193.7586352347089
 20
364.3539597360415
 30
0.0
 10
194.3632896575417
 20
363.0983818894973
 30
0.0
 10
194.6650557587756
 20
362.4717581235251
 30
0.0
  0
ARC
  5
87
330
1F
100
AcDbEntity
  8
0
  6
Continuous
 62
     7
370
    25
100
AcDbCircle
 10
206.8462760492
 20
332.5676638121
 30
0.0
 40
32.28988981635871
100
AcDbArc
 50
119.2653958855
 51
163.5917469716
  0
SPLINE
  5
88
330
1F
100
AcDbEntity
  8
0
  6
Continuous
 62
     7
370
    25
100
AcDbSpline
210
0.0
220
0.0
230
1.0
 70
    24
 71
     3
 72
    14
 73
    10
 74
     0
 42
0.00000001
 43
0.00000001
 40
0.0
 40
0.0
 40
0.0
 40
0.0
 40
0.1599365945527853
 40
0.3204782349631101
 40
0.4327831140154274
 40
0.5446248701610529
 40
0.6577837919875059
 40
0.7712520390670873
 40
1.0
 40
1.0
 40
1.0
 40
1.0
 10
191.0611802871659
 20
360.736223167055
 30
0.0
 10
190.7570034091256
 20
361.367852962648
 30
0.0
 10
190.1474989410362
 20
362.6335020319419
 30
0.0
 10
189.4483459429504
 20
364.0853081919441
 30
0.0
 10
188.7717797191573
 20
365.4902124318489
 30
0.0
 10
188.0815148949324
 20
366.923562108653
 30
0.0
 10
187.2835328758657
 20
368.5805888453251
 30
0.0
 10
186.1457081737106
 20
370.9433061848986
 30
0.0
 10
185.2613839223667
 20
372.7796244143219
 30
0.0
 10
184.6702740784664
 20
374.0070766529054
 30
0.0
  0
SPLINE
  5
89
330
1F
100
AcDbEntity
  8
0
  6
Continuous
 62
     7
370
    25
100
AcDbSpline
210
0.0
220
0.0
230
1.0
 70
    24
 71
     3
 72
    13
 73
     9
 74
     0
 42
0.00000001
 43
0.00000001
 40
0.0
 40
0.0
 40
0.0
 40
0.0
 40
0.1649272304776621
 40
0.3291782252302111
 40
0.5219202432988935
 40
0.6820453210982919
 40
0.8413177176944918
 40
1.0
 40
1.0
 40
1.0
 40
1.0
 10
161.511211136344
 20
344.9665302660514
 30
0.0
 10
162.4658077053369
 20
344.7486498285032
 30
0.0
 10
164.3710868001343
 20
344.3137823082232
 30
0.0
 10
167.3457055966383
 20
343.6348449791221
 30
0.0
 10
170.0584713071883
 20
343.0156739081388
 30
0.0
 10
172.097386270059
 20
342.5503048730276
 30
0.0
 10
173.8347386065946
 20
342.1537655394968
 30
0.0
 10
175.1933847619977
 20
341.8436634205208
 30
0.0
 10
175.8714470365637
 20
341.6889001311211
 30
0.0
  0
ARC
  5
8A
330
1F
100
AcDbEntity
  8
0
  6
Continuous
 62
     7
370
    25
100
AcDbCircle
 10
206.8462760492
 20
332.5676638121
 30
0.0
 40
32.28988981635902
100
AcDbArc
 50
16.4082530284
 51
60.7346041145
  0
SPLINE
  5
8B
330
1F
100
AcDbEntity
  8
0
  6
Continuous
 62
     7
370
    25
100
AcDbSpline
210
0.0
220
0.0
230
1.0
 70
    24
 71
     3
 72
    14
 73
    10
 74
     0
 42
0.00000001
 43
0.00000001
 40
0.0
 40
0.0
 40
0.0
 40
0.0
 40
0.1599365945527867
 40
0.3204782349631098
 40
0.4327831140154751
 40
0.5446248701611391
 40
0.6577837919875538
 40
0.7712520390671129
 40
1.0
 40
1.0
 40
1.0
 40
1.0
 10
237.8211050619235
 20
341.6889001311221
 30
0.0
 10
238.5045843028024
 20
341.8448998077338
 30
0.0
 10
239.874128410974
 20
342.1574893133135
 30
0.0
 10
241.4451109375513
 20
342.5160558233856
 30
0.0
 10
242.9653414429781
 20
342.8630385158182
 30
0.0
 10
244.5163524241743
 20
343.2170466509835
 30
0.0
 10
246.3094017451515
 20
343.6262984577571
 30
0.0
 10
248.8660706434999
 20
344.2098414499822
 30
0.0
 10
250.8531291993421
 20
344.6633745985841
 30
0.0
 10
252.1813409621427
 20
344.9665302660514
 30
0.0
  0
SPLINE
  5
8C
330
1F
100
AcDbEntity
  8
0
  6
Continuous
 62
     7
370
    25
100
AcDbSpline
210
0.0
220
0.0
230
1.0
 70
    24
 71
     3
 72
    13
 73
     9
 74
     0
 42
0.00000001
 43
0.00000001
 40
0.0
 40
0.0
 40
0.0
 40
0.0
 40
0.1649272304776908
 40
0.3291782252302932
 40
0.5219202432988984
 40
0.6820453210982779
 40
0.8413177176944855
 40
1.0
 40
1.0
 40
1.0
 40
1.0
 10
229.0222780200205
 20
374.0070766529072
 30
0.0
 10
228.5974425798528
 20
373.1248967713768
 30
0.0
 10
227.749513612609
 20
371.3641541281216
 30
0.0
 10
226.4256837070856
 20
368.6151930038798
 30
0.0
 10
225.2183893880522
 20
366.1082205184466
 30
0.0
 10
224.3109868644619
 20
364.2239797629078
 30
0.0
 10
223.5377923353877
 20
362.6184247795724
 30
0.0
 10
222.9331379125549
 20
361.3628469330278
 30
0.0
 10
222.6313718113211
 20
360.7362231670555
 30
0.0
  0
ARC
  5
8D
330
1F
100
AcDbEntity
  8
0
  6
Continuous
 62
     7
370
    25
100
AcDbCircle
 10
206.8462760492
 20
332.5676638121
 30
0.0
 40
32.28988981635801
100
AcDbArc
 50
324.9796815998
 51
9.3060326859
  0
SPLINE
  5
8E
330
1F
100
AcDbEntity
  8
0
  6
Continuous
 62
     7
370
    25
100
AcDbSpline
210
0.0
220
0.0
230
1.0
 70
    24
 71
     3
 72
    14
 73
    10
 74
     0
 42
0.00000001
 43
0.00000001
 40
0.0
 40
0.0
 40
0.0
 40
0.0
 40
0.1599365945527895
 40
0.3204782349631162
 40
0.4327831140154241
 40
0.5446248701610402
 40
0.6577837919874912
 40
0.7712520390670728
 40
1.0
 40
1.0
 40
1.0
 40
1.0
 10
233.290035766224
 20
314.0375651511704
 30
0.0
 10
233.838143561124
 20
313.6004637704985
 30
0.0
 10
234.936432662316
 20
312.7246074389983
 30
0.0
 10
236.1962628326677
 20
311.7199264036315
 30
0.0
 10
237.4153930420918
 20
310.7477025040334
 30
0.0
 10
238.6592072765613
 20
309.755793751331
 30
0.0
 10
240.0971211892115
 20
308.6090956704888
 30
0.0
 10
242.1474104567561
 20
306.9740445401112
 30
0.0
 10
243.74090769594
 20
305.7032728966045
 30
0.0
 10
244.8060508296698
 20
304.8538495921042
 30
0.0
  0
SPLINE
  5
8F
330
1F
100
AcDbEntity
  8
0
  6
Continuous
 62
     7
370
    25
100
AcDbSpline
210
0.0
220
0.0
230
1.0
 70
    24
 71
     3
 72
    13
 73
     9
 74
     0
 42
0.00000001
 43
0.00000001
 40
0.0
 40
0.0
 40
0.0
 40
0.0
 40
0.164927230477691
 40
0.3291782252302817
 40
0.5219202432987834
 40
0.6820453210981745
 40
0.8413177176944362
 40
1.0
 40
1.0
 40
1.0
 40
1.0
 10
253.0714246979682
 20
341.066818617323
 30
0.0
 10
252.1168281289751
 20
340.8489381797751
 30
0.0
 10
250.2115490341771
 20
340.4140706594955
 30
0.0
 10
247.2369302376751
 20
339.7351333303957
 30
0.0
 10
244.5241645271219
 20
339.1159622594123
 30
0.0
 10
242.4852495642528
 20
338.6505932243012
 30
0.0
 10
240.7478972277178
 20
338.2540538907706
 30
0.0
 10
239.3892510723148
 20
337.9439517717946
 30
0.0
 10
238.711188797749
 20
337.7891884823948
 30
0.0
  0
ARC
  5
90
330
1F
100
AcDbEntity
  8
0
  6
Continuous
 62
     7
370
    25
100
AcDbCircle
 10
206.8462760492
 20
332.5676638121
 30
0.0
 40
32.28988981635814
100
AcDbArc
 50
170.6939673141
 51
215.0203184002
  0
SPLINE
  5
91
330
1F
100
AcDbEntity
  8
0
  6
Continuous
 62
     7
370
    25
100
AcDbSpline
210
0.0
220
0.0
230
1.0
 70
    24
 71
     3
 72
    14
 73
    10
 74
     0
 42
0.00000001
 43
0.00000001
 40
0.0
 40
0.0
 40
0.0
 40
0.0
 40
0.1599365945527995
 40
0.3204782349631336
 40
0.4327831140154536
 40
0.5446248701610836
 40
0.6577837919875436
 40
0.7712520390671171
 40
1.0
 40
1.0
 40
1.0
 40
1.0
 10
174.9813633007386
 20
337.7891884823937
 30
0.0
 10
174.2978840598596
 20
337.9451881590055
 30
0.0
 10
172.9283399516878
 20
338.2577776645851
 30
0.0
 10
171.3573574251108
 20
338.6163441746572
 30
0.0
 10
169.8371269196831
 20
338.9633268670898
 30
0.0
 10
168.2861159384856
 20
339.3173350022554
 30
0.0
 10
166.4930666175102
 20
339.7265868090279
 30
0.0
 10
163.9363977191622
 20
340.3101298012521
 30
0.0
 10
161.9493391633198
 20
340.7636629498547
 30
0.0
 10
160.621127400519
 20
341.0668186173225
 30
0.0
  0
SPLINE
  5
92
330
1F
100
AcDbEntity
  8
0
  6
Continuous
 62
     7
370
    25
100
AcDbSpline
210
0.0
220
0.0
230
1.0
 70
    24
 71
     3
 72
    13
 73
     9
 74
     0
 42
0.00000001
 43
0.00000001
 40
0.0
 40
0.0
 40
0.0
 40
0.0
 40
0.1649272304777342
 40
0.329178225230366
 40
0.5219202432989998
 40
0.6820453210983972
 40
0.8413177176945424
 40
1.0
 40
1.0
 40
1.0
 40
1.0
 10
168.8865012688181
 20
304.8538495921027
 30
0.0
 10
169.6520282799636
 20
305.464337011962
 30
0.0
 10
171.1799434833222
 20
306.6828087271094
 30
0.0
 10
173.5654025458725
 20
308.5851488497616
 30
0.0
 10
175.7408717375614
 20
310.3200276384679
 30
0.0
 10
177.3759545863827
 20
311.6239626990209
 30
0.0
 10
178.7692029854398
 20
312.7350412213715
 30
0.0
 10
179.8587526070635
 20
313.603928050483
 30
0.0
 10
180.4025163322634
 20
314.0375651511694
 30
0.0
  0
ARC
  5
93
330
1F
100
AcDbEntity
  8
0
  6
Continuous
 62
     7
370
    25
100
AcDbCircle
 10
206.8462760492
 20
332.5676638121
 30
0.0
 40
32.28988981635762
100
AcDbArc
 50
222.1225387427
 51
266.4488898288
  0
SPLINE
  5
94
330
1F
100
AcDbEntity
  8
0
  6
Continuous
 62
     7
370
    25
100
AcDbSpline
210
0.0
220
0.0
230
1.0
 70
    24
 71
     3
 72
    14
 73
    10
 74
     0
 42
0.00000001
 43
0.00000001
 40
0.0
 40
0.0
 40
0.0
 40
0.0
 40
0.1599365945528448
 40
0.3204782349632324
 40
0.4327831140154873
 40
0.5446248701610613
 40
0.6577837919874908
 40
0.7712520390670489
 40
1.0
 40
1.0
 40
1.0
 40
1.0
 10
182.8964755396984
 20
310.9102392212981
 30
0.0
 10
182.3483677447983
 20
310.4731378406262
 30
0.0
 10
181.2500786436062
 20
309.597281509126
 30
0.0
 10
179.9902484732554
 20
308.5926004737599
 30
0.0
 10
178.7711182638302
 20
307.620376574161
 30
0.0
 10
177.5273040293602
 20
306.6284678214586
 30
0.0
 10
176.0893901167111
 20
305.4817697406162
 30
0.0
 10
174.0391008491671
 20
303.8467186102379
 30
0.0
 10
172.4456036099831
 20
302.5759469667311
 30
0.0
 10
171.3804604762531
 20
301.7265236622306
 30
0.0
  0
SPLINE
  5
95
330
1F
100
AcDbEntity
  8
0
  6
Continuous
 62
     7
370
    25
100
AcDbSpline
210
0.0
220
0.0
230
1.0
 70
    24
 71
     3
 72
    13
 73
     9
 74
     0
 42
0.00000001
 43
0.00000001
 40
0.0
 40
0.0
 40
0.0
 40
0.0
 40
0.1649272304776985
 40
0.3291782252302956
 40
0.5219202432988981
 40
0.6820453210982749
 40
0.8413177176944834
 40
1.0
 40
1.0
 40
1.0
 40
1.0
 10
204.8462760492438
 20
285.6102362845849
 30
0.0
 10
204.8462760492438
 20
286.5893820830233
 30
0.0
 10
204.8462760492439
 20
288.5436589797982
 30
0.0
 10
204.8462760492443
 20
291.5947756411788
 30
0.0
 10
204.8462760492435
 20
294.3773051765996
 30
0.0
 10
204.8462760492437
 20
296.4686546367931
 30
0.0
 10
204.8462760492436
 20
298.2506862258239
 30
0.0
 10
204.8462760492436
 20
299.6442724986413
 30
0.0
 10
204.8462760492436
 20
300.3397724080124
 30
0.0
  0
ARC
  5
96
330
1F
100
AcDbEntity
  8
0
  6
Continuous
 62
     7
370
    25
100
AcDbCircle
 10
206.8462760492
 20
332.5676638121
 30
0.0
 40
32.289889816358
100
AcDbArc
 50
273.5511101712
 51
317.8774612573
  0
SPLINE
  5
97
330
1F
100
AcDbEntity
  8
0
  6
Continuous
 62
     7
370
    25
100
AcDbSpline
210
0.0
220
0.0
230
1.0
 70
    24
 71
     3
 72
    14
 73
    10
 74
     0
 42
0.00000001
 43
0.00000001
 40
0.0
 40
0.0
 40
0.0
 40
0.0
 40
0.1599365945527992
 40
0.3204782349631339
 40
0.4327831140154401
 40
0.5446248701610555
 40
0.6577837919874997
 40
0.7712520390670727
 40
0.9999999999999999
 40
0.9999999999999999
 40
0.9999999999999999
 40
0.9999999999999999
 10
208.8462760492437
 20
300.3397724080124
 30
0.0
 10
208.8462760492437
 20
299.6387162249462
 30
0.0
 10
208.8462760492437
 20
298.2339517381988
 30
0.0
 10
208.8462760492437
 20
296.6225684687824
 30
0.0
 10
208.8462760492437
 20
295.0632424033042
 30
0.0
 10
208.8462760492438
 20
293.4723442847696
 30
0.0
 10
208.8462760492438
 20
291.633183359565
 30
0.0
 10
208.8462760492438
 20
289.0107649567244
 30
0.0
 10
208.8462760492438
 20
286.9726054876867
 30
0.0
 10
208.8462760492438
 20
285.6102362845849
 30
0.0
  0
SPLINE
  5
98
330
1F
100
AcDbEntity
  8
0
  6
Continuous
 62
     7
370
    25
100
AcDbSpline
210
0.0
220
0.0
230
1.0
 70
    24
 71
     3
 72
    13
 73
     9
 74
     0
 42
0.00000001
 43
0.00000001
 40
0.0
 40
0.0
 40
0.0
 40
0.0
 40
0.1649272304776918
 40
0.3291782252302829
 40
0.5219202432989019
 40
0.6820453210982675
 40
0.8413177176944807
 40
1.0
 40
1.0
 40
1.0
 40
1.0
 10
242.3120916222345
 20
301.7265236622321
 30
0.0
 10
241.5465646110891
 20
302.3370110820912
 30
0.0
 10
240.0186494077305
 20
303.5554827972382
 30
0.0
 10
237.6331903451803
 20
305.4578229198898
 30
0.0
 10
235.4577211534913
 20
307.1927017085957
 30
0.0
 10
233.8226383046692
 20
308.4966367691479
 30
0.0
 10
232.4293899056128
 20
309.6077152914991
 30
0.0
 10
231.339840283989
 20
310.4766021206111
 30
0.0
 10
230.796076558789
 20
310.9102392212977
 30
0.0
  0
CIRCLE
  5
99
330
1F
100
AcDbEntity
  8
0
  6
Continuous
 62
     7
370
    25
100
AcDbCircle
 10
206.8462760492
 20
332.5676638121
 30
0.0
 40
57.00000000000216
  0
SPLINE
  5
9A
330
1F
100
AcDbEntity
  8
0
  6
Continuous
 62
     7
370
    25
100
AcDbSpline
210
0.0
220
0.0
230
1.0
 70
     8
 71
     3
 72
    17
 73
    13
 74
     0
 42
0.00000001
 43
0.00000001
 40
0.0
 40
0.0
 40
0.0
 40
0.0
 40
0.145522392150546
 40
0.2624588275807649
 40
0.3598828361522715
 40
0.4578119450664813
 40
0.5434089571658541
 40
0.623966182957425
 40
0.7083342836252747
 40
0.8033999298611141
 40
0.9148734637124031
 40
1.0
 40
1.0
 40
1.0
 40
1.0
 10
229.8360724020357
 20
311.6758169895248
 30
0.0
 10
229.6407316526816
 20
311.8722231173181
 30
0.0
 10
229.2884222706232
 20
312.2264539766966
 30
0.0
 10
229.0689065806128
 20
312.9384508768892
 30
0.0
 10
229.0824091409222
 20
313.619679897575
 30
0.0
 10
229.3087669707096
 20
314.2362026873882
 30
0.0
 10
229.7018867781135
 20
314.7250529823149
 30
0.0
 10
230.1815207050428
 20
315.0538854481525
 30
0.0
 10
230.728144823137
 20
315.2361120258601
 30
0.0
 10
231.3336991828283
 20
315.2550343489067
 30
0.0
 10
231.8931339808794
 20
315.1042143236094
 30
0.0
 10
232.1980185834169
 20
314.894114681493
 30
0.0
 10
232.3300316094708
 20
314.8031429193976
 30
0.0
  0
SPLINE
  5
9B
330
1F
100
AcDbEntity
  8
0
  6
Continuous
 62
     7
370
    25
100
AcDbSpline
210
0.0
220
0.0
230
1.0
 70
     8
 71
     3
 72
    17
 73
    13
 74
     0
 42
0.00000001
 43
0.00000001
 40
0.0
 40
0.0
 40
0.0
 40
0.0
 40
0.1455223921505327
 40
0.2624588275806872
 40
0.3598828361521922
 40
0.4578119450664043
 40
0.5434089571657764
 40
0.6239661829574317
 40
0.7083342836252549
 40
0.8033999298610958
 40
0.9148734637124017
 40
1.0
 40
1.0
 40
1.0
 40
1.0
 10
204.846276049244
 20
301.5676638120816
 30
0.0
 10
204.8780395781925
 20
301.8428445774373
 30
0.0
 10
204.9353271093035
 20
302.3391504722255
 30
0.0
 10
205.3551229072239
 20
302.9546975557961
 30
0.0
 10
205.8961479110188
 20
303.3688801761801
 30
0.0
 10
206.5192966361969
 20
303.5763021706111
 30
0.0
 10
207.14660137781
 20
303.5737419023233
 30
0.0
 10
207.7027398141244
 20
303.4037726871603
 30
0.0
 10
208.1860248526009
 20
303.0900211553862
 30
0.0
 10
208.5783758882185
 20
302.6283775680809
 30
0.0
 10
208.8092619356447
 20
302.0969590828875
 30
0.0
 10
208.8350918614088
 20
301.7275957178701
 30
0.0
 10
208.846276049244
 20
301.5676638120817
 30
0.0
  0
SPLINE
  5
9C
330
1F
100
AcDbEntity
  8
0
  6
Continuous
 62
     7
370
    25
100
AcDbSpline
210
0.0
220
0.0
230
1.0
 70
     8
 71
     3
 72
    17
 73
    13
 74
     0
 42
0.00000001
 43
0.00000001
 40
0.0
 40
0.0
 40
0.0
 40
0.0
 40
0.1455223921505158
 40
0.2624588275809515
 40
0.3598828361524624
 40
0.4578119450666524
 40
0.5434089571660058
 40
0.6239661829576382
 40
0.7083342836254432
 40
0.8033999298612791
 40
0.9148734637124217
 40
1.0
 40
1.0
 40
1.0
 40
1.0
 10
181.3625204890158
 20
314.8031429193966
 30
0.0
 10
181.5974697111113
 20
314.9498815933371
 30
0.0
 10
182.0212154760135
 20
315.2145340619645
 30
0.0
 10
182.7642079637557
 20
315.2701118201126
 30
0.0
 10
183.4253525482809
 20
315.1053600792599
 30
0.0
 10
183.9760484688732
 20
314.7474882858647
 30
0.0
 10
184.3651648795756
 20
314.2554453886027
 30
0.0
 10
184.5790242395744
 20
313.7146647781974
 30
0.0
 10
184.6350467072421
 20
313.1411964397321
 30
0.0
 10
184.5187460864623
 20
312.5466139791292
 30
0.0
 10
184.2472214803351
 20
312.0347659923522
 30
0.0
 10
183.9745462683909
 20
311.7842770519316
 30
0.0
 10
183.8564796964517
 20
311.6758169895252
 30
0.0
  0
SPLINE
  5
9D
330
1F
100
AcDbEntity
  8
0
  6
Continuous
 62
     7
370
    25
100
AcDbSpline
210
0.0
220
0.0
230
1.0
 70
     8
 71
     3
 72
    17
 73
    13
 74
     0
 42
0.00000001
 43
0.00000001
 40
0.0
 40
0.0
 40
0.0
 40
0.0
 40
0.1455223921505682
 40
0.2624588275806753
 40
0.3598828361521985
 40
0.4578119450664239
 40
0.5434089571658092
 40
0.6239661829574761
 40
0.7083342836253127
 40
0.8033999298611666
 40
0.9148734637123873
 40
1.0
 40
1.0
 40
1.0
 40
1.0
 10
177.0685526395189
 20
341.4156685890907
 30
0.0
 10
177.3297659984323
 20
341.3234679572155
 30
0.0
 10
177.8008807933147
 20
341.1571782928789
 30
0.0
 10
178.3075814733248
 20
340.6109355401392
 30
0.0
 10
178.5909902815397
 20
339.9913108592351
 30
0.0
 10
178.6545481371906
 20
339.3376300376946
 30
0.0
 10
178.5124636231952
 20
338.7266228489426
 30
0.0
 10
178.2230034468634
 20
338.2222496728444
 30
0.0
 10
177.8095772829182
 20
337.8208978831745
 30
0.0
 10
177.2722017452902
 20
337.5411092693795
 30
0.0
 10
176.7027300521156
 20
337.4342637548577
 30
0.0
 10
176.3368796986179
 20
337.4912725202136
 30
0.0
 10
176.1784689036936
 20
337.5159569403634
 30
0.0
  0
SPLINE
  5
9E
330
1F
100
AcDbEntity
  8
0
  6
Continuous
 62
     7
370
    25
100
AcDbSpline
210
0.0
220
0.0
230
1.0
 70
     8
 71
     3
 72
    17
 73
    13
 74
     0
 42
0.00000001
 43
0.00000001
 40
0.0
 40
0.0
 40
0.0
 40
0.0
 40
0.1455223921505354
 40
0.2624588275806759
 40
0.359882836152184
 40
0.457811945066473
 40
0.5434089571658375
 40
0.6239661829574826
 40
0.7083342836252993
 40
0.803399929861131
 40
0.914873463712411
 40
1.0
 40
1.0
 40
1.0
 40
1.0
 10
195.1978178724035
 20
361.3654661952938
 30
0.0
 10
195.2885963810917
 20
361.103755213955
 30
0.0
 10
195.4523211564182
 20
360.631742925591
 30
0.0
 10
195.3411740818384
 20
359.8950115960982
 30
0.0
 10
195.0334345006717
 20
359.2871039979031
 30
0.0
 10
194.5619939297327
 20
358.8298491394964
 30
0.0
 10
193.9957010280736
 20
358.5599785346596
 30
0.0
 10
193.4208907321005
 20
358.4718160818084
 30
0.0
 10
192.8493342703503
 20
358.5448069246398
 30
0.0
 10
192.2955385561698
 20
358.7904986904882
 30
0.0
 10
191.8569435760142
 20
359.1691124999082
 30
0.0
 10
191.6734108591338
 20
359.4906902079608
 30
0.0
 10
191.5939424007937
 20
359.6299312388236
 30
0.0
  0
SPLINE
  5
9F
330
1F
100
AcDbEntity
  8
0
  6
Continuous
 62
     7
370
    25
100
AcDbSpline
210
0.0
220
0.0
230
1.0
 70
     8
 71
     3
 72
    17
 73
    13
 74
     0
 42
0.00000001
 43
0.00000001
 40
0.0
 40
0.0
 40
0.0
 40
0.0
 40
0.1455223921505319
 40
0.2624588275806776
 40
0.3598828361521774
 40
0.4578119450663767
 40
0.5434089571657444
 40
0.6239661829574682
 40
0.7083342836252928
 40
0.8033999298611253
 40
0.9148734637124056
 40
1.0
 40
1.0
 40
1.0
 40
1.0
 10
222.0986096976933
 20
359.6299312388246
 30
0.0
 10
221.95059528757
 20
359.3957836149014
 30
0.0
 10
221.683641948143
 20
358.9734835829442
 30
0.0
 10
221.038343133118
 20
358.6010373943863
 30
0.0
 10
220.3711893439322
 20
358.4626136993968
 30
0.0
 10
219.7197547119547
 20
358.5461070388027
 30
0.0
 10
219.1556835278516
 20
358.8205910876811
 30
0.0
 10
218.7283669890975
 20
359.2150274832594
 30
0.0
 10
218.4290739028671
 20
359.7073973651985
 30
0.0
 10
218.2758774802859
 20
360.2935585998079
 30
0.0
 10
218.2984301789148
 20
360.8725278123621
 30
0.0
 10
218.4354189778478
 20
361.2165198899581
 30
0.0
 10
218.4947342260831
 20
361.3654661952947
 30
0.0
  0
SPLINE
  5
A0
330
1F
100
AcDbEntity
  8
0
  6
Continuous
 62
     7
370
    25
100
AcDbSpline
210
0.0
220
0.0
230
1.0
 70
     8
 71
     3
 72
    17
 73
    13
 74
     0
 42
0.00000001
 43
0.00000001
 40
0.0
 40
0.0
 40
0.0
 40
0.0
 40
0.1455223921505263
 40
0.262458827580708
 40
0.3598828361521985
 40
0.4578119450664116
 40
0.5434089571657886
 40
0.623966182957444
 40
0.7083342836252623
 40
0.8033999298611063
 40
0.9148734637124192
 40
1.0
 40
1.0
 40
1.0
 40
1.0
 10
237.5140831947936
 20
337.5159569403644
 30
0.0
 10
237.2387337356255
 20
337.4856906104122
 30
0.0
 10
236.7421235908893
 20
337.4311033722763
 30
0.0
 10
236.0485962048298
 20
337.7034019011551
 30
0.0
 10
235.5244086183388
 20
338.1386979750269
 30
0.0
 10
235.1835234900473
 20
338.7000673247196
 30
0.0
 10
235.0464311300848
 20
339.3122139400527
 30
0.0
 10
235.0883864179013
 20
339.8922305331547
 30
0.0
 10
235.2867305055884
 20
340.4332148905858
 30
0.0
 10
235.6494934054478
 20
340.9184542287852
 30
0.0
 10
236.1162111408018
 20
341.2618032186006
 30
0.0
 10
236.4705660958894
 20
341.3691766151505
 30
0.0
 10
236.6239994589683
 20
341.4156685890917
 30
0.0
  0
SPLINE
  5
A1
330
1F
100
AcDbEntity
  8
0
  6
Continuous
 62
     7
370
    25
100
AcDbSpline
210
0.0
220
0.0
230
1.0
 70
    11
 71
     3
 72
    26
 73
    22
 74
     0
 42
0.00000001
 43
0.00000001
 40
0.0
 40
0.0
 40
0.0
 40
0.0
 40
0.0535972164200102
 40
0.1071921782484029
 40
0.1608597534174747
 40
0.2147094977664153
 40
0.2686478624799117
 40
0.3224381663529177
 40
0.3759329881741663
 40
0.4292427722145628
 40
0.4826449979174897
 40
0.5363313024995329
 40
0.5902427041024136
 40
0.6441475424480743
 40
0.6978798079301014
 40
0.7514722617449169
 40
0.805049235369858
 40
0.8586625397261
 40
0.9122900741654479
 40
0.9659177767677242
 40
1.0
 40
1.0
 40
1.0
 40
1.0
 10
222.2473033326331
 20
337.2857543921277
 30
0.0
 10
222.3653233705269
 20
337.4071832219219
 30
0.0
 10
222.6013584817471
 20
337.6500357735505
 30
0.0
 10
223.0825788819021
 20
337.8397597307412
 30
0.0
 10
223.5923944094831
 20
337.8697577849497
 30
0.0
 10
224.0862218913774
 20
337.726556066917
 30
0.0
 10
224.5048111757762
 20
337.4279223942742
 30
0.0
 10
224.8004935392131
 20
337.007356430611
 30
0.0
 10
224.9397496759137
 20
336.5141975082967
 30
0.0
 10
224.9086853126249
 20
336.0042842090991
 30
0.0
 10
224.7116267506146
 20
335.5331539043058
 30
0.0
 10
224.3693615783276
 20
335.1522677578644
 30
0.0
 10
223.9188022597916
 20
334.9052683513062
 30
0.0
 10
223.4110538021659
 20
334.8216792835437
 30
0.0
 10
222.9048034478797
 20
334.9112139086369
 30
0.0
 10
222.4574474813195
 20
335.1629831584435
 30
0.0
 10
222.1188921662156
 20
335.5481564193246
 30
0.0
 10
221.9263061541735
 20
336.0242598688441
 30
0.0
 10
221.9038686037802
 20
336.5355564438111
 30
0.0
 10
222.028280464726
 20
336.9721473894955
 30
0.0
 10
222.1860121382977
 20
337.1979948447939
 30
0.0
 10
222.2473033326331
 20
337.2857543921277
 30
0.0
  0
SPLINE
  5
A2
330
1F
100
AcDbEntity
  8
0
  6
Continuous
 62
     7
370
    25
100
AcDbSpline
210
0.0
220
0.0
230
1.0
 70
    11
 71
     3
 72
    26
 73
    22
 74
     0
 42
0.00000001
 43
0.00000001
 40
0.0
 40
0.0
 40
0.0
 40
0.0
 40
0.0535972164200158
 40
0.1071921782484089
 40
0.1608597534174786
 40
0.2147094977664225
 40
0.268647862479917
 40
0.3224381663529212
 40
0.3759329881741689
 40
0.4292427722145706
 40
0.4826449979174987
 40
0.5363313024995406
 40
0.5902427041024202
 40
0.6441475424480797
 40
0.6978798079301062
 40
0.7514722617449228
 40
0.8050492353698635
 40
0.8586625397261016
 40
0.9122900741654497
 40
0.9659177767677243
 40
1.0
 40
1.0
 40
1.0
 40
1.0
 10
198.8194268755682
 20
346.5326812645701
 30
0.0
 10
198.6747805910007
 20
346.6207218370945
 30
0.0
 10
198.3854941064781
 20
346.7967992786758
 30
0.0
 10
198.093445312122
 20
347.2237369265503
 30
0.0
 10
197.9507547444202
 20
347.7140951194134
 30
0.0
 10
197.9804791439183
 20
348.2274066953555
 30
0.0
 10
198.1784805683866
 20
348.7019533162033
 30
0.0
 10
198.5227065496092
 20
349.0838070364824
 30
0.0
 10
198.9725135425172
 20
349.3293099150767
 30
0.0
 10
199.4765547218292
 20
349.4124907838064
 30
0.0
 10
199.9797224615096
 20
349.3252092468059
 30
0.0
 10
200.4272201628367
 20
349.0762805180128
 30
0.0
 10
200.768285658946
 20
348.6919802009124
 30
0.0
 10
200.9627636352666
 20
348.2155623746328
 30
0.0
 10
200.9881251318081
 20
347.7020814452902
 30
0.0
 10
200.8422143302325
 20
347.2099176982011
 30
0.0
 10
200.5420338120863
 20
346.7941415579426
 30
0.0
 10
200.1207216893301
 20
346.5004410950601
 30
0.0
 10
199.627237211661
 20
346.3647919095104
 30
0.0
 10
199.1739082690145
 20
346.3889338803623
 30
0.0
 10
198.9186246816312
 20
346.4924551048778
 30
0.0
 10
198.8194268755682
 20
346.5326812645701
 30
0.0
  0
SPLINE
  5
A3
330
1F
100
AcDbEntity
  8
0
  6
Continuous
 62
     7
370
    25
100
AcDbSpline
210
0.0
220
0.0
230
1.0
 70
    11
 71
     3
 72
    26
 73
    22
 74
     0
 42
0.00000001
 43
0.00000001
 40
0.0
 40
0.0
 40
0.0
 40
0.0
 40
0.0535972164200081
 40
0.1071921782483847
 40
0.1608597534174574
 40
0.2147094977663997
 40
0.2686478624798962
 40
0.3224381663529046
 40
0.3759329881741538
 40
0.4292427722145525
 40
0.48264499791748
 40
0.536331302499525
 40
0.5902427041024063
 40
0.6441475424480673
 40
0.6978798079300964
 40
0.7514722617449126
 40
0.8050492353698557
 40
0.8586625397260953
 40
0.9122900741654458
 40
0.965917776767723
 40
1.0
 40
1.0
 40
1.0
 40
1.0
 10
195.0175327155593
 20
321.6345557795485
 30
0.0
 10
194.9638863303362
 20
321.473945208906
 30
0.0
 10
194.8565958165498
 20
321.1527308237788
 30
0.0
 10
194.5053493573566
 20
320.7730017382955
 30
0.0
 10
194.0590371065592
 20
320.5247737579892
 30
0.0
 10
193.5519810223897
 20
320.4395303334434
 30
0.0
 10
193.0452728141961
 20
320.5269708915325
 30
0.0
 10
192.5963954770919
 20
320.7775959622533
 30
0.0
 10
192.2569563960673
 20
321.1614958249
 30
0.0
 10
192.0637013314102
 20
321.6343901549035
 30
0.0
 10
192.0368291826798
 20
322.1443643979579
 30
0.0
 10
192.1799391420815
 20
322.6360342508384
 30
0.0
 10
192.4787100351485
 20
323.0540633883584
 30
0.0
 10
192.8999076509246
 20
323.3496783354352
 30
0.0
 10
193.394871077417
 20
323.4886642222742
 30
0.0
 10
193.9071634596589
 20
323.4559284457911
 30
0.0
 10
194.3793116732696
 20
323.2557929750042
 30
0.0
 10
194.7593992193973
 20
322.9103985280926
 30
0.0
 10
195.0014580235183
 20
322.4594715200436
 30
0.0
 10
195.0787965219869
 20
322.012136386556
 30
0.0
 10
195.0346767329917
 20
321.7402176521306
 30
0.0
 10
195.0175327155593
 20
321.6345557795484
 30
0.0
  0
SPLINE
  5
A4
330
1F
100
AcDbEntity
  8
0
  6
Continuous
 62
     7
370
    25
100
AcDbSpline
210
0.0
220
0.0
230
1.0
 70
    11
 71
     3
 72
    26
 73
    22
 74
     0
 42
0.00000001
 43
0.00000001
 40
0.0
 40
0.0
 40
0.0
 40
0.0
 40
0.0564885541921862
 40
0.1128994301864879
 40
0.1712256558511233
 40
0.2300375349558732
 40
0.2867064896554816
 40
0.3395363008404508
 40
0.3890615100951885
 40
0.4374690463182066
 40
0.4871682267512827
 40
0.5398630249433498
 40
0.5960305847835521
 40
0.6545948261960546
 40
0.7132408736151625
 40
0.769672073102853
 40
0.8229238449445883
 40
0.8735646339153555
 40
0.9230009993633872
 40
0.97280279221983
 40
0.9999999999999999
 40
0.9999999999999999
 40
0.9999999999999999
 40
0.9999999999999999
 10
229.4627144591399
 20
338.5316560288925
 30
0.0
 10
229.5452792979558
 20
338.6156913125247
 30
0.0
 10
229.7102954395272
 20
338.7836463216997
 30
0.0
 10
230.0445336396771
 20
338.9075294729874
 30
0.0
 10
230.4003721368177
 20
338.9180110764405
 30
0.0
 10
230.744093449935
 20
338.799565648764
 30
0.0
 10
231.0215843847505
 20
338.5700078154701
 30
0.0
 10
231.1967939834132
 20
338.2698778508129
 30
0.0
 10
231.2608249760751
 20
337.9450189689406
 30
0.0
 10
231.2212757588983
 20
337.6267902485541
 30
0.0
 10
231.0854792669705
 20
337.3359639254884
 30
0.0
 10
230.8586947715684
 20
337.0954507850628
 30
0.0
 10
230.5532704152365
 20
336.9355456586841
 30
0.0
 10
230.1988966322983
 20
336.8874865285423
 30
0.0
 10
229.8441999789165
 20
336.9680660091213
 30
0.0
 10
229.5433457673052
 20
337.1664616257382
 30
0.0
 10
229.3356261200711
 20
337.4473245357689
 30
0.0
 10
229.2361616461675
 20
337.7692407697962
 30
0.0
 10
229.245557145781
 20
338.0959831984876
 30
0.0
 10
229.335830255314
 20
338.3548539823457
 30
0.0
 10
229.4295952496417
 20
338.4855073055469
 30
0.0
 10
229.4627144591399
 20
338.5316560288925
 30
0.0
  0
SPLINE
  5
A5
330
1F
100
AcDbEntity
  8
0
  6
Continuous
 62
     7
370
    25
100
AcDbSpline
210
0.0
220
0.0
230
1.0
 70
    11
 71
     3
 72
    26
 73
    22
 74
     0
 42
0.00000001
 43
0.00000001
 40
0.0
 40
0.0
 40
0.0
 40
0.0
 40
0.0564885541921726
 40
0.1128994301864596
 40
0.1712256558510509
 40
0.2300375349559336
 40
0.286706489655527
 40
0.3395363008404808
 40
0.3890615100952074
 40
0.4374690463182113
 40
0.4871682267512771
 40
0.5398630249433294
 40
0.596030584783526
 40
0.654594826196136
 40
0.71324087361523
 40
0.769672073102906
 40
0.8229238449446303
 40
0.8735646339153853
 40
0.9230009993634051
 40
0.9728027922198355
 40
1.0
 40
1.0
 40
1.0
 40
1.0
 10
195.999182571304
 20
353.2899477738383
 30
0.0
 10
195.8988818226377
 20
353.3517429299655
 30
0.0
 10
195.6984182502619
 20
353.4752482668398
 30
0.0
 10
195.5032661117612
 20
353.7735398229572
 30
0.0
 10
195.4138657892691
 20
354.1181243298593
 30
0.0
 10
195.4528563551656
 20
354.4795844192174
 30
0.0
 10
195.6149111523244
 20
354.8011995004086
 30
0.0
 10
195.8685284286182
 20
355.0388014286708
 30
0.0
 10
196.1709941837864
 20
355.1735149324596
 30
0.0
 10
196.4900447744926
 20
355.2057698488013
 30
0.0
 10
196.8037970366582
 20
355.1380930034721
 30
0.0
 10
197.0887443082295
 20
354.9705136774909
 30
0.0
 10
197.3126035922612
 20
354.7083291855084
 30
0.0
 10
197.4383133648202
 20
354.373534455702
 30
0.0
 10
197.4386816106365
 20
354.0098001666858
 30
0.0
 10
197.3122065464946
 20
353.6723418203862
 30
0.0
 10
197.0846074259127
 20
353.4073322613353
 30
0.0
 10
196.7928952316034
 20
353.2387284684048
 30
0.0
 10
196.4722542224292
 20
353.1751813728313
 30
0.0
 10
196.1997862129531
 20
353.2055869784364
 30
0.0
 10
196.0515439672347
 20
353.2679279890888
 30
0.0
 10
195.999182571304
 20
353.2899477738383
 30
0.0
  0
SPLINE
  5
A6
330
1F
100
AcDbEntity
  8
0
  6
Continuous
 62
     7
370
    25
100
AcDbSpline
210
0.0
220
0.0
230
1.0
 70
    11
 71
     3
 72
    26
 73
    22
 74
     0
 42
0.00000001
 43
0.00000001
 40
0.0
 40
0.0
 40
0.0
 40
0.0
 40
0.0564885541921739
 40
0.1128994301864725
 40
0.1712256558510602
 40
0.2300375349559414
 40
0.2867064896555369
 40
0.3395363008404913
 40
0.3890615100952062
 40
0.4374690463182119
 40
0.4871682267512761
 40
0.5398630249433329
 40
0.5960305847835211
 40
0.6545948261961383
 40
0.7132408736152325
 40
0.7696720731029085
 40
0.8229238449446326
 40
0.8735646339153879
 40
0.9230009993634058
 40
0.9728027922198373
 40
1.0
 40
1.0
 40
1.0
 40
1.0
 10
189.0572483821924
 20
317.3813876335154
 30
0.0
 10
189.0193215759161
 20
317.2698509181724
 30
0.0
 10
188.9435201170431
 20
317.0469308631777
 30
0.0
 10
188.6961327891388
 20
316.790295480573
 30
0.0
 10
188.3800811785115
 20
316.6264593445145
 30
0.0
 10
188.0190074311178
 20
316.584039898847
 30
0.0
 10
187.66939532667
 20
316.6704655556589
 30
0.0
 10
187.3813154216307
 20
316.8648527143425
 30
0.0
 10
187.1826745043092
 20
317.1297584468556
 30
0.0
 10
187.0802328506395
 20
317.4336323790241
 30
0.0
 10
187.0763964497512
 20
317.7545777317494
 30
0.0
 10
187.1763674791567
 20
318.0696706884334
 30
0.0
 10
187.382165081574
 20
318.3462588908617
 30
0.0
 10
187.6805927525164
 20
318.5433156929238
 30
0.0
 10
188.0351255210929
 20
318.6246131997524
 30
0.0
 10
188.3922664314942
 20
318.5764006759154
 30
0.0
 10
188.7012772164874
 20
318.4134781150594
 30
0.0
 10
188.9305658302393
 20
318.1665976279751
 30
0.0
 10
189.063869004278
 20
317.8681363173981
 30
0.0
 10
189.0948555666288
 20
317.5957337660265
 30
0.0
 10
189.0670645782391
 20
317.437336082997
 30
0.0
 10
189.0572483821924
 20
317.3813876335154
 30
0.0
  0
SPLINE
  5
A7
330
1F
100
AcDbEntity
  8
0
  6
Continuous
 62
     7
370
    25
100
AcDbSpline
210
0.0
220
0.0
230
1.0
 70
     8
 71
     3
 72
    22
 73
    18
 74
     0
 42
0.00000001
 43
0.00000001
 40
0.0
 40
0.0
 40
0.0
 40
0.0
 40
0.0382381712879816
 40
0.112213906498202
 40
0.18713546661706
 40
0.2612341198791353
 40
0.3340447862172004
 40
0.4058957758330962
 40
0.4772300436415624
 40
0.5483464669131365
 40
0.6194138853847522
 40
0.6905625946468015
 40
0.7619813340987942
 40
0.8339937492195033
 40
0.9070290393744743
 40
0.9813231680207607
 40
1.0
 40
1.0
 40
1.0
 40
1.0
 10
201.8315144782436
 20
339.7234351091665
 30
0.0
 10
201.7192222152855
 20
339.7598769660751
 30
0.0
 10
201.389688844007
 20
339.8668194004549
 30
0.0
 10
200.9529965185486
 20
340.2663935955081
 30
0.0
 10
200.5961102633032
 20
340.8599031942375
 30
0.0
 10
200.468086136056
 20
341.5496611269386
 30
0.0
 10
200.5772933148732
 20
342.2344169055423
 30
0.0
 10
200.9062017659582
 20
342.8386582647517
 30
0.0
 10
201.4134731134212
 20
343.2968831766301
 30
0.0
 10
202.0415102923433
 20
343.561234842424
 30
0.0
 10
202.7202492664062
 20
343.6039820881837
 30
0.0
 10
203.3748494731918
 20
343.421213904634
 30
0.0
 10
203.9317167496417
 20
343.0341352381849
 30
0.0
 10
204.3357534117014
 20
342.482567628134
 30
0.0
 10
204.5196698911405
 20
341.8317062055073
 30
0.0
 10
204.5357323816632
 20
341.3017553294961
 30
0.0
 10
204.4184608648746
 20
341.039896235556
 30
0.0
 10
204.3949023214297
 20
340.9872916559447
 30
0.0
  0
SPLINE
  5
A8
330
1F
100
AcDbEntity
  8
0
  6
Continuous
 62
     7
370
    25
100
AcDbSpline
210
0.0
220
0.0
230
1.0
 70
     8
 71
     3
 72
    22
 73
    18
 74
     0
 42
0.00000001
 43
0.00000001
 40
0.0
 40
0.0
 40
0.0
 40
0.0
 40
0.0241519610532774
 40
0.1004665791625222
 40
0.1777569262252741
 40
0.254198348673265
 40
0.3293110620525834
 40
0.4034337567135664
 40
0.4770233924290604
 40
0.5503882960402717
 40
0.6237026454720059
 40
0.6971008558563887
 40
0.7707776339463359
 40
0.845066857885032
 40
0.9204112969884366
 40
0.9970543751448602
 40
1.0
 40
1.0
 40
1.0
 40
1.0
 10
198.0076641734142
 20
333.0389285668823
 30
0.0
 10
197.9469395890124
 20
333.0000000649156
 30
0.0
 10
197.6943393445661
 20
332.8380664887603
 30
0.0
 10
197.1515357583125
 20
332.762906166555
 30
0.0
 10
196.4665554490857
 20
332.8504913940448
 30
0.0
 10
195.8470456537302
 20
333.1813669923
 30
0.0
 10
195.3798797212197
 20
333.693448069078
 30
0.0
 10
195.1125079497249
 20
334.3274004200402
 30
0.0
 10
195.0705374382163
 20
335.0096817279462
 30
0.0
 10
195.2554387668893
 20
335.665531043512
 30
0.0
 10
195.6451788397296
 20
336.2228228581995
 30
0.0
 10
196.196306981517
 20
336.6207270937251
 30
0.0
 10
196.8457708860631
 20
336.8144971487549
 30
0.0
 10
197.5303067084598
 20
336.7874975931662
 30
0.0
 10
198.1485418875261
 20
336.5216393389108
 30
0.0
 10
198.5461093160978
 20
336.2439860357588
 30
0.0
 10
198.6601033291654
 20
336.0358875401404
 30
0.0
 10
198.6643223148446
 20
336.0281856920411
 30
0.0
  0
SPLINE
  5
A9
330
1F
100
AcDbEntity
  8
0
  6
Continuous
 62
     7
370
    25
100
AcDbSpline
210
0.0
220
0.0
230
1.0
 70
     8
 71
     3
 72
    22
 73
    18
 74
     0
 42
0.00000001
 43
0.00000001
 40
0.0
 40
0.0
 40
0.0
 40
0.0
 40
0.0324249009668925
 40
0.1065759791107321
 40
0.1816751240296021
 40
0.2559494115750512
 40
0.3289326593115844
 40
0.4009539556269087
 40
0.472457305361351
 40
0.5437422942071627
 40
0.6149781620981001
 40
0.686295513461103
 40
0.75788353506023
 40
0.8300666395034415
 40
0.9032750434774031
 40
0.977745269737671
 40
1.0
 40
1.0
 40
1.0
 40
1.0
 10
200.9783508141295
 20
326.0326395993365
 30
0.0
 10
200.9689495866218
 20
325.9332880153082
 30
0.0
 10
200.9380491059233
 20
325.6067336688561
 30
0.0
 10
200.6509058934488
 20
325.1092755848234
 30
0.0
 10
200.153010505388
 20
324.6289358482819
 30
0.0
 10
199.5086843626647
 20
324.3507243237617
 30
0.0
 10
198.816887555544
 20
324.3047978566391
 30
0.0
 10
198.1545827162697
 20
324.491009498587
 30
0.0
 10
197.5949743513079
 20
324.8835966541047
 30
0.0
 10
197.1974973491515
 20
325.4370627816241
 30
0.0
 10
197.0047889440036
 20
326.0892776628144
 30
0.0
 10
197.0373114248976
 20
326.768114574091
 30
0.0
 10
197.2907742022533
 20
327.397231568507
 30
0.0
 10
197.738592713235
 20
327.9135767807318
 30
0.0
 10
198.3322619622809
 20
328.2388434793366
 30
0.0
 10
198.8560974487077
 20
328.3719728558428
 30
0.0
 10
199.1480981194107
 20
328.3125089315494
 30
0.0
 10
199.2152823952847
 20
328.2988273167617
 30
0.0
  0
SPLINE
  5
AA
330
1F
100
AcDbEntity
  8
0
  6
Continuous
 62
     7
370
    25
100
AcDbSpline
210
0.0
220
0.0
230
1.0
 70
     8
 71
     3
 72
    22
 73
    18
 74
     0
 42
0.00000001
 43
0.00000001
 40
0.0
 40
0.0
 40
0.0
 40
0.0
 40
0.0385898118353443
 40
0.1124206901219212
 40
0.1871955412329943
 40
0.2611490968772353
 40
0.3338171876923453
 40
0.4055274809936114
 40
0.4767220643155981
 40
0.5476992296769146
 40
0.6186274861979089
 40
0.6896368743283016
 40
0.7609157638841519
 40
0.8327871665919597
 40
0.9056794413728039
 40
0.9798280896275883
 40
1.0
 40
1.0
 40
1.0
 40
1.0
 10
208.2569391331335
 20
323.9475645447451
 30
0.0
 10
208.3432857772412
 20
323.8651229153464
 30
0.0
 10
208.5948327234074
 20
323.6249521440729
 30
0.0
 10
208.8156420019762
 20
323.0743940876596
 30
0.0
 10
208.8795975076755
 20
322.3847571896567
 30
0.0
 10
208.6956880739739
 20
321.7077740553917
 30
0.0
 10
208.300186277743
 20
321.1382097499256
 30
0.0
 10
207.7416808838213
 20
320.7365161157904
 30
0.0
 10
207.0858283628388
 20
320.5437663722816
 30
0.0
 10
206.4052891249474
 20
320.5780885032119
 30
0.0
 10
205.7752172057323
 20
320.8340699896439
 30
0.0
 10
205.2647499576665
 20
321.282752691426
 30
0.0
 10
204.9309506801365
 20
321.8731372130495
 30
0.0
 10
204.8063420667207
 20
322.5453002422813
 30
0.0
 10
204.9226575056192
 20
323.2118366900494
 30
0.0
 10
205.1412069610681
 20
323.6997980155283
 30
0.0
 10
205.3645204147888
 20
323.8875301745513
 30
0.0
 10
205.4122794509837
 20
323.927679600519
 30
0.0
  0
SPLINE
  5
AB
330
1F
100
AcDbEntity
  8
0
  6
Continuous
 62
     7
370
    25
100
AcDbSpline
210
0.0
220
0.0
230
1.0
 70
     8
 71
     3
 72
    22
 73
    18
 74
     0
 42
0.00000001
 43
0.00000001
 40
0.0
 40
0.0
 40
0.0
 40
0.0
 40
0.0274430205076172
 40
0.1035470826060003
 40
0.1806241815708261
 40
0.2568546981481707
 40
0.331760171634453
 40
0.4056783579156678
 40
0.4790649559888198
 40
0.5522274420052817
 40
0.6253395133239307
 40
0.6985352142184462
 40
0.7720087142356942
 40
0.8460929703316604
 40
0.9212295301986706
 40
0.997661146105906
 40
1.0
 40
1.0
 40
1.0
 40
1.0
 10
214.5751947978173
 20
328.3055460542018
 30
0.0
 10
214.6567845370759
 20
328.3157718551082
 30
0.0
 10
214.9646361989757
 20
328.3543555033934
 30
0.0
 10
215.4962397124729
 20
328.186105839254
 30
0.0
 10
216.0753623629497
 20
327.8090560861834
 30
0.0
 10
216.489965555991
 20
327.242400660526
 30
0.0
 10
216.6886823813039
 20
326.5782708281046
 30
0.0
 10
216.6545147702635
 20
325.8911083013776
 30
0.0
 10
216.3962981310362
 20
325.2581792602032
 30
0.0
 10
215.9451450736718
 20
324.747506258518
 30
0.0
 10
215.3522029953151
 20
324.4145055044908
 30
0.0
 10
214.6830040697552
 20
324.2951308155691
 30
0.0
 10
214.0138041181548
 20
324.4023455357712
 30
0.0
 10
213.4086958337266
 20
324.7236662541595
 30
0.0
 10
212.9673321125097
 20
325.2314918516366
 30
0.0
 10
212.7297679361682
 20
325.6523721115797
 30
0.0
 10
212.7171826861712
 20
325.8874875225512
 30
0.0
 10
212.7168090047518
 20
325.8944685726312
 30
0.0
  0
SPLINE
  5
AC
330
1F
100
AcDbEntity
  8
0
  6
Continuous
 62
     7
370
    25
100
AcDbSpline
210
0.0
220
0.0
230
1.0
 70
     8
 71
     3
 72
    22
 73
    18
 74
     0
 42
0.00000001
 43
0.00000001
 40
0.0
 40
0.0
 40
0.0
 40
0.0
 40
0.0305301726139924
 40
0.1049167721770045
 40
0.1802544498000899
 40
0.2547646501070073
 40
0.3279797099562252
 40
0.4002297629982916
 40
0.4719602243382206
 40
0.5434716312235152
 40
0.6149337611341266
 40
0.6864776333276449
 40
0.758293035470183
 40
0.8307054105811221
 40
0.9041463418174112
 40
0.9788531031870663
 40
1.0
 40
1.0
 40
1.0
 40
1.0
 10
214.978656503264
 20
335.9247435433734
 30
0.0
 10
215.0271975001406
 20
336.0048204325394
 30
0.0
 10
215.1940083719605
 20
336.2800042267322
 30
0.0
 10
215.6644863049085
 20
336.5991172885916
 30
0.0
 10
216.3211046909378
 20
336.816178509712
 30
0.0
 10
217.0224351406303
 20
336.7871912218888
 30
0.0
 10
217.665622789041
 20
336.5284322993456
 30
0.0
 10
218.1815515657979
 20
336.0732922630305
 30
0.0
 10
218.5154023183285
 20
335.4767801418013
 30
0.0
 10
218.6333770309357
 20
334.8056647470426
 30
0.0
 10
218.5240165989816
 20
334.1344281004181
 30
0.0
 10
218.2001753882539
 20
333.5369221750813
 30
0.0
 10
217.6988617179452
 20
333.0801030816814
 30
0.0
 10
217.0713118288027
 20
332.8091087507557
 30
0.0
 10
216.3954800567209
 20
332.7739592413268
 30
0.0
 10
215.8689179927915
 20
332.8796240303077
 30
0.0
 10
215.6343233258824
 20
333.0573449317881
 30
0.0
 10
215.582567875876
 20
333.0965530917724
 30
0.0
  0
SPLINE
  5
AD
330
1F
100
AcDbEntity
  8
0
  6
Continuous
 62
     7
370
    25
100
AcDbSpline
210
0.0
220
0.0
230
1.0
 70
     8
 71
     3
 72
    22
 73
    18
 74
     0
 42
0.00000001
 43
0.00000001
 40
0.0
 40
0.0
 40
0.0
 40
0.0
 40
0.0386489359289866
 40
0.1123788376840623
 40
0.1870514212170862
 40
0.2609038325472559
 40
0.3334725371444079
 40
0.4050847541819159
 40
0.4761819665630109
 40
0.5470620583402076
 40
0.6178933081684068
 40
0.6888055786444546
 40
0.7599869819560172
 40
0.8317600880550352
 40
0.9045526700074639
 40
0.9785999071252317
 40
1.0
 40
1.0
 40
1.0
 40
1.0
 10
209.3157494307948
 20
340.9451850182589
 30
0.0
 10
209.2735914072259
 20
341.0572491046107
 30
0.0
 10
209.1510092565445
 20
341.3830958961881
 30
0.0
 10
209.1908952672665
 20
341.9752763257368
 30
0.0
 10
209.4325193054365
 20
342.6243717990206
 30
0.0
 10
209.8919416590134
 20
343.1545159317006
 30
0.0
 10
210.4954028065671
 20
343.4960741677447
 30
0.0
 10
211.1728866672834
 20
343.6156611651185
 30
0.0
 10
211.847420520581
 20
343.5047588312879
 30
0.0
 10
212.4456731341796
 20
343.1785612322457
 30
0.0
 10
212.9022828976382
 20
342.6745501047471
 30
0.0
 10
213.167518963014
 20
342.0488243237561
 30
0.0
 10
213.2121143826863
 20
341.3720506094442
 30
0.0
 10
213.0327010005892
 20
340.7124836918703
 30
0.0
 10
212.6388623334894
 20
340.1620539071115
 30
0.0
 10
212.2267088750382
 20
339.8157161019665
 30
0.0
 10
211.9401120729973
 20
339.7429167669305
 30
0.0
 10
211.8758546633687
 20
339.7265945447047
 30
0.0
  0
SPLINE
  5
AE
330
1F
100
AcDbEntity
  8
0
  6
Continuous
 62
     7
370
    25
100
AcDbSpline
210
0.0
220
0.0
230
1.0
 70
    11
 71
     3
 72
    26
 73
    22
 74
     0
 42
0.00000001
 43
0.00000001
 40
0.0
 40
0.0
 40
0.0
 40
0.0
 40
0.0535972164200033
 40
0.1071921782483917
 40
0.1608597534174596
 40
0.2147094977663976
 40
0.2686478624798896
 40
0.3224381663528932
 40
0.3759329881741383
 40
0.4292427722145302
 40
0.4826449979174537
 40
0.5363313024994933
 40
0.590242704102407
 40
0.6441475424480638
 40
0.697879807930087
 40
0.7514722617448991
 40
0.8050492353698371
 40
0.8586625397260722
 40
0.9122900741654171
 40
0.9659177767677268
 40
0.9999999999999999
 40
0.9999999999999999
 40
0.9999999999999999
 40
0.9999999999999999
 10
220.1374112512007
 20
323.4683371804838
 30
0.0
 10
220.3059324232547
 20
323.4517750363246
 30
0.0
 10
220.6429676784421
 20
323.4186514447007
 30
0.0
 10
221.0913358530952
 20
323.1607091383303
 30
0.0
 10
221.4326540585641
 20
322.7808227894911
 30
0.0
 10
221.6285908459013
 20
322.3054481064361
 30
0.0
 10
221.6560957888942
 20
321.7919867762849
 30
0.0
 10
221.5116390162401
 20
321.2985944063865
 30
0.0
 10
221.2128966259939
 20
320.8822400158285
 30
0.0
 10
220.7948620416403
 20
320.5886013711487
 30
0.0
 10
220.3036535332257
 20
320.4489230184331
 30
0.0
 10
219.7924659082495
 20
320.479038077504
 30
0.0
 10
219.3184348558115
 20
320.6772979264005
 30
0.0
 10
218.9365063058054
 20
321.0221547244501
 30
0.0
 10
218.6908653613894
 20
321.4737811151005
 30
0.0
 10
218.6087846042546
 20
321.9805136533031
 30
0.0
 10
218.698839399484
 20
322.4853584573163
 30
0.0
 10
218.9509966507412
 20
322.9327739100189
 30
0.0
 10
219.3367548260796
 20
323.2691044935231
 30
0.0
 10
219.7556648989063
 20
323.4440453860613
 30
0.0
 10
220.0305836395961
 20
323.4615393830349
 30
0.0
 10
220.1374112512007
 20
323.4683371804838
 30
0.0
  0
SPLINE
  5
AF
330
1F
100
AcDbEntity
  8
0
  6
Continuous
 62
     7
370
    25
100
AcDbSpline
210
0.0
220
0.0
230
1.0
 70
    11
 71
     3
 72
    26
 73
    22
 74
     0
 42
0.00000001
 43
0.00000001
 40
0.0
 40
0.0
 40
0.0
 40
0.0
 40
0.0564885541921633
 40
0.112899430186446
 40
0.1712256558510319
 40
0.2300375349560519
 40
0.2867064896556417
 40
0.339536300840535
 40
0.3890615100952688
 40
0.4374690463182695
 40
0.487168226751331
 40
0.5398630249433782
 40
0.5960305847836171
 40
0.6545948261961743
 40
0.7132408736152609
 40
0.7696720731029316
 40
0.8229238449446495
 40
0.8735646339153991
 40
0.9230009993634145
 40
0.9728027922198413
 40
1.0
 40
1.0
 40
1.0
 40
1.0
 10
225.610231628477
 20
318.6039085674726
 30
0.0
 10
225.7274113938525
 20
318.5917519194825
 30
0.0
 10
225.9616097890757
 20
318.5674553402781
 30
0.0
 10
226.2668596460846
 20
318.3833772742078
 30
0.0
 10
226.4969161677275
 20
318.1117067073282
 30
0.0
 10
226.6186185368249
 20
317.7691250473069
 30
0.0
 10
226.6121557636747
 20
317.4090469303721
 30
0.0
 10
226.4867461064274
 20
317.0849345779108
 30
0.0
 10
226.2726838761479
 20
316.8323269321037
 30
0.0
 10
225.999224110343
 20
316.6648353933797
 30
0.0
 10
225.6871792071946
 20
316.5896781194342
 30
0.0
 10
225.3577406419596
 20
316.6170278874068
 30
0.0
 10
225.0422928085359
 20
316.7561190491376
 30
0.0
 10
224.7837702278643
 20
317.0032152516698
 30
0.0
 10
224.6256200564844
 20
317.3307687463902
 30
0.0
 10
224.5931524627534
 20
317.6896836843551
 30
0.0
 10
224.6832288463768
 20
318.0272006042143
 30
0.0
 10
224.8728980077308
 20
318.3056765502682
 30
0.0
 10
225.1342135233321
 20
318.5020514250004
 30
0.0
 10
225.3928912152195
 20
318.592876359682
 30
0.0
 10
225.5535016143219
 20
318.601028949758
 30
0.0
 10
225.610231628477
 20
318.6039085674726
 30
0.0
  0
SPLINE
  5
B0
330
1F
100
AcDbEntity
  8
0
  6
Continuous
 62
     7
370
    25
100
AcDbSpline
210
0.0
220
0.0
230
1.0
 70
    11
 71
     3
 72
    26
 73
    22
 74
     0
 42
0.00000001
 43
0.00000001
 40
0.0
 40
0.0
 40
0.0
 40
0.0
 40
0.05648855419224
 40
0.1128994301865178
 40
0.1712256558510988
 40
0.2300375349560014
 40
0.2867064896555885
 40
0.3395363008405347
 40
0.3890615100952515
 40
0.4374690463182512
 40
0.4871682267513097
 40
0.5398630249433217
 40
0.5960305847835051
 40
0.6545948261961118
 40
0.7132408736152748
 40
0.7696720731029414
 40
0.8229238449446558
 40
0.8735646339154048
 40
0.9230009993634164
 40
0.9728027922198397
 40
1.0
 40
1.0
 40
1.0
 40
1.0
 10
207.6281075317119
 20
309.191153613941
 30
0.0
 10
207.6916634702878
 20
309.0919592382153
 30
0.0
 10
207.8186879507828
 20
308.8937068903322
 30
0.0
 10
207.8650900963611
 20
308.5402821451628
 30
0.0
 10
207.7961273894105
 20
308.1910328858811
 30
0.0
 10
207.6041664482829
 20
307.882285970902
 30
0.0
 10
207.3186165671648
 20
307.6628337366338
 30
0.0
 10
206.9870236838059
 20
307.5588022084593
 30
0.0
 10
206.6560614560591
 20
307.5686645082667
 30
0.0
 10
206.3546119228398
 20
307.6780346960695
 30
0.0
 10
206.1012947850976
 20
307.8751414314538
 30
0.0
 10
205.9172761089742
 20
308.1497591747078
 30
0.0
 10
205.8293434509906
 20
308.4831081428226
 30
0.0
 10
205.8613448487292
 20
308.8392911976775
 30
0.0
 10
206.0188314640763
 20
309.1671642441419
 30
0.0
 10
206.2791992485232
 20
309.4163282346368
 30
0.0
 10
206.5992423089124
 20
309.5563420395801
 30
0.0
 10
206.9352203584787
 20
309.5816796304078
 30
0.0
 10
207.2516799769549
 20
309.4998126651901
 30
0.0
 10
207.4839726731422
 20
309.3541987223889
 30
0.0
 10
207.5904855706401
 20
309.23371151273
 30
0.0
 10
207.6281075317119
 20
309.191153613941
 30
0.0
  0
SPLINE
  5
B1
330
1F
100
AcDbEntity
  8
0
  6
Continuous
 62
     7
370
    25
100
AcDbSpline
210
0.0
220
0.0
230
1.0
 70
    11
 71
     3
 72
    26
 73
    22
 74
     0
 42
0.00000001
 43
0.00000001
 40
0.0
 40
0.0
 40
0.0
 40
0.0
 40
0.0564885541921569
 40
0.1128994301864591
 40
0.171225655851027
 40
0.2300375349560352
 40
0.2867064896556129
 40
0.3395363008405512
 40
0.38906151009526
 40
0.4374690463182517
 40
0.4871682267514109
 40
0.539863024943445
 40
0.5960305847836511
 40
0.6545948261962476
 40
0.7132408736153232
 40
0.7696720731029807
 40
0.8229238449446891
 40
0.8735646339154289
 40
0.9230009993634304
 40
0.9728027922198456
 40
0.9999999999999999
 40
0.9999999999999999
 40
0.9999999999999999
 40
0.9999999999999999
 10
183.8818898959968
 20
337.0071973591304
 30
0.0
 10
183.7710400035602
 20
336.9673077257576
 30
0.0
 10
183.5494926499185
 20
336.8875833118025
 30
0.0
 10
183.1946035522255
 20
336.9209889692714
 30
0.0
 10
182.8694563470013
 20
337.0659379085366
 30
0.0
 10
182.6111656896916
 20
337.3217886399665
 30
0.0
 10
182.46075640735
 20
337.6490119055176
 30
0.0
 10
182.4331195248842
 20
337.9954402557952
 30
0.0
 10
182.5163805802671
 20
338.3159100013392
 30
0.0
 10
182.6900874607896
 20
338.5854644090525
 30
0.0
 10
182.9386206848717
 20
338.7885699824238
 30
0.0
 10
183.2473011956273
 20
338.9068667294302
 30
0.0
 10
183.5918592663192
 20
338.9184176083724
 30
0.0
 10
183.9319910874308
 20
338.8079603664627
 30
0.0
 10
184.2165996033479
 20
338.5814636528472
 30
0.0
 10
184.4015792498246
 20
338.2721796284839
 30
0.0
 10
184.4668663356507
 20
337.9290047131676
 30
0.0
 10
184.4168065107977
 20
337.5958121903899
 30
0.0
 10
184.2665732314585
 20
337.3055039888194
 30
0.0
 10
184.072920146512
 20
337.1114375060596
 30
0.0
 10
183.931752453325
 20
337.0344060357046
 30
0.0
 10
183.8818898959968
 20
337.0071973591304
 30
0.0
  0
SPLINE
  5
B2
330
1F
100
AcDbEntity
  8
0
  6
Continuous
 62
     7
370
    25
100
AcDbSpline
210
0.0
220
0.0
230
1.0
 70
    11
 71
     3
 72
    26
 73
    22
 74
     0
 42
0.00000001
 43
0.00000001
 40
0.0
 40
0.0
 40
0.0
 40
0.0
 40
0.0564885541921699
 40
0.1128994301864538
 40
0.1712256558510412
 40
0.2300375349559198
 40
0.2867064896555129
 40
0.3395363008404668
 40
0.3890615100951898
 40
0.4374690463181937
 40
0.4871682267512575
 40
0.5398630249433098
 40
0.5960305847834977
 40
0.6545948261961106
 40
0.7132408736152459
 40
0.7696720731029189
 40
0.8229238449446404
 40
0.873564633915393
 40
0.9230009993634104
 40
0.9728027922198387
 40
0.9999999999999999
 40
0.9999999999999999
 40
0.9999999999999999
 40
0.9999999999999999
 10
216.2845578758828
 20
353.9683957077852
 30
0.0
 10
216.270334780495
 20
354.0853426404573
 30
0.0
 10
216.241908148096
 20
354.3190756904449
 30
0.0
 10
216.3534465094567
 20
354.6576335194154
 30
0.0
 10
216.5671133359668
 20
354.9423744320146
 30
0.0
 10
216.8740244336878
 20
355.1372570595711
 30
0.0
 10
217.2265127427704
 20
355.2110812405141
 30
0.0
 10
217.5704051959252
 20
355.1609376485832
 30
0.0
 10
217.8643127680599
 20
355.0084528946094
 30
0.0
 10
218.0884554667025
 20
354.779119709694
 30
0.0
 10
218.2311649141604
 20
354.4916224905527
 30
0.0
 10
218.2778078391896
 20
354.1643577420433
 30
0.0
 10
218.212397729788
 20
353.825868149188
 30
0.0
 10
218.0290234310456
 20
353.5188431915969
 30
0.0
 10
217.7448741101502
 20
353.2917706656366
 30
0.0
 10
217.4021826383097
 20
353.18025101506
 30
0.0
 10
217.0530840912939
 20
353.1929644154498
 30
0.0
 10
216.7393847596876
 20
353.3159114473336
 30
0.0
 10
216.4897852404711
 20
353.5269777168486
 30
0.0
 10
216.3436762749355
 20
353.7589593696364
 30
0.0
 10
216.2999889113024
 20
353.9137288087502
 30
0.0
 10
216.2845578758828
 20
353.9683957077852
 30
0.0
  0
SPLINE
  5
B3
330
1F
100
AcDbEntity
  8
0
  6
Continuous
 62
     7
370
    25
100
AcDbSpline
210
0.0
220
0.0
230
1.0
 70
    11
 71
     3
 72
    26
 73
    22
 74
     0
 42
0.00000001
 43
0.00000001
 40
0.0
 40
0.0
 40
0.0
 40
0.0
 40
0.0535972164200064
 40
0.1071921782483995
 40
0.160859753417471
 40
0.2147094977664128
 40
0.2686478624799087
 40
0.3224381663529164
 40
0.3759329881741652
 40
0.4292427722145613
 40
0.4826449979174892
 40
0.5363313024995332
 40
0.5902427041024131
 40
0.6441475424480735
 40
0.6978798079301002
 40
0.7514722617449177
 40
0.8050492353698592
 40
0.8586625397260976
 40
0.9122900741654477
 40
0.9659177767677243
 40
1.0
 40
1.0
 40
1.0
 40
1.0
 10
208.0190232729455
 20
316.5028985148704
 30
0.0
 10
208.1111456993977
 20
316.360817029116
 30
0.0
 10
208.2953866771298
 20
316.0766600343304
 30
0.0
 10
208.3732722457234
 20
315.56528728216
 30
0.0
 10
208.2890735587396
 20
315.0615786992183
 30
0.0
 10
208.0395752542727
 20
314.6119978833578
 30
0.0
 10
207.6552840727873
 20
314.2703557500045
 30
0.0
 10
207.179467060232
 20
314.0756714917746
 30
0.0
 10
206.6676852561285
 20
314.0496449811448
 30
0.0
 10
206.1774690190799
 20
314.1933968795634
 30
0.0
 10
205.7620005899248
 20
314.4903511274394
 30
0.0
 10
205.4668252201937
 20
314.9087901383069
 30
0.0
 10
205.3262774848112
 20
315.4030155326752
 30
0.0
 10
205.357768830502
 20
315.9166339938089
 30
0.0
 10
205.5577099372635
 20
316.3902682663572
 30
0.0
 10
205.9027128738189
 20
316.7703841562293
 30
0.0
 10
206.3535646817907
 20
317.0147420689954
 30
0.0
 10
206.8605856430799
 20
317.096556563384
 30
0.0
 10
207.3640557700874
 20
317.0046573661532
 30
0.0
 10
207.7620162257482
 20
316.7862141453201
 30
0.0
 10
207.9471026144961
 20
316.5821813474352
 30
0.0
 10
208.0190232729455
 20
316.5028985148704
 30
0.0
  0
SPLINE
  5
B4
330
1F
100
AcDbEntity
  8
0
  6
Continuous
 62
     7
370
    25
100
AcDbSpline
210
0.0
220
0.0
230
1.0
 70
    11
 71
     3
 72
    26
 73
    22
 74
     0
 42
0.00000001
 43
0.00000001
 40
0.0
 40
0.0
 40
0.0
 40
0.0
 40
0.0535972164200082
 40
0.1071921782484002
 40
0.1608597534174705
 40
0.2147094977664135
 40
0.2686478624799092
 40
0.3224381663529164
 40
0.3759329881741655
 40
0.429242772214562
 40
0.4826449979174889
 40
0.5363313024995335
 40
0.5902427041024146
 40
0.6441475424480755
 40
0.6978798079300998
 40
0.7514722617449179
 40
0.8050492353698594
 40
0.8586625397260972
 40
0.9122900741654475
 40
0.9659177767677232
 40
1.0
 40
1.0
 40
1.0
 40
1.0
 10
190.9233271508283
 20
334.9990663874851
 30
0.0
 10
190.7643087761896
 20
334.9408697675069
 30
0.0
 10
190.4462787160935
 20
334.8244789756181
 30
0.0
 10
189.9303959770082
 20
334.8623373032529
 30
0.0
 10
189.4580523903583
 20
335.0565106576803
 30
0.0
 10
189.0752620999249
 20
335.3997946617813
 30
0.0
 10
188.8276984807567
 20
335.8504733876094
 30
0.0
 10
188.7437746093721
 20
336.3576819972084
 30
0.0
 10
188.8322828027333
 20
336.8624238064286
 30
0.0
 10
189.0815139158394
 20
337.308361492238
 30
0.0
 10
189.4634733236196
 20
337.6473347238719
 30
0.0
 10
189.9371038938135
 20
337.8419979913094
 30
0.0
 10
190.4502128390351
 20
337.869046405188
 30
0.0
 10
190.9439463293514
 20
337.7240537536132
 30
0.0
 10
191.3612145200119
 20
337.4237320471576
 30
0.0
 10
191.6550297352522
 20
337.0027953116992
 30
0.0
 10
191.7929371195845
 20
336.5088725488814
 30
0.0
 10
191.7598775759435
 20
335.9963582239568
 30
0.0
 10
191.5582498405752
 20
335.5259606393852
 30
0.0
 10
191.2567289150869
 20
335.1865860727331
 30
0.0
 10
191.0166260493415
 20
335.0515417549208
 30
0.0
 10
190.9233271508283
 20
334.9990663874851
 30
0.0
  0
SPLINE
  5
B5
330
1F
100
AcDbEntity
  8
0
  6
Continuous
 62
     7
370
    25
100
AcDbSpline
210
0.0
220
0.0
230
1.0
 70
    11
 71
     3
 72
    26
 73
    22
 74
     0
 42
0.00000001
 43
0.00000001
 40
0.0
 40
0.0
 40
0.0
 40
0.0
 40
0.0535972164200069
 40
0.1071921782483995
 40
0.1608597534174702
 40
0.2147094977664114
 40
0.2686478624799076
 40
0.322438166352914
 40
0.3759329881741648
 40
0.4292427722145704
 40
0.4826449979174975
 40
0.5363313024995418
 40
0.5902427041024214
 40
0.6441475424480818
 40
0.6978798079301093
 40
0.7514722617449198
 40
0.8050492353698611
 40
0.8586625397260994
 40
0.9122900741654492
 40
0.965917776767724
 40
1.0
 40
1.0
 40
1.0
 40
1.0
 10
212.7599077459694
 20
347.5503531654901
 30
0.0
 10
212.7385551539988
 20
347.7183345837058
 30
0.0
 10
212.6958508682642
 20
348.0542903539214
 30
0.0
 10
212.8475547174971
 20
348.5488145652451
 30
0.0
 10
213.1419660765801
 20
348.9661078758336
 30
0.0
 10
213.5618220869203
 20
349.2629129372844
 30
0.0
 10
214.0562894439076
 20
349.4039841686668
 30
0.0
 10
214.5694560929463
 20
349.3729393598593
 30
0.0
 10
215.0418480453508
 20
349.1743346329001
 30
0.0
 10
215.4211460022806
 20
348.8321217938164
 30
0.0
 10
215.6666265031305
 20
348.3843102657615
 30
0.0
 10
215.751016439202
 20
347.8792379507398
 30
0.0
 10
215.6632092111604
 20
347.3729748797348
 30
0.0
 10
215.4119857906882
 20
346.9238842190916
 30
0.0
 10
215.0263428689346
 20
346.5839056797589
 30
0.0
 10
214.5505798601675
 20
346.3911242609082
 30
0.0
 10
214.0383534922735
 20
346.3665826571112
 30
0.0
 10
213.5460454120386
 20
346.512858495219
 30
0.0
 10
213.1323080690024
 20
346.8141043121493
 30
0.0
 10
212.8685370492358
 20
347.1835834240472
 30
0.0
 10
212.7903064883503
 20
347.4477165973823
 30
0.0
 10
212.7599077459694
 20
347.5503531654901
 30
0.0
  0
LINE
  5
B6
330
1F
100
AcDbEntity
  8
0
  6
Continuous
 62
     7
370
    25
100
AcDbLine
 10
176.1784689037
 20
337.5159569404
 30
0.0
 11
174.9813633007
 21
337.7891884824
 31
0.0
  0
LINE
  5
B7
330
1F
100
AcDbEntity
  8
0
  6
Continuous
 62
     7
370
    25
100
AcDbLine
 10
183.8564796965
 20
311.6758169895
 30
0.0
 11
182.8964755397
 21
310.9102392213
 31
0.0
  0
LINE
  5
B8
330
1F
100
AcDbEntity
  8
0
  6
Continuous
 62
     7
370
    25
100
AcDbLine
 10
208.8462760492
 20
301.5676638121
 30
0.0
 11
208.8462760492
 21
300.339772408
 31
0.0
  0
LINE
  5
B9
330
1F
100
AcDbEntity
  8
0
  6
Continuous
 62
     7
370
    25
100
AcDbLine
 10
191.5939424008
 20
359.6299312388
 30
0.0
 11
191.0611802872
 21
360.7362231671
 31
0.0
  0
LINE
  5
BA
330
1F
100
AcDbEntity
  8
0
  6
Continuous
 62
     7
370
    25
100
AcDbLine
 10
218.4947342261
 20
361.3654661953
 30
0.0
 11
219.0274963397
 21
362.4717581235
 31
0.0
  0
LINE
  5
BB
330
1F
100
AcDbEntity
  8
0
  6
Continuous
 62
     7
370
    25
100
AcDbLine
 10
236.623999459
 20
341.4156685891
 30
0.0
 11
237.8211050619
 21
341.6889001311
 31
0.0
  0
LINE
  5
BC
330
1F
100
AcDbEntity
  8
0
  6
Continuous
 62
     7
370
    25
100
AcDbLine
 10
232.3300316095
 20
314.8031429194
 30
0.0
 11
233.2900357662
 21
314.0375651512
 31
0.0
  0
LINE
  5
BD
330
1F
100
AcDbEntity
  8
0
  6
Continuous
 62
     7
370
    25
100
AcDbLine
 10
230.7960765588
 20
310.9102392213
 30
0.0
 11
229.836072402
 21
311.6758169895
 31
0.0
  0
LINE
  5
BE
330
1F
100
AcDbEntity
  8
0
  6
Continuous
 62
     7
370
    25
100
AcDbLine
 10
204.8462760492
 20
300.339772408
 30
0.0
 11
204.8462760492
 21
301.5676638121
 31
0.0
  0
LINE
  5
BF
330
1F
100
AcDbEntity
  8
0
  6
Continuous
 62
     7
370
    25
100
AcDbLine
 10
238.7111887977
 20
337.7891884824
 30
0.0
 11
237.5140831948
 21
337.5159569404
 31
0.0
  0
LINE
  5
C0
330
1F
100
AcDbEntity
  8
0
  6
Continuous
 62
     7
370
    25
100
AcDbLine
 10
180.4025163323
 20
314.0375651512
 30
0.0
 11
181.362520489
 21
314.8031429194
 31
0.0
  0
LINE
  5
C1
330
1F
100
AcDbEntity
  8
0
  6
Continuous
 62
     7
370
    25
100
AcDbLine
 10
222.6313718113
 20
360.7362231671
 30
0.0
 11
222.0986096977
 21
359.6299312388
 31
0.0
  0
LINE
  5
C2
330
1F
100
AcDbEntity
  8
0
  6
Continuous
 62
     7
370
    25
100
AcDbLine
 10
194.6650557588
 20
362.4717581235
 30
0.0
 11
195.1978178724
 21
361.3654661953
 31
0.0
  0
LINE
  5
C3
330
1F
100
AcDbEntity
  8
0
  6
Continuous
 62
     7
370
    25
100
AcDbLine
 10
175.8714470366
 20
341.6889001311
 30
0.0
 11
177.0685526395
 21
341.4156685891
 31
0.0
  0
ARC
  5
C4
330
1F
100
AcDbEntity
  8
0
  6
Continuous
 62
     7
370
    25
100
AcDbCircle
 10
266.8462760492
 20
417.5676638121
 30
0.0
 40
26.42344685007231
100
AcDbArc
 50
0.0
 51
90.0
  0
LINE
  5
C5
330
1F
100
AcDbEntity
  8
0
  6
Continuous
 62
     7
370
    25
100
AcDbLine
 10
146.8462760492
 20
443.9911106622
 30
0.0
 11
266.8462760492
 21
443.9911106622
 31
0.0
  0
ARC
  5
C6
330
1F
100
AcDbEntity
  8
0
  6
Continuous
 62
     7
370
    25
100
AcDbCircle
 10
146.8462760492
 20
417.5676638121
 30
0.0
 40
26.42344685007234
100
AcDbArc
 50
90.0
 51
180.0
  0
LINE
  5
C7
330
1F
100
AcDbEntity
  8
0
  6
Continuous
 62
     7
370
    25
100
AcDbLine
 10
120.4228291992
 20
82.5676638121
 30
0.0
 11
120.4228291992
 21
417.5676638121
 31
0.0
  0
ARC
  5
C8
330
1F
100
AcDbEntity
  8
0
  6
Continuous
 62
     7
370
    25
100
AcDbCircle
 10
146.8462760492
 20
82.5676638121
 30
0.0
 40
26.42344685007234
100
AcDbArc
 50
180.0
 51
270.0
  0
LINE
  5
C9
330
1F
100
AcDbEntity
  8
0
  6
Continuous
 62
     7
370
    25
100
AcDbLine
 10
266.8462760492
 20
56.144216962
 30
0.0
 11
146.8462760492
 21
56.144216962
 31
0.0
  0
ARC
  5
CA
330
1F
100
AcDbEntity
  8
0
  6
Continuous
 62
     7
370
    25
100
AcDbCircle
 10
266.8462760492
 20
82.5676638121
 30
0.0
 40
26.42344685007231
100
AcDbArc
 50
270.0
 51
0.0
  0
LINE
  5
CB
330
1F
100
AcDbEntity
  8
0
  6
Continuous
 62
     7
370
    25
100
AcDbLine
 10
293.2697228993
 20
417.5676638121
 30
0.0
 11
293.2697228993
 21
82.5676638121
 31
0.0
  0
LINE
  5
CC
330
1F
100
AcDbEntity
  8
0
  6
Continuous
 62
     7
370
    25
100
AcDbLine
 10
146.8462760492
 20
43.609699438
 30
0.0
 11
266.8462760492
 21
43.609699438
 31
0.0
  0
ARC
  5
CD
330
1F
100
AcDbEntity
  8
0
  6
Continuous
 62
     7
370
    25
100
AcDbCircle
 10
146.8462760492
 20
82.5676638121
 30
0.0
 40
38.95796437412238
100
AcDbArc
 50
180.0
 51
270.0
  0
LINE
  5
CE
330
1F
100
AcDbEntity
  8
0
  6
Continuous
 62
     7
370
    25
100
AcDbLine
 10
107.8883116751
 20
417.5676638121
 30
0.0
 11
107.8883116751
 21
82.5676638121
 31
0.0
  0
ARC
  5
CF
330
1F
100
AcDbEntity
  8
0
  6
Continuous
 62
     7
370
    25
100
AcDbCircle
 10
146.8462760492
 20
417.5676638121
 30
0.0
 40
38.95796437412238
100
AcDbArc
 50
90.0
 51
180.0
  0
LINE
  5
D0
330
1F
100
AcDbEntity
  8
0
  6
Continuous
 62
     7
370
    25
100
AcDbLine
 10
266.8462760492
 20
456.5256281862
 30
0.0
 11
146.8462760492
 21
456.5256281862
 31
0.0
  0
ARC
  5
D1
330
1F
100
AcDbEntity
  8
0
  6
Continuous
 62
     7
370
    25
100
AcDbCircle
 10
266.8462760492
 20
417.5676638121
 30
0.0
 40
38.95796437412235
100
AcDbArc
 50
0.0
 51
90.0
  0
LINE
  5
D2
330
1F
100
AcDbEntity
  8
0
  6
Continuous
 62
     7
370
    25
100
AcDbLine
 10
305.8042404234
 20
82.5676638121
 30
0.0
 11
305.8042404234
 21
417.5676638121
 31
0.0
  0
ARC
  5
D3
330
1F
100
AcDbEntity
  8
0
  6
Continuous
 62
     7
370
    25
100
AcDbCircle
 10
266.8462760492
 20
82.5676638121
 30
0.0
 40
38.95796437412238
100
AcDbArc
 50
270.0
 51
0.0
  0
LINE
  5
D4
330
1F
100
AcDbEntity
  8
0
  6
Continuous
 62
     7
370
    25
100
AcDbLine
 10
293.2697228993
 20
417.5676638121
 30
0.0
 11
291.7717785972
 21
417.5676638121
 31
0.0
  0
ARC
  5
D5
330
1F
100
AcDbEntity
  8
0
  6
Continuous
 62
     7
370
    25
100
AcDbCircle
 10
266.8462760492
 20
417.5676638121
 30
0.0
 40
24.92550254794048
100
AcDbArc
 50
0.0
 51
90.0
  0
LINE
  5
D6
330
1F
100
AcDbEntity
  8
0
  6
Continuous
 62
     7
370
    25
100
AcDbLine
 10
266.8462760492
 20
443.9911106622
 30
0.0
 11
266.8462760492
 21
442.49316636
 31
0.0
  0
ARC
  5
D7
330
1F
100
AcDbEntity
  8
0
  6
Continuous
 62
     7
370
    25
100
AcDbCircle
 10
146.8462760492
 20
417.5676638121
 30
0.0
 40
24.92550254794043
100
AcDbArc
 50
90.0
 51
180.0
  0
LINE
  5
D8
330
1F
100
AcDbEntity
  8
0
  6
Continuous
 62
     7
370
    25
100
AcDbLine
 10
121.9207735013
 20
417.5676638121
 30
0.0
 11
120.4228291992
 21
417.5676638121
 31
0.0
  0
LINE
  5
D9
330
1F
100
AcDbEntity
  8
0
  6
Continuous
 62
     7
370
    25
100
AcDbLine
 10
146.8462760492
 20
443.9911106622
 30
0.0
 11
146.8462760492
 21
442.49316636
 31
0.0
  0
LINE
  5
DA
330
1F
100
AcDbEntity
  8
0
  6
Continuous
 62
     7
370
    25
100
AcDbLine
 10
293.2697228993
 20
82.5676638121
 30
0.0
 11
291.7717785972
 21
82.5676638121
 31
0.0
  0
LINE
  5
DB
330
1F
100
AcDbEntity
  8
0
  6
Continuous
 62
     7
370
    25
100
AcDbLine
 10
291.7717785972
 20
82.5676638121
 30
0.0
 11
291.7717785972
 21
417.5676638121
 31
0.0
  0
LINE
  5
DC
330
1F
100
AcDbEntity
  8
0
  6
Continuous
 62
     7
370
    25
100
AcDbLine
 10
121.9207735013
 20
417.5676638121
 30
0.0
 11
121.9207735013
 21
82.5676638121
 31
0.0
  0
LINE
  5
DD
330
1F
100
AcDbEntity
  8
0
  6
Continuous
 62
     7
370
    25
100
AcDbLine
 10
121.9207735013
 20
82.5676638121
 30
0.0
 11
120.4228291992
 21
82.5676638121
 31
0.0
  0
LINE
  5
DE
330
1F
100
AcDbEntity
  8
0
  6
Continuous
 62
     7
370
    25
100
AcDbLine
 10
146.8462760492
 20
457.5676638121
 30
0.0
 11
266.8462760492
 21
457.5676638121
 31
0.0
  0
LINE
  5
DF
330
1F
100
AcDbEntity
  8
0
  6
Continuous
 62
     7
370
    25
100
AcDbLine
 10
266.8462760492
 20
457.5676638121
 30
0.0
 11
266.8462760492
 21
456.5256281862
 31
0.0
  0
LINE
  5
E0
330
1F
100
AcDbEntity
  8
0
  6
Continuous
 62
     7
370
    25
100
AcDbLine
 10
146.8462760492
 20
457.5676638121
 30
0.0
 11
146.8462760492
 21
456.5256281862
 31
0.0
  0
ARC
  5
E1
330
1F
100
AcDbEntity
  8
0
  6
Continuous
 62
     7
370
    25
100
AcDbCircle
 10
146.8462760492
 20
417.5676638121
 30
0.0
 40
40.0
100
AcDbArc
 50
90.0
 51
180.0
  0
LINE
  5
E2
330
1F
100
AcDbEntity
  8
0
  6
Continuous
 62
     7
370
    25
100
AcDbLine
 10
106.8462760492
 20
417.5676638121
 30
0.0
 11
107.8883116751
 21
417.5676638121
 31
0.0
  0
ARC
  5
E3
330
1F
100
AcDbEntity
  8
0
  6
Continuous
 62
     7
370
    25
100
AcDbCircle
 10
266.8462760492
 20
417.5676638121
 30
0.0
 40
39.99999999999989
100
AcDbArc
 50
0.0
 51
90.0
  0
LINE
  5
E4
330
1F
100
AcDbEntity
  8
0
  6
Continuous
 62
     7
370
    25
100
AcDbLine
 10
306.8462760492
 20
417.5676638121
 30
0.0
 11
305.8042404234
 21
417.5676638121
 31
0.0
  0
LINE
  5
E5
330
1F
100
AcDbEntity
  8
0
  6
Continuous
 62
     7
370
    25
100
AcDbLine
 10
266.8462760492
 20
442.49316636
 30
0.0
 11
146.8462760492
 21
442.49316636
 31
0.0
  0
LINE
  5
E6
330
1F
100
AcDbEntity
  8
0
  6
Continuous
 62
     7
370
    25
100
AcDbLine
 10
306.8462760492
 20
417.5676638121
 30
0.0
 11
306.8462760492
 21
82.5676638121
 31
0.0
  0
LINE
  5
E7
330
1F
100
AcDbEntity
  8
0
  6
Continuous
 62
     7
370
    25
100
AcDbLine
 10
305.8042404234
 20
82.5676638121
 30
0.0
 11
306.8462760492
 21
82.5676638121
 31
0.0
  0
LINE
  5
E8
330
1F
100
AcDbEntity
  8
0
  6
Continuous
 62
     7
370
    25
100
AcDbLine
 10
107.8883116751
 20
82.5676638121
 30
0.0
 11
106.8462760492
 21
82.5676638121
 31
0.0
  0
LINE
  5
E9
330
1F
100
AcDbEntity
  8
0
  6
Continuous
 62
     7
370
    25
100
AcDbLine
 10
106.8462760492
 20
82.5676638121
 30
0.0
 11
106.8462760492
 21
417.5676638121
 31
0.0
  0
ARC
  5
EA
330
1F
100
AcDbEntity
  8
0
  6
Continuous
 62
     7
370
    25
100
AcDbCircle
 10
146.8462760492
 20
82.5676638121
 30
0.0
 40
24.92550254794045
100
AcDbArc
 50
180.0
 51
270.0
  0
LINE
  5
EB
330
1F
100
AcDbEntity
  8
0
  6
Continuous
 62
     7
370
    25
100
AcDbLine
 10
146.8462760492
 20
57.6421612641
 30
0.0
 11
146.8462760492
 21
56.144216962
 31
0.0
  0
ARC
  5
EC
330
1F
100
AcDbEntity
  8
0
  6
Continuous
 62
     7
370
    25
100
AcDbCircle
 10
266.8462760492
 20
82.5676638121
 30
0.0
 40
24.92550254794048
100
AcDbArc
 50
270.0
 51
0.0
  0
LINE
  5
ED
330
1F
100
AcDbEntity
  8
0
  6
Continuous
 62
     7
370
    25
100
AcDbLine
 10
266.8462760492
 20
57.6421612641
 30
0.0
 11
266.8462760492
 21
56.144216962
 31
0.0
  0
ARC
  5
EE
330
1F
100
AcDbEntity
  8
0
  6
Continuous
 62
     7
370
    25
100
AcDbCircle
 10
266.8462760492
 20
82.5676638121
 30
0.0
 40
40.0
100
AcDbArc
 50
270.0
 51
0.0
  0
LINE
  5
EF
330
1F
100
AcDbEntity
  8
0
  6
Continuous
 62
     7
370
    25
100
AcDbLine
 10
266.8462760492
 20
43.609699438
 30
0.0
 11
266.8462760492
 21
42.5676638121
 31
0.0
  0
LINE
  5
F0
330
1F
100
AcDbEntity
  8
0
  6
Continuous
 62
     7
370
    25
100
AcDbLine
 10
146.8462760492
 20
43.609699438
 30
0.0
 11
146.8462760492
 21
42.5676638121
 31
0.0
  0
ARC
  5
F1
330
1F
100
AcDbEntity
  8
0
  6
Continuous
 62
     7
370
    25
100
AcDbCircle
 10
146.8462760492
 20
82.5676638121
 30
0.0
 40
40.0
100
AcDbArc
 50
180.0
 51
270.0
  0
LINE
  5
F2
330
1F
100
AcDbEntity
  8
0
  6
Continuous
 62
     7
370
    25
100
AcDbLine
 10
146.8462760492
 20
57.6421612641
 30
0.0
 11
266.8462760492
 21
57.6421612641
 31
0.0
  0
LINE
  5
F3
330
1F
100
AcDbEntity
  8
0
  6
Continuous
 62
     7
370
    25
100
AcDbLine
 10
266.8462760492
 20
42.5676638121
 30
0.0
 11
146.8462760492
 21
42.5676638121
 31
0.0
  0
LINE
  5
F4
330
1F
100
AcDbEntity
  8
0
  6
Continuous
 62
     7
370
    25
100
AcDbLine
 10
291.7717785972
 20
417.5676638121
 30
0.0
 11
285.8556155877
 21
417.5676638121
 31
0.0
  0
SPLINE
  5
F5
330
1F
100
AcDbEntity
  8
0
  6
Continuous
 62
     7
370
    25
100
AcDbSpline
210
0.0
220
0.0
230
1.0
 70
     8
 71
     3
 72
    42
 73
    38
 74
     0
 42
0.00000001
 43
0.00000001
 40
0.0
 40
0.0
 40
0.0
 40
0.0
 40
0.0144671782304876
 40
0.028866365574364
 40
0.0431976169390374
 40
0.0574609872075859
 40
0.0716565312443962
 40
0.0857843039009344
 40
0.0998443600216486
 40
0.1138367544500044
 40
0.1277615420346603
 40
0.1416187776357902
 40
0.1554085161315436
 40
0.1691308124246675
 40
0.182785721449274
 40
0.1963732981777712
 40
0.2098935976279601
 40
0.2233466748702941
 40
0.2367325850353179
 40
0.2500513833212757
 40
0.3131569520208441
 40
0.3758478235170113
 40
0.4381294770857863
 40
0.5000074102578123
 40
0.561884109408279
 40
0.6241653515022935
 40
0.6868566342476259
 40
0.7499634370654826
 40
0.7766663298714968
 40
0.8036379351609207
 40
0.8308786929059101
 40
0.8583890422255351
 40
0.886169421615675
 40
0.9142202691684241
 40
0.942542022781563
 40
0.9711351203586159
 40
1.0
 40
1.0
 40
1.0
 40
1.0
 10
266.8462760492433
 20
436.5770033505123
 30
0.0
 10
266.9900095925439
 20
436.5756714052301
 30
0.0
 10
267.2768011796877
 20
436.573013774362
 30
0.0
 10
267.7057572265416
 20
436.5567509046626
 30
0.0
 10
268.1322564003966
 20
436.5316694287999
 30
0.0
 10
268.5560934303514
 20
436.4970363997211
 30
0.0
 10
268.9770692224301
 20
436.4532360341898
 30
0.0
 10
269.3949909592171
 20
436.4003597238703
 30
0.0
 10
269.8096720857139
 20
436.3385808833916
 30
0.0
 10
270.2209323171552
 20
436.2680549516572
 30
0.0
 10
270.6285976334485
 20
436.1889457251595
 30
0.0
 10
271.0325002679882
 20
436.101418088102
 30
0.0
 10
271.4324786961321
 20
436.0056396831581
 30
0.0
 10
271.8283775959344
 20
435.9017802200789
 30
0.0
 10
272.2200478859814
 20
435.7900113745275
 30
0.0
 10
272.6073464522627
 20
435.670506693714
 30
0.0
 10
272.9901370028167
 20
435.5434409165328
 30
0.0
 10
273.368286721401
 20
435.4089916352711
 30
0.0
 10
273.7416784603729
 20
435.2673322617091
 30
0.0
 10
274.5699279624995
 20
434.9331547895394
 30
0.0
 10
275.822096397083
 20
434.3385915549169
 30
0.0
 10
277.4274182703414
 20
433.3722983975402
 30
0.0
 10
278.9210804591151
 20
432.2609118447739
 30
0.0
 10
280.2937846509635
 20
431.0151903763398
 30
0.0
 10
281.539506062051
 20
429.6424882362384
 30
0.0
 10
282.6508849441538
 20
428.1488461474621
 30
0.0
 10
283.61720152622
 20
426.5434871691812
 30
0.0
 10
284.2689346460787
 20
425.1709221529287
 30
0.0
 10
284.6922338661092
 20
424.0892568628951
 30
0.0
 10
284.9538145596261
 20
423.3281359212895
 30
0.0
 10
285.1851350845884
 20
422.5489952092655
 30
0.0
 10
285.3848304062486
 20
421.7529313752372
 30
0.0
 10
285.5514669858087
 20
420.9411683851613
 30
0.0
 10
285.6839561408426
 20
420.1150218533334
 30
0.0
 10
285.7800910537734
 20
419.2759096589308
 30
0.0
 10
285.8420977268608
 20
418.4253492689132
 30
0.0
 10
285.8510954473587
 20
417.8544590871945
 30
0.0
 10
285.8556155876732
 20
417.5676638120822
 30
0.0
  0
LINE
  5
F6
330
1F
100
AcDbEntity
  8
0
  6
Continuous
 62
     7
370
    25
100
AcDbLine
 10
266.8462760492
 20
442.49316636
 30
0.0
 11
266.8462760492
 21
436.5770033505
 31
0.0
  0
LINE
  5
F7
330
1F
100
AcDbEntity
  8
0
  6
Continuous
 62
     7
370
    25
100
AcDbLine
 10
146.8462760492
 20
442.49316636
 30
0.0
 11
146.8462760492
 21
436.5770033505
 31
0.0
  0
SPLINE
  5
F8
330
1F
100
AcDbEntity
  8
0
  6
Continuous
 62
     7
370
    25
100
AcDbSpline
210
0.0
220
0.0
230
1.0
 70
     8
 71
     3
 72
    42
 73
    38
 74
     0
 42
0.00000001
 43
0.00000001
 40
0.0
 40
0.0
 40
0.0
 40
0.0
 40
0.0144671783047046
 40
0.0288663657140579
 40
0.0431976171354694
 40
0.0574609874520212
 40
0.0716565315280976
 40
0.0857843042151693
 40
0.0998443603576857
 40
0.1138367547991128
 40
0.1277615423881126
 40
0.1416187779848588
 40
0.1554085164675031
 40
0.1691308127387939
 40
0.1827857217328444
 40
0.1963732984220663
 40
0.2098935978242609
 40
0.2233466750098822
 40
0.2367325851094784
 40
0.2500513833212932
 40
0.3131569522587308
 40
0.3758478238341929
 40
0.4381294773236719
 40
0.5000074102577992
 40
0.561884109398212
 40
0.6241653514888763
 40
0.6868566342375628
 40
0.7499634370654769
 40
0.7766663298655863
 40
0.8036379351505798
 40
0.8308786928926158
 40
0.8583890422107627
 40
0.8861694216009011
 40
0.9142202691551264
 40
0.9425420227712192
 40
0.971135120352704
 40
0.9999999999999999
 40
0.9999999999999999
 40
0.9999999999999999
 40
0.9999999999999999
 10
127.8369365108132
 20
417.5676638120822
 30
0.0
 10
127.838268456107
 20
417.7113973561202
 30
0.0
 10
127.8409260869975
 20
417.9981889446519
 30
0.0
 10
127.8571889568456
 20
418.4271449934537
 30
0.0
 10
127.8822704329198
 20
418.8536441689908
 30
0.0
 10
127.9169034622621
 20
419.2774812003598
 30
0.0
 10
127.9607038280892
 20
419.6984569935848
 30
0.0
 10
128.0135801387193
 20
420.11637873125
 30
0.0
 10
128.0753589795056
 20
420.5310598583582
 30
0.0
 10
128.145884911527
 20
420.9423200901456
 30
0.0
 10
128.2249941382743
 20
421.3499854065223
 30
0.0
 10
128.3125217755264
 20
421.7538880408862
 30
0.0
 10
128.4083001805942
 20
422.1538664685986
 30
0.0
 10
128.5121596437096
 20
422.5497653677184
 30
0.0
 10
128.623928489194
 20
422.941435656837
 30
0.0
 10
128.7434331698215
 20
423.3287342219502
 30
0.0
 10
128.8704989466829
 20
423.7115247711025
 30
0.0
 10
129.0049482274759
 20
424.0896744880587
 30
0.0
 10
129.1466076004066
 20
424.4630662251834
 30
0.0
 10
129.480785072985
 20
425.2913157282023
 30
0.0
 10
130.075348308885
 20
426.5434841648872
 30
0.0
 10
131.0416414681877
 20
428.1488060397594
 30
0.0
 10
132.1530280201895
 20
429.6424682261387
 30
0.0
 10
133.3987494866729
 20
431.0151724153194
 30
0.0
 10
134.7714516249103
 20
432.2608938247366
 30
0.0
 10
136.2650937135853
 20
433.3722727068065
 30
0.0
 10
137.8704526919344
 20
434.3385892889542
 30
0.0
 10
139.2430177082504
 20
434.9903224088561
 30
0.0
 10
140.3246829982796
 20
435.4136216288903
 30
0.0
 10
141.0858039397569
 20
435.6752023223738
 30
0.0
 10
141.8649446516921
 20
435.9065228473254
 30
0.0
 10
142.6610084856733
 20
436.1062181689924
 30
0.0
 10
143.4727714757452
 20
436.2728547485713
 30
0.0
 10
144.2989180076137
 20
436.4053439036304
 30
0.0
 10
145.138030202102
 20
436.5014788165868
 30
0.0
 10
145.9885905922507
 20
436.563485489695
 30
0.0
 10
146.5594807740722
 20
436.572483210196
 30
0.0
 10
146.8462760492432
 20
436.5770033505122
 30
0.0
  0
LINE
  5
F9
330
1F
100
AcDbEntity
  8
0
  6
Continuous
 62
     7
370
    25
100
AcDbLine
 10
121.9207735013
 20
417.5676638121
 30
0.0
 11
127.8369365108
 21
417.5676638121
 31
0.0
  0
LINE
  5
FA
330
1F
100
AcDbEntity
  8
0
  6
Continuous
 62
     7
370
    25
100
AcDbLine
 10
291.7717785972
 20
82.5676638121
 30
0.0
 11
286.3638208162
 21
82.5676638121
 31
0.0
  0
SPLINE
  5
FB
330
1F
100
AcDbEntity
  8
0
  6
Continuous
 62
     7
370
    25
100
AcDbSpline
210
0.0
220
0.0
230
1.0
 70
     8
 71
     3
 72
    14
 73
    10
 74
     0
 42
0.00000001
 43
0.00000001
 40
0.0
 40
0.0
 40
0.0
 40
0.0
 40
0.1249999999999999
 40
0.1249999999999999
 40
0.2499999999999999
 40
0.2499999999999999
 40
0.4999999999999999
 40
0.4999999999999999
 40
1.0
 40
1.0
 40
1.0
 40
1.0
 10
285.7911907150806
 20
289.3836213642399
 30
0.0
 10
285.8010716690312
 20
280.7533218988444
 30
0.0
 10
285.8133023241886
 20
272.1252022382038
 30
0.0
 10
285.8415418264929
 20
254.8724679246404
 30
0.0
 10
285.8575621042341
 20
246.2478638758163
 30
0.0
 10
285.910687552125
 20
220.3787501442326
 30
0.0
 10
285.9528305303184
 20
203.1389140080057
 30
0.0
 10
286.0976907830927
 20
151.4365042308126
 30
0.0
 10
286.218878102287
 20
116.9910651476176
 30
0.0
 10
286.3638208161575
 20
82.56766381208219
 30
0.0
  0
SPLINE
  5
FC
330
1F
100
AcDbEntity
  8
0
  6
Continuous
 62
     7
370
    25
100
AcDbSpline
210
0.0
220
0.0
230
1.0
 70
     8
 71
     3
 72
     8
 73
     4
 74
     0
 42
0.00000001
 43
0.00000001
 40
0.0
 40
0.0
 40
0.0
 40
0.0
 40
1.0
 40
1.0
 40
1.0
 40
1.0
 10
285.7683142153315
 20
315.3806660094689
 30
0.0
 10
285.7731361841807
 20
306.7147530566399
 30
0.0
 10
285.781270020071
 20
298.0486317733062
 30
0.0
 10
285.7911907150802
 20
289.3836213642398
 30
0.0
  0
SPLINE
  5
FD
330
1F
100
AcDbEntity
  8
0
  6
Continuous
 62
     7
370
    25
100
AcDbSpline
210
0.0
220
0.0
230
1.0
 70
     8
 71
     3
 72
    14
 73
    10
 74
     0
 42
0.00000001
 43
0.00000001
 40
0.0
 40
0.0
 40
0.0
 40
0.0
 40
0.25
 40
0.25
 40
0.5
 40
0.5
 40
0.75
 40
0.75
 40
1.0
 40
1.0
 40
1.0
 40
1.0
 10
285.7683142153311
 20
349.7546616146722
 30
0.0
 10
285.7667202502919
 20
346.8900304418098
 30
0.0
 10
285.7631887287317
 20
344.0259148637668
 30
0.0
 10
285.7576951309992
 20
338.2972660693291
 30
0.0
 10
285.7557888545477
 20
335.4327174585774
 30
0.0
 10
285.7557888554696
 20
329.7026078782202
 30
0.0
 10
285.7576951321301
 20
326.8380602088115
 30
0.0
 10
285.7631887295508
 20
321.1094120729639
 30
0.0
 10
285.7667202505257
 20
318.2452967622806
 30
0.0
 10
285.7683142153311
 20
315.3806660095136
 30
0.0
  0
SPLINE
  5
FE
330
1F
100
AcDbEntity
  8
0
  6
Continuous
 62
     7
370
    25
100
AcDbSpline
210
0.0
220
0.0
230
1.0
 70
     8
 71
     3
 72
     8
 73
     4
 74
     0
 42
0.00000001
 43
0.00000001
 40
0.0
 40
0.0
 40
0.0
 40
0.0
 40
1.0
 40
1.0
 40
1.0
 40
1.0
 10
285.7911907150801
 20
375.7517062598923
 30
0.0
 10
285.7812694863009
 20
367.0862296412538
 30
0.0
 10
285.7731361946715
 20
358.4205934212131
 30
0.0
 10
285.7683142153315
 20
349.7546616146721
 30
0.0
  0
SPLINE
  5
FF
330
1F
100
AcDbEntity
  8
0
  6
Continuous
 62
     7
370
    25
100
AcDbSpline
210
0.0
220
0.0
230
1.0
 70
     8
 71
     3
 72
     8
 73
     4
 74
     0
 42
0.00000001
 43
0.00000001
 40
0.0
 40
0.0
 40
0.0
 40
0.0
 40
1.0
 40
1.0
 40
1.0
 40
1.0
 10
285.8556155876732
 20
417.5676638120822
 30
0.0
 10
285.829148459236
 20
403.6305838563183
 30
0.0
 10
285.8071512675623
 20
389.6920958455846
 30
0.0
 10
285.7911907150805
 20
375.7517062598923
 30
0.0
  0
SPLINE
  5
100
330
1F
100
AcDbEntity
  8
0
  6
Continuous
 62
     7
370
    25
100
AcDbSpline
210
0.0
220
0.0
230
1.0
 70
     8
 71
     3
 72
     8
 73
     4
 74
     0
 42
0.00000001
 43
0.00000001
 40
0.0
 40
0.0
 40
0.0
 40
0.0
 40
1.0
 40
1.0
 40
1.0
 40
1.0
 10
127.9013613834062
 20
375.7517062599269
 30
0.0
 10
127.8854003514097
 20
389.6925146671891
 30
0.0
 10
127.8634029194255
 20
403.6309629022752
 30
0.0
 10
127.8369365108132
 20
417.5676638120822
 30
0.0
  0
SPLINE
  5
101
330
1F
100
AcDbEntity
  8
0
  6
Continuous
 62
     7
370
    25
100
AcDbSpline
210
0.0
220
0.0
230
1.0
 70
     8
 71
     3
 72
     8
 73
     4
 74
     0
 42
0.00000001
 43
0.00000001
 40
0.0
 40
0.0
 40
0.0
 40
0.0
 40
1.0
 40
1.0
 40
1.0
 40
1.0
 10
127.9242378831553
 20
349.7546616146954
 30
0.0
 10
127.9194159143061
 20
358.4205745675252
 30
0.0
 10
127.9112820784155
 20
367.0866958508598
 30
0.0
 10
127.9013613834063
 20
375.751706259927
 30
0.0
  0
SPLINE
  5
102
330
1F
100
AcDbEntity
  8
0
  6
Continuous
 62
     7
370
    25
100
AcDbSpline
210
0.0
220
0.0
230
1.0
 70
     8
 71
     3
 72
    14
 73
    10
 74
     0
 42
0.00000001
 43
0.00000001
 40
0.0
 40
0.0
 40
0.0
 40
0.0
 40
0.25
 40
0.25
 40
0.5
 40
0.5
 40
0.75
 40
0.75
 40
1.0
 40
1.0
 40
1.0
 40
1.0
 10
127.9242378831553
 20
315.3806660094923
 30
0.0
 10
127.9258318481945
 20
318.2452971823562
 30
0.0
 10
127.9293633697551
 20
321.109412760401
 30
0.0
 10
127.9348569674877
 20
326.8380615548417
 30
0.0
 10
127.9367632439391
 20
329.7026101655951
 30
0.0
 10
127.9367632430172
 20
335.4327197459554
 30
0.0
 10
127.9348569663567
 20
338.2972674153658
 30
0.0
 10
127.929363368936
 20
344.0259155512165
 30
0.0
 10
127.9258318479608
 20
346.8900308619014
 30
0.0
 10
127.9242378831553
 20
349.7546616146701
 30
0.0
  0
SPLINE
  5
103
330
1F
100
AcDbEntity
  8
0
  6
Continuous
 62
     7
370
    25
100
AcDbSpline
210
0.0
220
0.0
230
1.0
 70
     8
 71
     3
 72
     8
 73
     4
 74
     0
 42
0.00000001
 43
0.00000001
 40
0.0
 40
0.0
 40
0.0
 40
0.0
 40
1.0
 40
1.0
 40
1.0
 40
1.0
 10
127.9013613834063
 20
289.383621364271
 30
0.0
 10
127.9112826121855
 20
298.0490979829099
 30
0.0
 10
127.9194159038154
 20
306.7147342029509
 30
0.0
 10
127.9242378831553
 20
315.3806660094923
 30
0.0
  0
SPLINE
  5
104
330
1F
100
AcDbEntity
  8
0
  6
Continuous
 62
     7
370
    25
100
AcDbSpline
210
0.0
220
0.0
230
1.0
 70
     8
 71
     3
 72
    14
 73
    10
 74
     0
 42
0.00000001
 43
0.00000001
 40
0.0
 40
0.0
 40
0.0
 40
0.0
 40
0.5
 40
0.5
 40
0.75
 40
0.75
 40
0.875
 40
0.875
 40
1.0
 40
1.0
 40
1.0
 40
1.0
 10
127.328731282329
 20
82.56766381208219
 30
0.0
 10
127.4736852684741
 20
116.9937422744732
 30
0.0
 10
127.5948747158807
 20
151.4405770880784
 30
0.0
 10
127.7397322503901
 20
203.1430816592207
 30
0.0
 10
127.7818733303616
 20
220.3826167914585
 30
0.0
 10
127.8349954621368
 20
246.2507318199251
 30
0.0
 10
127.8510145555206
 20
254.8749114051857
 30
0.0
 10
127.8792517624172
 20
272.1265904159963
 30
0.0
 10
127.891481297263
 20
280.7540798659603
 30
0.0
 10
127.9013613834063
 20
289.3836213642711
 30
0.0
  0
LINE
  5
105
330
1F
100
AcDbEntity
  8
0
  6
Continuous
 62
     7
370
    25
100
AcDbLine
 10
121.9207735013
 20
82.5676638121
 30
0.0
 11
127.3287312823
 21
82.5676638121
 31
0.0
  0
LINE
  5
106
330
1F
100
AcDbEntity
  8
0
  6
Continuous
 62
     7
370
    25
100
AcDbLine
 10
182.5962760492
 20
440.8444761515
 30
0.0
 11
182.5962760492
 21
439.6930851141
 31
0.0
  0
ARC
  5
107
330
1F
100
AcDbEntity
  8
0
  6
Continuous
 62
     7
370
    25
100
AcDbCircle
 10
183.3469608123
 20
444.4568317774
 30
0.0
 40
4.822531480999639
100
AcDbArc
 50
261.0448095014
 51
272.9633983002
  0
LINE
  5
108
330
1F
100
AcDbEntity
  8
0
  6
Continuous
 62
     7
370
    25
100
AcDbLine
 10
183.5962760492
 20
439.6407491579
 30
0.0
 11
230.0962760492
 21
439.6407491579
 31
0.0
  0
ARC
  5
109
330
1F
100
AcDbEntity
  8
0
  6
Continuous
 62
     7
370
    25
100
AcDbCircle
 10
230.3455912862
 20
444.4568317774
 30
0.0
 40
4.822531481004524
100
AcDbArc
 50
267.0366016998
 51
278.9551904986
  0
LINE
  5
10A
330
1F
100
AcDbEntity
  8
0
  6
Continuous
 62
     7
370
    25
100
AcDbLine
 10
231.0962760492
 20
439.6930851141
 30
0.0
 11
231.0962760492
 21
440.8444761515
 31
0.0
  0
ARC
  5
10B
330
1F
100
AcDbEntity
  8
0
  6
Continuous
 62
     7
370
    25
100
AcDbCircle
 10
230.3455912862
 20
436.0807294882
 30
0.0
 40
4.822531480999371
100
AcDbArc
 50
81.0448095014
 51
92.9633983002
  0
LINE
  5
10C
330
1F
100
AcDbEntity
  8
0
  6
Continuous
 62
     7
370
    25
100
AcDbLine
 10
230.0962760492
 20
440.8968121077
 30
0.0
 11
183.5962760492
 21
440.8968121077
 31
0.0
  0
ARC
  5
10D
330
1F
100
AcDbEntity
  8
0
  6
Continuous
 62
     7
370
    25
100
AcDbCircle
 10
183.3469608123
 20
436.0807294882
 30
0.0
 40
4.822531480994972
100
AcDbArc
 50
87.0366016997
 51
98.9551904986
  0
SPLINE
  5
10E
330
1F
100
AcDbEntity
  8
0
  6
Continuous
 62
     7
370
    25
100
AcDbSpline
210
0.0
220
0.0
230
1.0
 70
     8
 71
     3
 72
    12
 73
     8
 74
     0
 42
0.00000001
 43
0.00000001
 40
0.0
 40
0.0
 40
0.0
 40
0.0
 40
0.125
 40
0.125
 40
0.75
 40
0.75
 40
1.0
 40
1.0
 40
1.0
 40
1.0
 10
266.8462760492433
 20
436.5770033505122
 30
0.0
 10
266.8462760492383
 20
436.5768641617069
 30
0.0
 10
266.8462742218709
 20
436.5767249789902
 30
0.0
 10
266.8462522941012
 20
436.575889919083
 30
0.0
 10
266.846188339436
 20
436.5751941874634
 30
0.0
 10
266.8460348665295
 20
436.5742203714357
 30
0.0
 10
266.8459837101133
 20
436.5739421620838
 30
0.0
 10
266.8459252474945
 20
436.5736639763455
 30
0.0
  0
SPLINE
  5
10F
330
1F
100
AcDbEntity
  8
0
  6
Continuous
 62
     7
370
    25
100
AcDbSpline
210
0.0
220
0.0
230
1.0
 70
     8
 71
     3
 72
    14
 73
    10
 74
     0
 42
0.00000001
 43
0.00000001
 40
0.0
 40
0.0
 40
0.0
 40
0.0
 40
0.25
 40
0.25
 40
0.5
 40
0.5
 40
0.75
 40
0.75
 40
1.0
 40
1.0
 40
1.0
 40
1.0
 10
146.8466268509903
 20
436.5736639763455
 30
0.0
 10
156.8455804767285
 20
436.5601706141275
 30
0.0
 10
166.8447825838411
 20
436.5495320803669
 30
0.0
 10
186.8437798278863
 20
436.5350683943775
 30
0.0
 10
196.8435787342641
 20
436.5312865496982
 30
0.0
 10
216.843834771656
 20
436.5312852719197
 30
0.0
 10
226.8442919068231
 20
436.5350658865364
 30
0.0
 10
246.8458069910058
 20
436.5495299288156
 30
0.0
 10
256.84674210638
 20
436.5601703044017
 30
0.0
 10
266.8459252474947
 20
436.5736639763455
 30
0.0
  0
LINE
  5
110
330
1F
100
AcDbEntity
  8
0
  6
Continuous
 62
     7
370
    25
100
AcDbLine
 10
146.8462760492
 20
436.5770033505
 30
0.0
 11
146.8462760492
 21
436.5736639763
 31
0.0
  0
LINE
  5
111
330
1F
100
AcDbEntity
  8
0
  6
Continuous
 62
     7
370
    25
100
AcDbLine
 10
266.8462760492
 20
57.6421612641
 30
0.0
 11
266.8462760492
 21
63.0501190452
 31
0.0
  0
SPLINE
  5
112
330
1F
100
AcDbEntity
  8
0
  6
Continuous
 62
     7
370
    25
100
AcDbSpline
210
0.0
220
0.0
230
1.0
 70
     8
 71
     3
 72
    42
 73
    38
 74
     0
 42
0.00000001
 43
0.00000001
 40
0.0
 40
0.0
 40
0.0
 40
0.0
 40
0.01446718071001
 40
0.0288663702414137
 40
0.0431976235016736
 40
0.0574609953739221
 40
0.0716565407226026
 40
0.0857843143992329
 40
0.0998443712483156
 40
0.1138367661133706
 40
0.1277615538431093
 40
0.1416187892977583
 40
0.1554085273555205
 40
0.1691308229191961
 40
0.1827857309229494
 40
0.1963733063392427
 40
0.2098936041859303
 40
0.2233466795335196
 40
0.2367325875126074
 40
0.250051383321494
 40
0.3131569684036003
 40
0.3758478453591096
 40
0.4381294934659674
 40
0.5000074102571795
 40
0.5618841260344936
 40
0.6241653736724097
 40
0.6868566508763494
 40
0.7499634370655999
 40
0.7766663346780288
 40
0.8036379435732707
 40
0.8308787037230452
 40
0.8583890542459904
 40
0.8861694336375558
 40
0.9142202799894075
 40
0.9425420311988915
 40
0.9711351251690972
 40
1.0
 40
1.0
 40
1.0
 40
1.0
 10
286.3638208161575
 20
82.56766381208219
 30
0.0
 10
286.3624532615824
 20
82.42008759876806
 30
0.0
 10
286.3597245795064
 20
82.12562873371756
 30
0.0
 10
286.3430269249781
 20
81.68520469368958
 30
0.0
 10
286.3172749010966
 20
81.24730321906657
 30
0.0
 10
286.2817159661865
 20
80.81213506861428
 30
0.0
 10
286.2367446095424
 20
80.37990465900624
 30
0.0
 10
286.1824546667376
 20
79.95080996252827
 30
0.0
 10
286.1190241891665
 20
79.52504252159939
 30
0.0
 10
286.0466127719121
 20
79.10278744074812
 30
0.0
 10
285.9653885910741
 20
78.68422339232181
 30
0.0
 10
285.8755209395337
 20
78.26952262797224
 30
0.0
 10
285.777181942376
 20
77.85885099048912
 30
0.0
 10
285.6705458470158
 20
77.45236795411594
 30
0.0
 10
285.5557889193248
 20
77.05022658570503
 30
0.0
 10
285.4330893467435
 20
76.65257382514822
 30
0.0
 10
285.3026265402426
 20
76.25954960788403
 30
0.0
 10
285.1645828404565
 20
75.87129030069026
 30
0.0
 10
285.0191362957286
 20
75.48791618283695
 30
0.0
 10
284.6760247089712
 20
74.63752373215468
 30
0.0
 10
284.0655660202283
 20
73.35187902526896
 30
0.0
 10
283.0734393601344
 20
71.70363955693465
 30
0.0
 10
281.9323404952971
 20
70.17004522237299
 30
0.0
 10
280.6533153029217
 20
68.76064252452993
 30
0.0
 10
279.2439145927519
 20
67.48161734871191
 30
0.0
 10
277.7103405546363
 20
66.34052625059991
 30
0.0
 10
276.0620632190597
 20
65.34837581410119
 30
0.0
 10
274.6528035138575
 20
64.67921902891588
 30
0.0
 10
273.5422205174256
 20
64.24460314946442
 30
0.0
 10
272.7607512791642
 20
63.97602919844928
 30
0.0
 10
271.9607805539259
 20
63.73852442546113
 30
0.0
 10
271.1434343102068
 20
63.53349035445358
 30
0.0
 10
270.3099692374701
 20
63.36239884461325
 30
0.0
 10
269.4617361233098
 20
63.22636767904355
 30
0.0
 10
268.6001907538009
 20
63.12766266840805
 30
0.0
 10
267.726891164795
 20
63.06399829524367
 30
0.0
 10
267.1407386041721
 20
63.05476002777838
 30
0.0
 10
266.8462760492433
 20
63.05011904516791
 30
0.0
  0
SPLINE
  5
113
330
1F
100
AcDbEntity
  8
0
  6
Continuous
 62
     7
370
    25
100
AcDbSpline
210
0.0
220
0.0
230
1.0
 70
     8
 71
     3
 72
    42
 73
    38
 74
     0
 42
0.00000001
 43
0.00000001
 40
0.0
 40
0.0
 40
0.0
 40
0.0
 40
0.0144671806402585
 40
0.028866370110123
 40
0.0431976233170571
 40
0.0574609951441913
 40
0.0716565404559667
 40
0.0857843141039
 40
0.0998443709324937
 40
0.1138367657852622
 40
0.1277615535109203
 40
0.1416187889696884
 40
0.1554085270397718
 40
0.1691308226239677
 40
0.1827857306564385
 40
0.1963733061096452
 40
0.2098936040014404
 40
0.2233466794023305
 40
0.2367325874429106
 40
0.2500513833214807
 40
0.3131569681800421
 40
0.3758478450610325
 40
0.4381294932424112
 40
0.5000074102571924
 40
0.5618841260370838
 40
0.6241653736758571
 40
0.686856650878936
 40
0.7499634370656042
 40
0.776666334679533
 40
0.8036379435758996
 40
0.8308787037264241
 40
0.8583890542497439
 40
0.8861694336413093
 40
0.914220279992786
 40
0.9425420312015197
 40
0.971135125170599
 40
0.9999999999999999
 40
0.9999999999999999
 40
0.9999999999999999
 40
0.9999999999999999
 10
146.8462760492432
 20
63.05011904516791
 30
0.0
 10
146.6986998366406
 20
63.05148659973189
 30
0.0
 10
146.4042409729294
 20
63.05421528178615
 30
0.0
 10
145.9638169347812
 20
63.07091293617101
 30
0.0
 10
145.5259154617812
 20
63.09666495984848
 30
0.0
 10
145.0907473126938
 20
63.13222389450424
 30
0.0
 10
144.6585169041917
 20
63.17719525086291
 30
0.0
 10
144.2294222085612
 20
63.23148519336791
 30
0.0
 10
143.8036547682223
 20
63.29491567064222
 30
0.0
 10
143.381399687705
 20
63.36732708761975
 30
0.0
 10
142.9628356393592
 20
63.44855126821702
 30
0.0
 10
142.54813487484
 20
63.53841891956935
 30
0.0
 10
142.1374632369403
 20
63.63675791660766
 30
0.0
 10
141.7309801999087
 20
63.74339401193299
 30
0.0
 10
141.328838830602
 20
63.85815093968866
 30
0.0
 10
140.9311860689179
 20
63.98085051244934
 30
0.0
 10
140.5381618503012
 20
64.11131331925893
 30
0.0
 10
140.1499025415362
 20
64.24935701949714
 30
0.0
 10
139.7665284219005
 20
64.39480356483449
 30
0.0
 10
138.9161359720788
 20
64.73791515119703
 30
0.0
 10
137.6304912672209
 20
65.34837383870776
 30
0.0
 10
135.9822518004438
 20
66.34050049694298
 30
0.0
 10
134.4486574635719
 20
67.48159936251821
 30
0.0
 10
133.0392547632067
 20
68.76062455672843
 30
0.0
 10
131.7602295858329
 20
70.17002526861998
 30
0.0
 10
130.6191384877118
 20
71.70359930676246
 30
0.0
 10
129.6269880512348
 20
73.35187664232105
 30
0.0
 10
128.9578312660607
 20
74.76113634750625
 30
0.0
 10
128.5232153866104
 20
75.87171934393916
 30
0.0
 10
128.2546414355866
 20
76.653188582234
 30
0.0
 10
128.0171366625956
 20
77.45315930749553
 30
0.0
 10
127.8121025915898
 20
78.27050555122683
 30
0.0
 10
127.6410110817545
 20
79.1039706239646
 30
0.0
 10
127.5049799161912
 20
79.95220373811429
 30
0.0
 10
127.4062749055624
 20
80.81374910760078
 30
0.0
 10
127.3426105324035
 20
81.68704869657253
 30
0.0
 10
127.333372264939
 20
82.27320125716867
 30
0.0
 10
127.328731282329
 20
82.56766381208219
 30
0.0
  0
LINE
  5
114
330
1F
100
AcDbEntity
  8
0
  6
Continuous
 62
     7
370
    25
100
AcDbLine
 10
146.8462760492
 20
57.6421612641
 30
0.0
 11
146.8462760492
 21
63.0501190452
 31
0.0
  0
SPLINE
  5
115
330
1F
100
AcDbEntity
  8
0
  6
Continuous
 62
     7
370
    25
100
AcDbSpline
210
0.0
220
0.0
230
1.0
 70
     8
 71
     3
 72
     9
 73
     5
 74
     0
 42
0.00000001
 43
0.00000001
 40
0.0
 40
0.0
 40
0.0
 40
0.0
 40
0.49839580224158
 40
1.0
 40
1.0
 40
1.0
 40
1.0
 10
146.8567740382196
 20
63.06764971020787
 30
0.0
 10
146.8537121312089
 20
63.06473947201543
 30
0.0
 10
146.8475686063296
 20
63.05890026113261
 30
0.0
 10
146.846707822184
 20
63.05305237127071
 30
0.0
 10
146.8462760492432
 20
63.05011904516791
 30
0.0
  0
SPLINE
  5
116
330
1F
100
AcDbEntity
  8
0
  6
Continuous
 62
     7
370
    25
100
AcDbSpline
210
0.0
220
0.0
230
1.0
 70
     8
 71
     3
 72
     9
 73
     5
 74
     0
 42
0.00000001
 43
0.00000001
 40
0.0
 40
0.0
 40
0.0
 40
0.0
 40
0.5
 40
1.0
 40
1.0
 40
1.0
 40
1.0
 10
266.8357780602711
 20
63.06764971020479
 30
0.0
 10
246.8392773899293
 20
63.08798740778065
 30
0.0
 10
206.8462760492459
 20
63.10851522345096
 30
0.0
 10
166.8532747085625
 20
63.08798740778052
 30
0.0
 10
146.8567740382207
 20
63.06764971020479
 30
0.0
  0
SPLINE
  5
117
330
1F
100
AcDbEntity
  8
0
  6
Continuous
 62
     7
370
    25
100
AcDbSpline
210
0.0
220
0.0
230
1.0
 70
     8
 71
     3
 72
     9
 73
     5
 74
     0
 42
0.00000001
 43
0.00000001
 40
0.0
 40
0.0
 40
0.0
 40
0.0
 40
0.5016041979165409
 40
1.0
 40
1.0
 40
1.0
 40
1.0
 10
266.8462760492433
 20
63.05011904516791
 30
0.0
 10
266.8458442763018
 20
63.05305237127163
 30
0.0
 10
266.844983492155
 20
63.0589002611335
 30
0.0
 10
266.83883996728
 20
63.06473947201635
 30
0.0
 10
266.8357780602723
 20
63.06764971020784
 30
0.0
  0
LINE
  5
118
330
1F
100
AcDbEntity
  8
0
  6
Continuous
 62
     7
370
    25
100
AcDbLine
 10
183.5962760492
 20
439.6407491579
 30
0.0
 11
183.5962760492
 21
440.4396527857
 31
0.0
  0
ARC
  5
119
330
1F
100
AcDbEntity
  8
0
  6
Continuous
 62
     7
370
    25
100
AcDbCircle
 10
183.3469608123
 20
445.2557354052
 30
0.0
 40
4.822531480999639
100
AcDbArc
 50
261.0448095014
 51
272.9633983002
  0
LINE
  5
11A
330
1F
100
AcDbEntity
  8
0
  6
Continuous
 62
     7
370
    25
100
AcDbLine
 10
230.0962760492
 20
439.6407491579
 30
0.0
 11
230.0962760492
 21
440.4396527857
 31
0.0
  0
ARC
  5
11B
330
1F
100
AcDbEntity
  8
0
  6
Continuous
 62
     7
370
    25
100
AcDbCircle
 10
230.3455912862
 20
445.2557354052
 30
0.0
 40
4.822531481004636
100
AcDbArc
 50
267.0366016998
 51
278.9551904986
  0
LINE
  5
11C
330
1F
100
AcDbEntity
  8
0
  6
Continuous
 62
     7
370
    25
100
AcDbLine
 10
183.5962760492
 20
440.4396527857
 30
0.0
 11
230.0962760492
 21
440.4396527857
 31
0.0
  0
SPLINE
  5
11D
330
1F
100
AcDbEntity
  8
0
  6
Continuous
 62
     7
370
    25
100
AcDbSpline
210
0.0
220
0.0
230
1.0
 70
     8
 71
     3
 72
     8
 73
     4
 74
     0
 42
0.00000001
 43
0.00000001
 40
0.0
 40
0.0
 40
0.0
 40
0.0
 40
1.0
 40
1.0
 40
1.0
 40
1.0
 10
127.4551760388173
 20
82.47225089639868
 30
0.0
 10
127.3975222792864
 20
82.50400078908693
 30
0.0
 10
127.3553477838189
 20
82.53583052908812
 30
0.0
 10
127.328731282329
 20
82.56766381208219
 30
0.0
  0
ARC
  5
11E
330
1F
100
AcDbEntity
  8
0
  6
Continuous
 62
     7
370
    25
100
AcDbCircle
 10
147.0235517292
 20
600.1037133178
 30
0.0
 40
311.3079403215595
100
AcDbArc
 50
266.4783713873
 51
270.9501490104
  0
SPLINE
  5
11F
330
1F
100
AcDbEntity
  8
0
  6
Continuous
 62
     7
370
    25
100
AcDbSpline
210
0.0
220
0.0
230
1.0
 70
     8
 71
     3
 72
    14
 73
    10
 74
     0
 42
0.00000001
 43
0.00000001
 40
0.0
 40
0.0
 40
0.0
 40
0.0
 40
0.125
 40
0.125
 40
0.25
 40
0.25
 40
0.5
 40
0.5
 40
1.0
 40
1.0
 40
1.0
 40
1.0
 10
152.185805859722
 20
288.8385773974336
 30
0.0
 10
152.2020027642535
 20
280.3783502716381
 30
0.0
 10
152.2141580359392
 20
271.9200768770948
 30
0.0
 10
152.2276705152145
 20
255.0067009127386
 30
0.0
 10
152.2293359401404
 20
246.5516060893086
 30
0.0
 10
152.2219244125842
 20
221.1905668403097
 30
0.0
 10
152.2009429182004
 20
204.2888430832299
 30
0.0
 10
152.1078991760708
 20
153.5990594094002
 30
0.0
 10
152.0064844348104
 20
119.8264146267128
 30
0.0
 10
151.879084075153
 20
86.07354416243534
 30
0.0
  0
SPLINE
  5
120
330
1F
100
AcDbEntity
  8
0
  6
Continuous
 62
     7
370
    25
100
AcDbSpline
210
0.0
220
0.0
230
1.0
 70
     8
 71
     3
 72
    39
 73
    35
 74
     0
 42
0.00000001
 43
0.00000001
 40
0.0
 40
0.0
 40
0.0
 40
0.0
 40
0.0138262690437653
 40
0.0270401702099622
 40
0.0396416972208283
 40
0.051630844496652
 40
0.0630076071190384
 40
0.0737719807999143
 40
0.083923961857454
 40
0.0934635472008241
 40
0.1023907343262548
 40
0.1107055213285119
 40
0.1184079069337959
 40
0.1254978905640117
 40
0.1911004318264853
 40
0.2497015707585497
 40
0.3145274165552491
 40
0.3753324536350096
 40
0.4386461849471603
 40
0.4994374549781555
 40
0.5630304091552183
 40
0.6248353694541308
 40
0.687820954602379
 40
0.749745699814009
 40
0.7751176839715315
 40
0.8004084002697315
 40
0.825619422091938
 40
0.8507523359790339
 40
0.8758087414047637
 40
0.9007902505500305
 40
0.9256984880765312
 40
0.9505350908996341
 40
0.9753017079609089
 40
0.9999999999999999
 40
0.9999999999999999
 40
0.9999999999999999
 40
0.9999999999999999
 10
151.879084075153
 20
86.07354416243562
 30
0.0
 10
151.7151289544723
 20
86.03688064380466
 30
0.0
 10
151.3944803141221
 20
85.96517744020437
 30
0.0
 10
150.9247586864501
 20
85.86105650130274
 30
0.0
 10
150.4772385142733
 20
85.76243219743826
 30
0.0
 10
150.0520006020786
 20
85.6692807237667
 30
0.0
 10
149.6490739698381
 20
85.58149663203169
 30
0.0
 10
149.2684606875594
 20
85.49900048595497
 30
0.0
 10
148.9101355172877
 20
85.42171206271948
 30
0.0
 10
148.5740516325609
 20
85.34955723463169
 30
0.0
 10
148.2601441052954
 20
85.2824655692229
 30
0.0
 10
147.9683350269595
 20
85.22037332000282
 30
0.0
 10
147.6985332102642
 20
85.16321461257364
 30
0.0
 10
146.7616008843291
 20
84.96566920427084
 30
0.0
 10
145.2453700829122
 20
84.65292184928313
 30
0.0
 10
143.1174858282076
 20
84.23035174562202
 30
0.0
 10
141.1100775744362
 20
83.84981132976615
 30
0.0
 10
139.1385997563816
 20
83.49531288809489
 30
0.0
 10
137.3080530881267
 20
83.18678363113027
 30
0.0
 10
135.5661553137195
 20
82.91505962979994
 30
0.0
 10
133.9677678871252
 20
82.6895729516608
 30
0.0
 10
132.4973906742018
 20
82.50818060178972
 30
0.0
 10
131.1976980226861
 20
82.37665041099551
 30
0.0
 10
130.2882790238131
 20
82.31023647338489
 30
0.0
 10
129.6832945433628
 20
82.28160169347804
 30
0.0
 10
129.3058991293737
 20
82.27061178880362
 30
0.0
 10
128.9604505806514
 20
82.26786804427347
 30
0.0
 10
128.6471700853411
 20
82.27327190619279
 30
0.0
 10
128.3662279096312
 20
82.28671406758184
 30
0.0
 10
128.1178153651256
 20
82.30810438804592
 30
0.0
 10
127.901806400737
 20
82.3372888055077
 30
0.0
 10
127.7190375546263
 20
82.3743515579736
 30
0.0
 10
127.5665495285276
 20
82.41849480318231
 30
0.0
 10
127.4922663333572
 20
82.4543487067852
 30
0.0
 10
127.4551760388174
 20
82.47225089639865
 30
0.0
  0
SPLINE
  5
121
330
1F
100
AcDbEntity
  8
0
  6
Continuous
 62
     7
370
    25
100
AcDbSpline
210
0.0
220
0.0
230
1.0
 70
     8
 71
     3
 72
    41
 73
    37
 74
     0
 42
0.00000001
 43
0.00000001
 40
0.0
 40
0.0
 40
0.0
 40
0.0
 40
0.0137135168184021
 40
0.0274478797936009
 40
0.0412033750099102
 40
0.0549802874481138
 40
0.0687789009733354
 40
0.0825994983229263
 40
0.096442361094435
 40
0.1103077697335333
 40
0.1241960035219576
 40
0.1381073405655149
 40
0.1520420577819916
 40
0.1660004308892482
 40
0.179982734393207
 40
0.1939892415758728
 40
0.2080202244834716
 40
0.2220759539144358
 40
0.2361566994076728
 40
0.2502627292306223
 40
0.3121883729451538
 40
0.3751722710419968
 40
0.4369781278439428
 40
0.5005693939204857
 40
0.5613615540946735
 40
0.6246736118609918
 40
0.6854795219909934
 40
0.7503037017529768
 40
0.8089056558146489
 40
0.8745065980704357
 40
0.8892838007907602
 40
0.9065164310736645
 40
0.9262044388000963
 40
0.9483477588008152
 40
0.9729463110383161
 40
1.0
 40
1.0
 40
1.0
 40
1.0
 10
286.2373760596693
 20
82.47225089639885
 30
0.0
 10
286.2175500394191
 20
82.46213056089927
 30
0.0
 10
286.1778678610384
 20
82.44187450580104
 30
0.0
 10
286.1056851930597
 20
82.41445049258797
 30
0.0
 10
286.0241680284791
 20
82.3891845083741
 30
0.0
 10
285.9323985692853
 20
82.36630778942289
 30
0.0
 10
285.8306158541693
 20
82.34578033081041
 30
0.0
 10
285.7187536517793
 20
82.32763508490804
 30
0.0
 10
285.5968331960211
 20
82.31188550874577
 30
0.0
 10
285.4648577554816
 20
82.298550384728
 30
0.0
 10
285.3228409989115
 20
82.2876471435826
 30
0.0
 10
285.1707994233205
 20
82.27919364743724
 30
0.0
 10
285.0087544287672
 20
82.27320769919156
 30
0.0
 10
284.8367318136474
 20
82.26970716693523
 30
0.0
 10
284.654761908418
 20
82.26870992630495
 30
0.0
 10
284.462879730356
 20
82.27023391413677
 30
0.0
 10
284.2611244008431
 20
82.27429691812699
 30
0.0
 10
284.0495414874563
 20
82.28091731273813
 30
0.0
 10
283.8281743452911
 20
82.29011126488636
 30
0.0
 10
283.3361190298573
 20
82.31522081674011
 30
0.0
 10
282.4948345466391
 20
82.37664903647918
 30
0.0
 10
281.1951453433707
 20
82.50818329467188
 30
0.0
 10
279.7247727681363
 20
82.6895742627919
 30
0.0
 10
278.1263741498939
 20
82.91506302829349
 30
0.0
 10
276.3844865808864
 20
83.18678574396729
 30
0.0
 10
274.5539268577904
 20
83.49531706044822
 30
0.0
 10
272.582460222202
 20
83.84981494464355
 30
0.0
 10
270.5750422671729
 20
84.23035291822548
 30
0.0
 10
268.4471577894812
 20
84.65293883210562
 30
0.0
 10
266.8421914702466
 20
84.98394341829527
 30
0.0
 10
265.7034711366055
 20
85.22464002377403
 30
0.0
 10
265.0980247346185
 20
85.35379450465938
 30
0.0
 10
264.4036644076403
 20
85.50321948911626
 30
0.0
 10
263.6199219318491
 20
85.67357100388287
 30
0.0
 10
262.7467502940017
 20
85.86525834209566
 30
0.0
 10
262.134266319123
 20
86.00194981386386
 30
0.0
 10
261.8134680233339
 20
86.07354416243568
 30
0.0
  0
SPLINE
  5
122
330
1F
100
AcDbEntity
  8
0
  6
Continuous
 62
     7
370
    25
100
AcDbSpline
210
0.0
220
0.0
230
1.0
 70
     8
 71
     3
 72
    14
 73
    10
 74
     0
 42
0.00000001
 43
0.00000001
 40
0.0
 40
0.0
 40
0.0
 40
0.0
 40
0.5
 40
0.5
 40
0.75
 40
0.75
 40
0.875
 40
0.875
 40
1.0
 40
1.0
 40
1.0
 40
1.0
 10
261.8134680233335
 20
86.07354416243557
 30
0.0
 10
261.6860892798526
 20
119.8206877354369
 30
0.0
 10
261.5846417331088
 20
153.6027587251101
 30
0.0
 10
261.4916000633329
 20
204.2950085221553
 30
0.0
 10
261.4706223945925
 20
221.1967670936765
 30
0.0
 10
261.463216452345
 20
246.5565557808261
 30
0.0
 10
261.4648836684398
 20
255.0110156263187
 30
0.0
 10
261.4783974645381
 20
271.9226296687792
 30
0.0
 10
261.4905520660191
 20
280.3797771819938
 30
0.0
 10
261.5067462387644
 20
288.8385773974144
 30
0.0
  0
ARC
  5
123
330
1F
100
AcDbEntity
  8
0
  6
Continuous
 62
     7
370
    25
100
AcDbCircle
 10
266.6690003694
 20
600.1037133187
 30
0.0
 40
311.3079403224936
100
AcDbArc
 50
269.0498509896
 51
273.5216286126
  0
SPLINE
  5
124
330
1F
100
AcDbEntity
  8
0
  6
Continuous
 62
     7
370
    25
100
AcDbSpline
210
0.0
220
0.0
230
1.0
 70
     8
 71
     3
 72
     8
 73
     4
 74
     0
 42
0.00000001
 43
0.00000001
 40
0.0
 40
0.0
 40
0.0
 40
0.0
 40
1.0
 40
1.0
 40
1.0
 40
1.0
 10
286.3638208161575
 20
82.56766381208219
 30
0.0
 10
286.337204314668
 20
82.5358305289994
 30
0.0
 10
286.2950298192005
 20
82.50400078899833
 30
0.0
 10
286.2373760596693
 20
82.47225089639886
 30
0.0
  0
SPLINE
  5
125
330
1F
100
AcDbEntity
  8
0
  6
Continuous
 62
     7
370
    25
100
AcDbSpline
210
0.0
220
0.0
230
1.0
 70
     8
 71
     3
 72
    10
 73
     6
 74
     0
 42
0.00000001
 43
0.00000001
 40
0.0
 40
0.0
 40
0.0
 40
0.0
 40
0.5
 40
0.5
 40
1.0
 40
1.0
 40
1.0
 40
1.0
 10
151.8790840751531
 20
86.07354416243551
 30
0.0
 10
170.2000296153723
 20
86.08372674500869
 30
0.0
 10
188.5236640038916
 20
86.0885076849826
 30
0.0
 10
225.1705188814929
 20
86.0885073954481
 30
0.0
 10
243.4926377489776
 20
86.08372668094516
 30
0.0
 10
261.8134680233334
 20
86.07354416243548
 30
0.0
  0
SPLINE
  5
126
330
1F
100
AcDbEntity
  8
0
  6
Continuous
 62
     7
370
    25
100
AcDbSpline
210
0.0
220
0.0
230
1.0
 70
     8
 71
     3
 72
    90
 73
    86
 74
     0
 42
0.00000001
 43
0.00000001
 40
0.0
 40
0.0
 40
0.0
 40
0.0
 40
0.0067790027385645
 40
0.0067790027385645
 40
0.0135580054771289
 40
0.0135580054771289
 40
0.0271160109542578
 40
0.0271160109542578
 40
0.0542320219085155
 40
0.0542320219085155
 40
0.0813480328627731
 40
0.0813480328627731
 40
0.1084640438170309
 40
0.1084640438170309
 40
0.1355800547712886
 40
0.1355800547712886
 40
0.1626960657255463
 40
0.1626960657255463
 40
0.189812076679804
 40
0.189812076679804
 40
0.2033700821569329
 40
0.2033700821569329
 40
0.2169280876340618
 40
0.2169280876340618
 40
0.2313034777513449
 40
0.2313034777513449
 40
0.2456788678686279
 40
0.2456788678686279
 40
0.274429648103194
 40
0.274429648103194
 40
0.3031804283377602
 40
0.3031804283377602
 40
0.3319312085723263
 40
0.3319312085723263
 40
0.3606819888068924
 40
0.3606819888068924
 40
0.3894327690414585
 40
0.3894327690414585
 40
0.4181835492760246
 40
0.4181835492760246
 40
0.4469343295105908
 40
0.4469343295105908
 40
0.4630350967519847
 40
0.4630350967519847
 40
0.4791358639933787
 40
0.4791358639933787
 40
0.5113373984761668
 40
0.5113373984761668
 40
0.5435389329589548
 40
0.5435389329589548
 40
0.5757404674417428
 40
0.5757404674417428
 40
0.6079420019245307
 40
0.6079420019245307
 40
0.6401435364073188
 40
0.6401435364073188
 40
0.6723450708901069
 40
0.6723450708901069
 40
0.7045466053728948
 40
0.7045466053728948
 40
0.7137795239549919
 40
0.7137795239549919
 40
0.723012442537089
 40
0.723012442537089
 40
0.741478279701283
 40
0.741478279701283
 40
0.759944116865477
 40
0.759944116865477
 40
0.7784099540296712
 40
0.7784099540296712
 40
0.8153416283580592
 40
0.8153416283580592
 40
0.8522733026864474
 40
0.8522733026864474
 40
0.8892049770148356
 40
0.8892049770148356
 40
0.9076708141790296
 40
0.9076708141790296
 40
0.9261366513432236
 40
0.9261366513432236
 40
0.9630683256716118
 40
0.9630683256716118
 40
0.981534162835806
 40
0.981534162835806
 40
1.0
 40
1.0
 40
1.0
 40
1.0
 10
261.8134680233335
 20
86.07354416243557
 30
0.0
 10
261.8316117678867
 20
85.9943645471268
 30
0.0
 10
261.8498712050801
 20
85.91467991639689
 30
0.0
 10
261.8865340374609
 20
85.75468226773204
 30
0.0
 10
261.9049374326481
 20
85.67436924979712
 30
0.0
 10
261.9602324142702
 20
85.43306008064106
 30
0.0
 10
261.9972087967654
 20
85.27169381406851
 30
0.0
 10
262.1074280010506
 20
84.79069427659483
 30
0.0
 10
262.1807447985799
 20
84.4707360404344
 30
0.0
 10
262.3269854754643
 20
83.83252480556483
 30
0.0
 10
262.3998961623345
 20
83.51435260771592
 30
0.0
 10
262.5450890748896
 20
82.88068146799935
 30
0.0
 10
262.6173713005749
 20
82.56518252613174
 30
0.0
 10
262.7610981327181
 20
81.93766431518665
 30
0.0
 10
262.8325542581904
 20
81.62558195744977
 30
0.0
 10
262.974450263553
 20
81.00555889414399
 30
0.0
 10
263.0448901434432
 20
80.69761818857509
 30
0.0
 10
263.1845519932582
 20
80.08666658630229
 30
0.0
 10
263.2537738595606
 20
79.78365550124202
 30
0.0
 10
263.3565527624442
 20
79.3333933427913
 30
0.0
 10
263.3906367473105
 20
79.18401503483099
 30
0.0
 10
263.4584300334096
 20
78.88676947446119
 30
0.0
 10
263.4921393346424
 20
78.73890222205173
 30
0.0
 10
263.5611801347019
 20
78.43590540492667
 30
0.0
 10
263.5966268641967
 20
78.2802616919859
 30
0.0
 10
263.6673240285764
 20
77.96966365243144
 30
0.0
 10
263.7025744634614
 20
77.81470932581772
 30
0.0
 10
263.8079882948977
 20
77.35105101755005
 30
0.0
 10
263.8778142182313
 20
77.04355170746987
 30
0.0
 10
264.0163366360314
 20
76.43267536928263
 30
0.0
 10
264.0850567720955
 20
76.12919399229098
 30
0.0
 10
264.2211182271159
 20
75.52737385303185
 30
0.0
 10
264.2884595460718
 20
75.22903509076434
 30
0.0
 10
264.4214666954405
 20
74.63872921147296
 30
0.0
 10
264.4868797705568
 20
74.34786131514196
 30
0.0
 10
264.6153846169168
 20
73.77530230053061
 30
0.0
 10
264.6784763881612
 20
73.49361118225026
 30
0.0
 10
264.802198322041
 20
72.94001241516143
 30
0.0
 10
264.862828484677
 20
72.66810476635305
 30
0.0
 10
264.9814868966045
 20
72.13467962962945
 30
0.0
 10
265.0395151458965
 20
71.87316214171425
 30
0.0
 10
265.1279009356086
 20
71.47376946403733
 30
0.0
 10
265.1593020549217
 20
71.33166171701808
 30
0.0
 10
265.2214385608413
 20
71.05002307294674
 30
0.0
 10
265.2521739474475
 20
70.91049217589473
 30
0.0
 10
265.3433654995856
 20
70.49583242794122
 30
0.0
 10
265.4028070574368
 20
70.22463652024213
 30
0.0
 10
265.518899173353
 20
69.69309345072628
 30
0.0
 10
265.5755469312475
 20
69.4327601602964
 30
0.0
 10
265.6859228364999
 20
68.92352410505862
 30
0.0
 10
265.739716653903
 20
68.67432853016042
 30
0.0
 10
265.8439881136299
 20
68.18915166258749
 30
0.0
 10
265.8942797997619
 20
67.95399134680922
 30
0.0
 10
265.9911210064232
 20
67.49885457443219
 30
0.0
 10
266.037670526952
 20
67.27887811783343
 30
0.0
 10
266.1269733242661
 20
66.85443668697808
 30
0.0
 10
266.1697266010519
 20
66.64997171272155
 30
0.0
 10
266.2513828327408
 20
66.25688086971368
 30
0.0
 10
266.2902857876435
 20
66.06825500096234
 30
0.0
 10
266.3378311715463
 20
65.83594681920485
 30
0.0
 10
266.3482550520657
 20
65.78489793184194
 30
0.0
 10
266.3687654922247
 20
65.684216711549
 30
0.0
 10
266.3788520518644
 20
65.63458437861905
 30
0.0
 10
266.4086120136216
 20
65.48778667319624
 30
0.0
 10
266.427785698578
 20
65.39272059407052
 30
0.0
 10
266.4648338982341
 20
65.20805034729288
 30
0.0
 10
266.482718187309
 20
65.11840155183299
 30
0.0
 10
266.5172030172337
 20
64.94450350403777
 30
0.0
 10
266.5338035580837
 20
64.86025425170247
 30
0.0
 10
266.5816733682175
 20
64.61564614028437
 30
0.0
 10
266.6108294764184
 20
64.46426421280002
 30
0.0
 10
266.6637674802501
 20
64.18430411949008
 30
0.0
 10
266.6875493758819
 20
64.05572595366463
 30
0.0
 10
266.7298789391195
 20
63.82079685174272
 30
0.0
 10
266.7484682078442
 20
63.71425416584805
 30
0.0
 10
266.7724491161452
 20
63.57099793741253
 30
0.0
 10
266.7797922531146
 20
63.5260054946685
 30
0.0
 10
266.7931709078846
 20
63.44156904311707
 30
0.0
 10
266.7992064256847
 20
63.40212503430961
 30
0.0
 10
266.8153416189693
 20
63.29215940949418
 30
0.0
 10
266.8234588243088
 20
63.23004365168941
 30
0.0
 10
266.8313616618974
 20
63.15510696782134
 30
0.0
 10
266.8332837793566
 20
63.13316756533852
 30
0.0
 10
266.8356514266105
 20
63.09560857210758
 30
0.0
 10
266.8360969564047
 20
63.07998898135941
 30
0.0
 10
266.8357780602717
 20
63.06764971020631
 30
0.0
  0
SPLINE
  5
127
330
1F
100
AcDbEntity
  8
0
  6
Continuous
 62
     7
370
    25
100
AcDbSpline
210
0.0
220
0.0
230
1.0
 70
     8
 71
     3
 72
    90
 73
    86
 74
     0
 42
0.00000001
 43
0.00000001
 40
0.0
 40
0.0
 40
0.0
 40
0.0
 40
0.0184658371641644
 40
0.0184658371641644
 40
0.0369316743283288
 40
0.0369316743283288
 40
0.0738633486566576
 40
0.0738633486566576
 40
0.092329185820822
 40
0.092329185820822
 40
0.1107950229849864
 40
0.1107950229849864
 40
0.1477266973133152
 40
0.1477266973133152
 40
0.184658371641644
 40
0.184658371641644
 40
0.2215900459699728
 40
0.2215900459699728
 40
0.2400558831341373
 40
0.2400558831341373
 40
0.2585217202983017
 40
0.2585217202983017
 40
0.2769875574624661
 40
0.2769875574624661
 40
0.2862204760445483
 40
0.2862204760445483
 40
0.2954533946266305
 40
0.2954533946266305
 40
0.3276549291094454
 40
0.3276549291094454
 40
0.3598564635922603
 40
0.3598564635922603
 40
0.3920579980750752
 40
0.3920579980750752
 40
0.4242595325578902
 40
0.4242595325578902
 40
0.4564610670407051
 40
0.4564610670407051
 40
0.48866260152352
 40
0.48866260152352
 40
0.520864136006335
 40
0.520864136006335
 40
0.5369649032477424
 40
0.5369649032477424
 40
0.5530656704891499
 40
0.5530656704891499
 40
0.5818164507237433
 40
0.5818164507237433
 40
0.6105672309583369
 40
0.6105672309583369
 40
0.6393180111929304
 40
0.6393180111929304
 40
0.6680687914275238
 40
0.6680687914275238
 40
0.6968195716621173
 40
0.6968195716621173
 40
0.7255703518967108
 40
0.7255703518967108
 40
0.7543211321313044
 40
0.7543211321313044
 40
0.7686965222486011
 40
0.7686965222486011
 40
0.7830719123658978
 40
0.7830719123658978
 40
0.7966299178430292
 40
0.7966299178430292
 40
0.8101879233201605
 40
0.8101879233201605
 40
0.8373039342744233
 40
0.8373039342744233
 40
0.864419945228686
 40
0.864419945228686
 40
0.8915359561829489
 40
0.8915359561829489
 40
0.9186519671372118
 40
0.9186519671372118
 40
0.9457679780914745
 40
0.9457679780914745
 40
0.9728839890457373
 40
0.9728839890457373
 40
0.9864419945228686
 40
0.9864419945228686
 40
0.9932209972614343
 40
0.9932209972614343
 40
1.0
 40
1.0
 40
1.0
 40
1.0
 10
146.8567740382202
 20
63.06764971020634
 30
0.0
 10
146.8564551420858
 20
63.07998898135828
 30
0.0
 10
146.8569006718764
 20
63.09560857210708
 30
0.0
 10
146.8592683191217
 20
63.13316756534101
 30
0.0
 10
146.8611904365763
 20
63.15510696782606
 30
0.0
 10
146.8690932741566
 20
63.23004365169904
 30
0.0
 10
146.8772104794987
 20
63.29215940950467
 30
0.0
 10
146.893345672827
 20
63.40212503430312
 30
0.0
 10
146.8993811906345
 20
63.44156904310464
 30
0.0
 10
146.9127598454102
 20
63.52600549464601
 30
0.0
 10
146.9201029823784
 20
63.5709979373858
 30
0.0
 10
146.944083890671
 20
63.71425416581461
 30
0.0
 10
146.9626731593832
 20
63.8207968517126
 30
0.0
 10
147.0050027226249
 20
64.0557259536742
 30
0.0
 10
147.028784618262
 20
64.18430411949369
 30
0.0
 10
147.0817226220997
 20
64.46426421278598
 30
0.0
 10
147.1108787303004
 20
64.61564614025875
 30
0.0
 10
147.1587485404225
 20
64.86025425169042
 30
0.0
 10
147.1753490812691
 20
64.94450350402705
 30
0.0
 10
147.2098339111897
 20
65.11840155182
 30
0.0
 10
147.2277182002636
 20
65.20805034727643
 30
0.0
 10
147.2647663999209
 20
65.39272059404303
 30
0.0
 10
147.2839400848785
 20
65.48778667316307
 30
0.0
 10
147.3137000466388
 20
65.63458437858347
 30
0.0
 10
147.3237866062796
 20
65.68421671151367
 30
0.0
 10
147.344297046441
 20
65.78489793181005
 30
0.0
 10
147.3547209269616
 20
65.83594681917617
 30
0.0
 10
147.40226631087
 20
66.06825500095778
 30
0.0
 10
147.4411692657778
 20
66.25688086971454
 30
0.0
 10
147.5228254974754
 20
66.64997171271864
 30
0.0
 10
147.5655787742652
 20
66.854436686966
 30
0.0
 10
147.6548815715841
 20
67.27887811780126
 30
0.0
 10
147.7014310921133
 20
67.49885457438906
 30
0.0
 10
147.7982722987682
 20
67.95399134675476
 30
0.0
 10
147.848563984894
 20
68.18915166253275
 30
0.0
 10
147.9528354445995
 20
68.67432853012822
 30
0.0
 10
148.0066292619969
 20
68.9235241050441
 30
0.0
 10
148.1170051672578
 20
69.4327601602816
 30
0.0
 10
148.1736529251606
 20
69.69309345070204
 30
0.0
 10
148.2897450410661
 20
70.2246365201881
 30
0.0
 10
148.3491865989131
 20
70.49583242786883
 30
0.0
 10
148.4403781510491
 20
70.9104921758131
 30
0.0
 10
148.4711135376553
 20
71.05002307286499
 30
0.0
 10
148.5332500435769
 20
71.33166171694602
 30
0.0
 10
148.5646511628924
 20
71.47376946397507
 30
0.0
 10
148.6530369526149
 20
71.87316214169823
 30
0.0
 10
148.7110652019037
 20
72.13467962965176
 30
0.0
 10
148.8297236138171
 20
72.66810476644619
 30
0.0
 10
148.8903537764418
 20
72.94001241528721
 30
0.0
 10
149.0140757103034
 20
73.4936111824118
 30
0.0
 10
149.0771674815404
 20
73.77530230069546
 30
0.0
 10
149.2056723279026
 20
74.34786131526089
 30
0.0
 10
149.2710854030281
 20
74.63872921154262
 30
0.0
 10
149.4040925524436
 20
75.2290350906597
 30
0.0
 10
149.4714338713966
 20
75.52737385293429
 30
0.0
 10
149.6074953264024
 20
76.12919399224127
 30
0.0
 10
149.6762154624551
 20
76.43267536927372
 30
0.0
 10
149.8147378802695
 20
77.04355170742205
 30
0.0
 10
149.88456380353
 20
77.35105101757952
 30
0.0
 10
149.9899776349089
 20
77.81470932591347
 30
0.0
 10
150.0252280697832
 20
77.96966365254113
 30
0.0
 10
150.0959252341876
 20
78.2802616920745
 30
0.0
 10
150.1313719637177
 20
78.43590540498019
 30
0.0
 10
150.200412763918
 20
78.73890222195823
 30
0.0
 10
150.2341220651877
 20
78.88676947431422
 30
0.0
 10
150.3019153513149
 20
79.18401503460643
 30
0.0
 10
150.3359993361723
 20
79.33339334254255
 30
0.0
 10
150.4387782389855
 20
79.78365550095506
 30
0.0
 10
150.5080001051824
 20
80.08666658603545
 30
0.0
 10
150.6476619548028
 20
80.69761818838725
 30
0.0
 10
150.7181018346052
 20
81.00555889401454
 30
0.0
 10
150.8599978399591
 20
81.62558195741596
 30
0.0
 10
150.9314539655106
 20
81.93766431518998
 30
0.0
 10
151.0751807981278
 20
82.56518252612847
 30
0.0
 10
151.1474630229274
 20
82.88068146868471
 30
0.0
 10
151.2926559344698
 20
83.51435260910223
 30
0.0
 10
151.3655666212127
 20
83.8325248069636
 30
0.0
 10
151.5118073016029
 20
84.47073603912244
 30
0.0
 10
151.5851240974472
 20
84.79069427656994
 30
0.0
 10
151.695343301711
 20
85.27169381409865
 30
0.0
 10
151.7323198670381
 20
85.43306003878423
 30
0.0
 10
151.7876149857873
 20
85.67436917651585
 30
0.0
 10
151.8060184038301
 20
85.75468218921029
 30
0.0
 10
151.842681167652
 20
85.91467985357376
 30
0.0
 10
151.860940513431
 20
85.9943645052427
 30
0.0
 10
151.879084075153
 20
86.07354416243554
 30
0.0
  0
SPLINE
  5
128
330
1F
100
AcDbEntity
  8
0
  6
Continuous
 62
     7
370
    25
100
AcDbSpline
210
0.0
220
0.0
230
1.0
 70
     8
 71
     3
 72
    22
 73
    18
 74
     0
 42
0.00000001
 43
0.00000001
 40
0.0
 40
0.0
 40
0.0
 40
0.0
 40
0.125
 40
0.125
 40
0.25
 40
0.25
 40
0.375
 40
0.375
 40
0.5
 40
0.5
 40
0.625
 40
0.625
 40
0.75
 40
0.75
 40
0.875
 40
0.875
 40
1.0
 40
1.0
 40
1.0
 40
1.0
 10
146.8567740382196
 20
63.06764971020787
 30
0.0
 10
145.5941059386011
 20
63.07514186261356
 30
0.0
 10
144.3319756442051
 20
63.206559857663
 30
0.0
 10
141.8561197366433
 20
63.71218100435255
 30
0.0
 10
140.6424641989608
 20
64.0863739381943
 30
0.0
 10
138.3093228058992
 20
65.06339690705128
 30
0.0
 10
137.1898929215862
 20
65.66620512469709
 30
0.0
 10
135.0874443021677
 20
67.07770685744649
 30
0.0
 10
134.1044766384937
 20
67.88636713806923
 30
0.0
 10
132.3120747299493
 20
69.6790464959648
 30
0.0
 10
131.5026838100228
 20
70.66302224177446
 30
0.0
 10
130.0880095670679
 20
72.76918779381886
 30
0.0
 10
129.4827595606515
 20
73.89132643310273
 30
0.0
 10
128.4992337321033
 20
76.23148407919287
 30
0.0
 10
128.1209798722719
 20
77.44944700941561
 30
0.0
 10
127.6057703242335
 20
79.9353543224048
 30
0.0
 10
127.4688226869154
 20
81.20345535016233
 30
0.0
 10
127.4551760388174
 20
82.47225089639865
 30
0.0
  0
SPLINE
  5
129
330
1F
100
AcDbEntity
  8
0
  6
Continuous
 62
     7
370
    25
100
AcDbSpline
210
0.0
220
0.0
230
1.0
 70
     8
 71
     3
 72
    31
 73
    27
 74
     0
 42
0.00000001
 43
0.00000001
 40
0.0
 40
0.0
 40
0.0
 40
0.0
 40
0.001953125
 40
0.001953125
 40
0.03125
 40
0.0625
 40
0.125
 40
0.125
 40
0.25
 40
0.25
 40
0.375
 40
0.375
 40
0.5
 40
0.5
 40
0.625
 40
0.625
 40
0.75
 40
0.75
 40
0.875
 40
0.875
 40
0.9375
 40
0.96875
 40
0.99609375
 40
0.998046875
 40
0.998046875
 40
1.0
 40
1.0
 40
1.0
 40
1.0
 10
286.2373760596693
 20
82.47225089639876
 30
0.0
 10
286.2371628306976
 20
82.45242595714322
 30
0.0
 10
286.2369194989494
 20
82.43260118773185
 30
0.0
 10
286.2325447079197
 20
82.1154090870301
 30
0.0
 10
286.210075448918
 20
81.50097174160217
 30
0.0
 10
286.1059365421522
 20
80.25552280755291
 30
0.0
 10
285.9579793925333
 20
79.3138775245881
 30
0.0
 10
285.5715722344297
 20
77.44944703924061
 30
0.0
 10
285.1933183585954
 20
76.23148405670845
 30
0.0
 10
284.2097925272253
 20
73.89132641180964
 30
0.0
 10
283.6045425186714
 20
72.7691877719107
 30
0.0
 10
282.1898682730123
 20
70.66302222169665
 30
0.0
 10
281.3804773514919
 20
69.67904647655784
 30
0.0
 10
279.5880754406028
 20
67.88636712103083
 30
0.0
 10
278.6051077762691
 20
67.07770684201341
 30
0.0
 10
276.5026591550432
 20
65.66620511199095
 30
0.0
 10
275.3832292713527
 20
65.06339689649074
 30
0.0
 10
273.0500878771201
 20
64.0863739304757
 30
0.0
 10
271.8364323915611
 20
63.71218101246126
 30
0.0
 10
269.9795404614791
 20
63.33296514950115
 30
0.0
 10
269.0420183958911
 20
63.18887943279424
 30
0.0
 10
267.8220649678904
 20
63.09188829991533
 30
0.0
 10
267.2106230452892
 20
63.07138639948779
 30
0.0
 10
266.9146939456451
 20
63.06826922687209
 30
0.0
 10
266.8752362897645
 20
63.0679140951999
 30
0.0
 10
266.8555072405269
 20
63.06776677503542
 30
0.0
 10
266.8357780602717
 20
63.06764971020631
 30
0.0
  0
SPLINE
  5
12A
330
1F
100
AcDbEntity
  8
0
  6
Continuous
 62
     7
370
    25
100
AcDbSpline
210
0.0
220
0.0
230
1.0
 70
     8
 71
     3
 72
    33
 73
    29
 74
     0
 42
0.00000001
 43
0.00000001
 40
0.0
 40
0.0
 40
0.0
 40
0.0
 40
0.0125997581136008
 40
0.0251990339054308
 40
0.0377980977952343
 40
0.0503972205022478
 40
0.0629966730267596
 40
0.075596726631218
 40
0.0881976528211838
 40
0.1007997233256122
 40
0.1134032100771191
 40
0.1260083851917027
 40
0.187682107009181
 40
0.2501364849136231
 40
0.3724307187761497
 40
0.5003247308315409
 40
0.5614602221772756
 40
0.6251919741407228
 40
0.6857532594578157
 40
0.750292271701238
 40
0.8089041646751541
 40
0.8746531561977543
 40
0.8893678736687396
 40
0.9065533827715845
 40
0.9262095409582052
 40
0.9483361735790622
 40
0.9729330735666949
 40
1.0
 40
1.0
 40
1.0
 40
1.0
 10
266.8459252474944
 20
436.5736639763455
 30
0.0
 10
266.8483986675427
 20
436.56451964924
 30
0.0
 10
266.8533454129561
 20
436.5462313450761
 30
0.0
 10
266.8579500832965
 20
436.507401904562
 30
0.0
 10
266.8604863376133
 20
436.4602501263341
 30
0.0
 10
266.8607469347196
 20
436.4039766127435
 30
0.0
 10
266.8587803832789
 20
436.3388238481483
 30
0.0
 10
266.854566697468
 20
436.2647593140323
 30
0.0
 10
266.8481042140231
 20
436.1818279227143
 30
0.0
 10
266.8393865846338
 20
436.0900590922701
 30
0.0
 10
266.8284080040839
 20
435.9894859249771
 30
0.0
 10
266.7979827413347
 20
435.7383109959605
 30
0.0
 10
266.7258566573722
 20
435.249870894714
 30
0.0
 10
266.5253331751577
 20
434.0999437541011
 30
0.0
 10
266.1381594413861
 20
432.1496846241821
 30
0.0
 10
265.5907626807971
 20
429.6232393725991
 30
0.0
 10
265.0591676658285
 20
427.2812701443097
 30
0.0
 10
264.6310272516216
 20
425.4352337002324
 30
0.0
 10
264.1601021087705
 20
423.4436747676874
 30
0.0
 10
263.6727449898004
 20
421.412136742586
 30
0.0
 10
263.1460173055614
 20
419.2469530052598
 30
0.0
 10
262.7435775907421
 20
417.6068604251703
 30
0.0
 10
262.4556941139921
 20
416.441853176019
 30
0.0
 10
262.3026516405123
 20
415.8240269568066
 30
0.0
 10
262.1266212078785
 20
415.1142321715565
 30
0.0
 10
261.9273644912703
 20
414.3118220304818
 30
0.0
 10
261.7047708035221
 20
413.4166467070297
 30
0.0
 10
261.5478903918705
 20
412.7879832613577
 30
0.0
 10
261.465699991833
 20
412.4586234672017
 30
0.0
  0
SPLINE
  5
12B
330
1F
100
AcDbEntity
  8
0
  6
Continuous
 62
     7
370
    25
100
AcDbSpline
210
0.0
220
0.0
230
1.0
 70
     8
 71
     3
 72
    12
 73
     8
 74
     0
 42
0.00000001
 43
0.00000001
 40
0.0
 40
0.0
 40
0.0
 40
0.0
 40
0.25
 40
0.25
 40
0.5
 40
0.5
 40
1.0
 40
1.0
 40
1.0
 40
1.0
 10
261.4656999918322
 20
412.4586234672016
 30
0.0
 10
252.3627843051539
 20
412.4666231716135
 30
0.0
 10
243.2584550531349
 20
412.4770864151809
 30
0.0
 10
225.0507608819574
 20
412.4941111039583
 30
0.0
 10
215.9471612572093
 20
412.5001137472655
 30
0.0
 10
188.6371621277786
 20
412.500110801222
 30
0.0
 10
170.4315808618505
 20
412.474621907037
 30
0.0
 10
152.2268521066546
 20
412.4586234672016
 30
0.0
  0
SPLINE
  5
12C
330
1F
100
AcDbEntity
  8
0
  6
Continuous
 62
     7
370
    25
100
AcDbSpline
210
0.0
220
0.0
230
1.0
 70
     8
 71
     3
 72
    34
 73
    30
 74
     0
 42
0.00000001
 43
0.00000001
 40
0.0
 40
0.0
 40
0.0
 40
0.0
 40
0.0138503580428312
 40
0.0270817994495886
 40
0.0396942982103068
 40
0.0516878302199238
 40
0.0630623732059223
 40
0.073817906664887
 40
0.0839544118096634
 40
0.0934718715294473
 40
0.1023702703663048
 40
0.1106495945133911
 40
0.1183098318430499
 40
0.1253509719781886
 40
0.1911008632354797
 40
0.2497121238348689
 40
0.3142523124774201
 40
0.3748126904304191
 40
0.4385457134271016
 40
0.4996802022991798
 40
0.6275754276089316
 40
0.7498689863201718
 40
0.8123247185560419
 40
0.8739973530726017
 40
0.899205258656037
 40
0.9244073033777865
 40
0.949605661820459
 40
0.9748025050510762
 40
0.9999999999999999
 40
0.9999999999999999
 40
0.9999999999999999
 40
0.9999999999999999
 10
152.2268521066535
 20
412.4586234672016
 30
0.0
 10
152.1847676163975
 20
412.6271812054885
 30
0.0
 10
152.1024792220089
 20
412.9567645166088
 30
0.0
 10
151.98226781192
 20
413.4392564906886
 30
0.0
 10
151.8679591255606
 20
413.8985800157926
 30
0.0
 10
151.7595505885692
 20
414.3346542540282
 30
0.0
 10
151.6570070464795
 20
414.7474709335889
 30
0.0
 10
151.5603030804111
 20
415.1370461209875
 30
0.0
 10
151.4694124600348
 20
415.5034257474958
 30
0.0
 10
151.3843110549868
 20
415.8466780139324
 30
0.0
 10
151.3049752674739
 20
416.1668897887807
 30
0.0
 10
151.231385402227
 20
416.464161055522
 30
0.0
 10
151.1635149329727
 20
416.7386046357703
 30
0.0
 10
150.9268126468831
 20
417.6973343972906
 30
0.0
 10
150.5465153649073
 20
419.246972636822
 30
0.0
 10
150.019807132202
 20
421.4121539533565
 30
0.0
 10
149.5324459348567
 20
423.4436868520999
 30
0.0
 10
149.0615200128793
 20
425.4352557540656
 30
0.0
 10
148.6333817685856
 20
427.2812811978887
 30
0.0
 10
148.1017855509896
 20
429.6232571723268
 30
0.0
 10
147.5543910715633
 20
432.1496918517166
 30
0.0
 10
147.1672162912703
 20
434.099955074296
 30
0.0
 10
146.9666953092328
 20
435.2498771034301
 30
0.0
 10
146.8879190926301
 20
435.7833306058138
 30
0.0
 10
146.8520456945718
 20
436.0944108467173
 30
0.0
 10
146.8368327837494
 20
436.269307420043
 30
0.0
 10
146.830790472521
 20
436.4080168771661
 30
0.0
 10
146.8330662322443
 20
436.5136042383461
 30
0.0
 10
146.8421066057705
 20
436.5536438910764
 30
0.0
 10
146.8466268509903
 20
436.5736639763455
 30
0.0
  0
ARC
  5
12D
330
1F
100
AcDbEntity
  8
0
  6
Continuous
 62
     7
370
    25
100
AcDbCircle
 10
266.6690003694
 20
65.031614314
 30
0.0
 40
311.307940313936
100
AcDbArc
 50
86.4783713873
 51
90.9501490105
  0
SPLINE
  5
12E
330
1F
100
AcDbEntity
  8
0
  6
Continuous
 62
     7
370
    25
100
AcDbSpline
210
0.0
220
0.0
230
1.0
 70
     8
 71
     3
 72
     8
 73
     4
 74
     0
 42
0.00000001
 43
0.00000001
 40
0.0
 40
0.0
 40
0.0
 40
0.0
 40
1.0
 40
1.0
 40
1.0
 40
1.0
 10
261.5067462387644
 20
376.2967502267301
 30
0.0
 10
261.4836661605532
 20
388.3523070999339
 30
0.0
 10
261.469406958121
 20
400.4061260031595
 30
0.0
 10
261.4656999918319
 20
412.4586234672015
 30
0.0
  0
SPLINE
  5
12F
330
1F
100
AcDbEntity
  8
0
  6
Continuous
 62
     7
370
    25
100
AcDbSpline
210
0.0
220
0.0
230
1.0
 70
     8
 71
     3
 72
    91
 73
    87
 74
     0
 42
0.00000001
 43
0.00000001
 40
0.0
 40
0.0
 40
0.0
 40
0.0
 40
0.0068080928085279
 40
0.0068080928085279
 40
0.0136161856170559
 40
0.0136161856170559
 40
0.0272323712341118
 40
0.0272323712341118
 40
0.0544647424682235
 40
0.0544647424682235
 40
0.0816971137023352
 40
0.1089294849364471
 40
0.1089294849364471
 40
0.1633942274046706
 40
0.1633942274046706
 40
0.1906265986387823
 40
0.1906265986387823
 40
0.2042427842558382
 40
0.2042427842558382
 40
0.2178589698728941
 40
0.2178589698728941
 40
0.2465469631289843
 40
0.2465469631289843
 40
0.2752349563850744
 40
0.2752349563850744
 40
0.3039229496411646
 40
0.3039229496411646
 40
0.3326109428972548
 40
0.3326109428972548
 40
0.361298936153345
 40
0.361298936153345
 40
0.37564293278139
 40
0.37564293278139
 40
0.3899869294094351
 40
0.3899869294094351
 40
0.4186749226655253
 40
0.4186749226655253
 40
0.4330189192935703
 40
0.4330189192935703
 40
0.4437769167646042
 40
0.4437769167646042
 40
0.4473629159216154
 40
0.4473629159216154
 40
0.479641074258838
 40
0.479641074258838
 40
0.5119192325960606
 40
0.5119192325960606
 40
0.5441973909332832
 40
0.5441973909332832
 40
0.5764755492705058
 40
0.5764755492705058
 40
0.6087537076077285
 40
0.6087537076077285
 40
0.6248927867763399
 40
0.6248927867763399
 40
0.6410318659449511
 40
0.6410318659449511
 40
0.6733100242821737
 40
0.6733100242821737
 40
0.689449103450785
 40
0.689449103450785
 40
0.6975186430350907
 40
0.6975186430350907
 40
0.7055881826193964
 40
0.7055881826193964
 40
0.723988921205684
 40
0.723988921205684
 40
0.7423896597919718
 40
0.7423896597919718
 40
0.7607903983782596
 40
0.7607903983782596
 40
0.7791911369645472
 40
0.7791911369645472
 40
0.797591875550835
 40
0.797591875550835
 40
0.8159926141371228
 40
0.8159926141371228
 40
0.8343933527234104
 40
0.8343933527234104
 40
0.8527940913096982
 40
0.8527940913096982
 40
0.9263970456548491
 40
0.9263970456548491
 40
0.9631985228274246
 40
0.9631985228274246
 40
1.0
 40
1.0
 40
1.0
 40
1.0
 10
261.4656999918324
 20
412.4586234672044
 30
0.0
 10
261.5471010650931
 20
412.4788627593108
 30
0.0
 10
261.6295208989207
 20
412.4993438114782
 30
0.0
 10
261.7950116369579
 20
412.5404442894708
 30
0.0
 10
261.8780825411675
 20
412.5610637152959
 30
0.0
 10
262.1261921832416
 20
412.6226118335615
 30
0.0
 10
262.2916077796496
 20
412.663598828793
 30
0.0
 10
262.7881404564667
 20
412.7864874638565
 30
0.0
 10
263.1193813428119
 20
412.8682763378669
 30
0.0
 10
263.7814739888014
 20
413.031370776256
 30
0.0
 10
264.4432340263054
 20
413.1940081189909
 30
0.0
 10
265.1027957964948
 20
413.3552890823375
 30
0.0
 10
266.0893399635352
 20
413.5958616017563
 30
0.0
 10
266.7413934842491
 20
413.753967755624
 30
0.0
 10
267.7043926556061
 20
413.9859800829236
 30
0.0
 10
268.0228768307792
 20
414.0624590625719
 30
0.0
 10
268.4960622830934
 20
414.1756967859729
 30
0.0
 10
268.6530339654571
 20
414.2131959027614
 30
0.0
 10
268.9653358121146
 20
414.2876683789987
 30
0.0
 10
269.1206659764084
 20
414.3246417384476
 30
0.0
 10
269.6005131260151
 20
414.4386476879774
 30
0.0
 10
269.9247192760486
 20
414.5153679479055
 30
0.0
 10
270.5698211197398
 20
414.6673801064873
 30
0.0
 10
270.8907168133982
 20
414.7426720051409
 30
0.0
 10
271.5282783911798
 20
414.8915816728598
 30
0.0
 10
271.844944275303
 20
414.965199441925
 30
0.0
 10
272.473126880854
 20
415.1105150821536
 30
0.0
 10
272.7846436022817
 20
415.1822129533169
 30
0.0
 10
273.4016085292817
 20
415.3234430294277
 30
0.0
 10
273.7071077852594
 20
415.3929898597461
 30
0.0
 10
274.1602061769776
 20
415.4955414106226
 30
0.0
 10
274.3103805588423
 20
415.5294304784812
 30
0.0
 10
274.608899878328
 20
415.5965913188321
 30
0.0
 10
274.7572448159491
 20
415.6298630913244
 30
0.0
 10
275.1993665422057
 20
415.7287108700025
 30
0.0
 10
275.4901965938599
 20
415.7933088000358
 30
0.0
 10
275.9183250573702
 20
415.8877607760667
 30
0.0
 10
276.0596817762116
 20
415.9188372815738
 30
0.0
 10
276.3043620268509
 20
415.9724360180027
 30
0.0
 10
276.4083590604822
 20
415.9951545359767
 30
0.0
 10
276.5457621990508
 20
416.0250862432769
 30
0.0
 10
276.5800080192814
 20
416.0325391992689
 30
0.0
 10
276.9214270699556
 20
416.1067712407806
 30
0.0
 10
277.2227110919997
 20
416.1717087169491
 30
0.0
 10
277.8130812608351
 20
416.297791058854
 30
0.0
 10
278.1021674076265
 20
416.3589359245904
 30
0.0
 10
278.6679381295702
 20
416.4773848821185
 30
0.0
 10
278.9446227047225
 20
416.5346889739104
 30
0.0
 10
279.485386587002
 20
416.645408220037
 30
0.0
 10
279.7494658941292
 20
416.6988233743717
 30
0.0
 10
280.264815543973
 20
416.8017165820717
 30
0.0
 10
280.5161345769319
 20
416.8512044527251
 30
0.0
 10
280.8831555261789
 20
416.9223985414924
 30
0.0
 10
281.0038909314921
 20
416.9456347431379
 30
0.0
 10
281.2419191518221
 20
416.991068264599
 30
0.0
 10
281.359211966839
 20
417.0132655844144
 30
0.0
 10
281.7055773743095
 20
417.0782263821998
 30
0.0
 10
281.9282612436371
 20
417.1191811558668
 30
0.0
 10
282.2493713354257
 20
417.1769954778707
 30
0.0
 10
282.3542554139882
 20
417.1956639454559
 30
0.0
 10
282.5082805901907
 20
417.222751037058
 30
0.0
 10
282.5590721586514
 20
417.2316274659628
 30
0.0
 10
282.6595429794272
 20
417.2490732621552
 30
0.0
 10
282.7092222317424
 20
417.2576426294429
 30
0.0
 10
282.8703396169383
 20
417.2852458073786
 30
0.0
 10
282.9791820194209
 20
417.3035956830104
 30
0.0
 10
283.1907339545002
 20
417.3386583392311
 30
0.0
 10
283.2934434870977
 20
417.3553711198201
 30
0.0
 10
283.4929125917274
 20
417.3871992809211
 30
0.0
 10
283.5896721637597
 20
417.4023146614331
 30
0.0
 10
283.7774242565789
 20
417.4309877173459
 30
0.0
 10
283.868416777366
 20
417.4445453927468
 30
0.0
 10
284.0448176770145
 20
417.470142733403
 30
0.0
 10
284.1302377694275
 20
417.4821790581966
 30
0.0
 10
284.2953218560981
 20
417.5046992622332
 30
0.0
 10
284.3749858503558
 20
417.5151831414763
 30
0.0
 10
284.5283623573837
 20
417.5345706999297
 30
0.0
 10
284.6020748701533
 20
417.5434743791402
 30
0.0
 10
284.7433530308709
 20
417.5596737830472
 30
0.0
 10
284.8109186788196
 20
417.5669695077435
 30
0.0
 10
285.1328912981791
 20
417.5993588587362
 30
0.0
 10
285.3420934411032
 20
417.6126300881018
 30
0.0
 10
285.5845077062788
 20
417.6134624447909
 30
0.0
 10
285.6534313491279
 20
417.6105646213051
 30
0.0
 10
285.7660796228736
 20
417.5979893310359
 30
0.0
 10
285.8098042537696
 20
417.5883118642524
 30
0.0
 10
285.8402109849205
 20
417.5750300298867
 30
0.0
  0
SPLINE
  5
130
330
1F
100
AcDbEntity
  8
0
  6
Continuous
 62
     7
370
    25
100
AcDbSpline
210
0.0
220
0.0
230
1.0
 70
     8
 71
     3
 72
     8
 73
     4
 74
     0
 42
0.00000001
 43
0.00000001
 40
0.0
 40
0.0
 40
0.0
 40
0.0
 40
1.0
 40
1.0
 40
1.0
 40
1.0
 10
285.8402109849206
 20
417.5750300298853
 30
0.0
 10
285.8458209550533
 20
417.5725748098011
 30
0.0
 10
285.8509559204827
 20
417.5701193423847
 30
0.0
 10
285.8556155876734
 20
417.5676638120822
 30
0.0
  0
SPLINE
  5
131
330
1F
100
AcDbEntity
  8
0
  6
Continuous
 62
     7
370
    25
100
AcDbSpline
210
0.0
220
0.0
230
1.0
 70
     8
 71
     3
 72
    91
 73
    87
 74
     0
 42
0.00000001
 43
0.00000001
 40
0.0
 40
0.0
 40
0.0
 40
0.0
 40
0.0368014771727101
 40
0.0368014771727101
 40
0.0736029543454202
 40
0.0736029543454202
 40
0.1472059086908404
 40
0.1472059086908404
 40
0.1656066472771954
 40
0.1656066472771954
 40
0.1840073858635504
 40
0.1840073858635504
 40
0.2024081244499055
 40
0.2024081244499055
 40
0.2208088630362605
 40
0.2208088630362605
 40
0.2392096016226156
 40
0.2392096016226156
 40
0.2576103402089706
 40
0.2576103402089706
 40
0.2760110787953257
 40
0.2760110787953257
 40
0.2944118173816807
 40
0.2944118173816807
 40
0.3024813569660144
 40
0.3024813569660144
 40
0.3105508965503482
 40
0.3105508965503482
 40
0.3266899757190156
 40
0.3266899757190156
 40
0.3589681340563505
 40
0.3589681340563505
 40
0.3751072132250179
 40
0.3751072132250179
 40
0.3912462923936854
 40
0.3912462923936854
 40
0.4235244507310203
 40
0.4235244507310203
 40
0.4558026090683552
 40
0.4558026090683552
 40
0.4880807674056901
 40
0.4880807674056901
 40
0.520358925743025
 40
0.520358925743025
 40
0.5526370840803599
 40
0.5526370840803599
 40
0.5562230832373631
 40
0.5562230832373631
 40
0.5669810807083729
 40
0.5669810807083729
 40
0.5813250773363859
 40
0.5813250773363859
 40
0.6100130705924119
 40
0.6100130705924119
 40
0.6243570672204249
 40
0.6243570672204249
 40
0.6387010638484379
 40
0.6387010638484379
 40
0.667389057104464
 40
0.667389057104464
 40
0.69607705036049
 40
0.69607705036049
 40
0.724765043616516
 40
0.724765043616516
 40
0.753453036872542
 40
0.753453036872542
 40
0.782141030128568
 40
0.782141030128568
 40
0.7957572157455324
 40
0.7957572157455324
 40
0.8093734013624969
 40
0.8093734013624969
 40
0.836605772596426
 40
0.836605772596426
 40
0.8910705150642839
 40
0.8910705150642839
 40
0.918302886298213
 40
0.945535257532142
 40
0.945535257532142
 40
0.9727676287660709
 40
0.9727676287660709
 40
0.9863838143830355
 40
0.9863838143830355
 40
0.9931919071915177
 40
0.9931919071915177
 40
1.0
 40
1.0
 40
1.0
 40
1.0
 10
127.8523411135659
 20
417.5750300298861
 30
0.0
 10
127.8827478447196
 20
417.5883118642545
 30
0.0
 10
127.9264724756106
 20
417.5979893310375
 30
0.0
 10
128.0391207493495
 20
417.6105646213038
 30
0.0
 10
128.1080443921974
 20
417.6134624447869
 30
0.0
 10
128.3504586574002
 20
417.6126300880929
 30
0.0
 10
128.5596608003082
 20
417.5993588587912
 30
0.0
 10
128.8816334196638
 20
417.5669695077291
 30
0.0
 10
128.949199067611
 20
417.5596737830264
 30
0.0
 10
129.0904772283259
 20
417.5434743791157
 30
0.0
 10
129.1641897410936
 20
417.5345706999077
 30
0.0
 10
129.3175662481181
 20
417.5151831414618
 30
0.0
 10
129.3972302423749
 20
417.5046992622238
 30
0.0
 10
129.5623143290462
 20
417.4821790581932
 30
0.0
 10
129.6477344214607
 20
417.4701427334006
 30
0.0
 10
129.8241353211158
 20
417.4445453927359
 30
0.0
 10
129.9151278419043
 20
417.4309877173317
 30
0.0
 10
130.1028799347247
 20
417.4023146614141
 30
0.0
 10
130.1996395067564
 20
417.3871992809006
 30
0.0
 10
130.3991086113842
 20
417.3553711197988
 30
0.0
 10
130.5018181439803
 20
417.3386583392106
 30
0.0
 10
130.7133700790578
 20
417.3035956829937
 30
0.0
 10
130.8222124815393
 20
417.285245807365
 30
0.0
 10
130.9833298667337
 20
417.2576426294357
 30
0.0
 10
131.0330091190491
 20
417.249073262149
 30
0.0
 10
131.1334799398257
 20
417.2316274659573
 30
0.0
 10
131.1842715082869
 20
417.2227510370523
 30
0.0
 10
131.3382966844915
 20
417.1956639454478
 30
0.0
 10
131.4431807630557
 20
417.1769954778594
 30
0.0
 10
131.7642908548478
 20
417.1191811558467
 30
0.0
 10
131.9869747241755
 20
417.0782263821749
 30
0.0
 10
132.3333401316317
 20
417.0132655844077
 30
0.0
 10
132.4506329466449
 20
416.9910682645959
 30
0.0
 10
132.6886611669704
 20
416.945634743137
 30
0.0
 10
132.8093965722827
 20
416.9223985414899
 30
0.0
 10
133.1764175215334
 20
416.851204452711
 30
0.0
 10
133.4277365544976
 20
416.8017165820468
 30
0.0
 10
133.9430862043389
 20
416.6988233743704
 30
0.0
 10
134.2071655114687
 20
416.6454082200394
 30
0.0
 10
134.7479293937555
 20
416.534688973912
 30
0.0
 10
135.0246139689125
 20
416.4773848821157
 30
0.0
 10
135.5903846908627
 20
416.3589359245782
 30
0.0
 10
135.8794708376559
 20
416.2977910588369
 30
0.0
 10
136.4698410064872
 20
416.1717087169299
 30
0.0
 10
136.7711250285254
 20
416.1067712407641
 30
0.0
 10
137.1125440791866
 20
416.032539199264
 30
0.0
 10
137.1467898994154
 20
416.0250862432732
 30
0.0
 10
137.284193037977
 20
415.995154535977
 30
0.0
 10
137.3881900716022
 20
415.9724360180055
 30
0.0
 10
137.6328703222279
 20
415.9188372815806
 30
0.0
 10
137.7742270410618
 20
415.8877607760747
 30
0.0
 10
138.2023555045586
 20
415.7933088000443
 30
0.0
 10
138.4931855562164
 20
415.7287108700072
 30
0.0
 10
138.9353072825279
 20
415.629863091319
 30
0.0
 10
139.0836522201294
 20
415.5965913188166
 30
0.0
 10
139.382171539549
 20
415.5294304784429
 30
0.0
 10
139.532345921367
 20
415.4955414105716
 30
0.0
 10
139.9854443129773
 20
415.3929898596693
 30
0.0
 10
140.2909435689258
 20
415.3234430293502
 30
0.0
 10
140.9079084963406
 20
415.1822129533595
 30
0.0
 10
141.2194252177935
 20
415.1105150821497
 30
0.0
 10
141.8476078232281
 20
414.965199441753
 30
0.0
 10
142.1642737072098
 20
414.8915816725661
 30
0.0
 10
142.8018352847403
 20
414.7426720046666
 30
0.0
 10
143.1227309782892
 20
414.6673801059541
 30
0.0
 10
143.767832821992
 20
414.5153679474548
 30
0.0
 10
144.092038972146
 20
414.4386476876682
 30
0.0
 10
144.5718861222446
 20
414.3246417385964
 30
0.0
 10
144.7272162866906
 20
414.2876683792983
 30
0.0
 10
145.0395181336305
 20
414.2131959033529
 30
0.0
 10
145.1964898161243
 20
414.1756967867058
 30
0.0
 10
145.6696752687809
 20
414.0624590636907
 30
0.0
 10
145.9881594441187
 20
413.9859800842492
 30
0.0
 10
146.9511586156565
 20
413.7539677572282
 30
0.0
 10
147.6032121360729
 20
413.5958616030875
 30
0.0
 10
148.589756301539
 20
413.3552890817649
 30
0.0
 10
149.2493180712336
 20
413.1940081182496
 30
0.0
 10
149.9110781092298
 20
413.0313707761233
 30
0.0
 10
150.5731707561436
 20
412.8682763380198
 30
0.0
 10
150.9044116432586
 20
412.7864874641733
 30
0.0
 10
151.4009443182775
 20
412.6635988286503
 30
0.0
 10
151.5663599152846
 20
412.6226118335701
 30
0.0
 10
151.8144695573091
 20
412.5610637152946
 30
0.0
 10
151.8975404890294
 20
412.5404443995288
 30
0.0
 10
152.063031254584
 20
412.4993440315961
 30
0.0
 10
152.1454510884183
 20
412.4788629794292
 30
0.0
 10
152.2268521066546
 20
412.4586234672016
 30
0.0
  0
SPLINE
  5
132
330
1F
100
AcDbEntity
  8
0
  6
Continuous
 62
     7
370
    25
100
AcDbSpline
210
0.0
220
0.0
230
1.0
 70
     8
 71
     3
 72
     8
 73
     4
 74
     0
 42
0.00000001
 43
0.00000001
 40
0.0
 40
0.0
 40
0.0
 40
0.0
 40
1.0
 40
1.0
 40
1.0
 40
1.0
 10
152.2268521066545
 20
412.4586234672016
 30
0.0
 10
152.2231451407947
 20
400.4061273988058
 30
0.0
 10
152.2088859408599
 20
388.3523086286378
 30
0.0
 10
152.1858058597221
 20
376.2967502267514
 30
0.0
  0
ARC
  5
133
330
1F
100
AcDbEntity
  8
0
  6
Continuous
 62
     7
370
    25
100
AcDbCircle
 10
147.0235517288
 20
65.0316143172
 30
0.0
 40
311.307940310676
100
AcDbArc
 50
89.0498509895
 51
93.5216286127
  0
SPLINE
  5
134
330
1F
100
AcDbEntity
  8
0
  6
Continuous
 62
     7
370
    25
100
AcDbSpline
210
0.0
220
0.0
230
1.0
 70
     8
 71
     3
 72
    12
 73
     8
 74
     0
 42
0.00000001
 43
0.00000001
 40
0.0
 40
0.0
 40
0.0
 40
0.0
 40
0.125
 40
0.125
 40
0.75
 40
0.75
 40
1.0
 40
1.0
 40
1.0
 40
1.0
 10
127.8369365108132
 20
417.5676638120822
 30
0.0
 10
127.8375193247642
 20
417.5679713869566
 30
0.0
 10
127.8381095277334
 20
417.5682788813129
 30
0.0
 10
127.8416950606315
 20
417.5701233629394
 30
0.0
 10
127.8448676508926
 20
417.5716584121641
 30
0.0
 10
127.8495672269797
 20
417.5738046138466
 30
0.0
 10
127.8509394429728
 20
417.5744174866436
 30
0.0
 10
127.8523411135659
 20
417.5750300298864
 30
0.0
  0
SPLINE
  5
135
330
1F
100
AcDbEntity
  8
0
  6
Continuous
 62
     7
370
    25
100
AcDbSpline
210
0.0
220
0.0
230
1.0
 70
     8
 71
     3
 72
    30
 73
    26
 74
     0
 42
0.00000001
 43
0.00000001
 40
0.0
 40
0.0
 40
0.0
 40
0.0
 40
0.001953125
 40
0.001953125
 40
0.03125
 40
0.0625
 40
0.125
 40
0.125
 40
0.25
 40
0.25
 40
0.375
 40
0.375
 40
0.5
 40
0.5
 40
0.625
 40
0.625
 40
0.75
 40
0.75
 40
0.875
 40
0.875
 40
0.9375
 40
0.96875
 40
0.998046875
 40
0.998046875
 40
1.0
 40
1.0
 40
1.0
 40
1.0
 10
266.8459252474945
 20
436.5736639763455
 30
0.0
 10
266.8653094396411
 20
436.5736000458401
 30
0.0
 10
266.8846936065042
 20
436.5735064113451
 30
0.0
 10
267.1948384343881
 20
436.5715331318286
 30
0.0
 10
267.7956905073983
 20
436.5539015070301
 30
0.0
 10
269.0139203690047
 20
436.4603236831485
 30
0.0
 10
269.935413736053
 20
436.3212161024173
 30
0.0
 10
271.7606600988973
 20
435.9534244213384
 30
0.0
 10
272.9537638612537
 20
435.5888026987043
 30
0.0
 10
275.2469739808814
 20
434.6343360309244
 30
0.0
 10
276.3470208014268
 20
434.0445123470499
 30
0.0
 10
278.4119057130056
 20
432.6620423779844
 30
0.0
 10
279.3766894391641
 20
431.8694303558273
 30
0.0
 10
281.1340163594517
 20
430.1117011424544
 30
0.0
 10
281.9265138607299
 20
429.1466296546361
 30
0.0
 10
283.3089323709138
 20
427.0810070339345
 30
0.0
 10
283.8988191158982
 20
425.9805102877761
 30
0.0
 10
284.8535869465138
 20
423.6862554677887
 30
0.0
 10
285.218446751588
 20
422.4925569922253
 30
0.0
 10
285.5867198877247
 20
420.6663270305899
 30
0.0
 10
285.7260993206859
 20
419.7443042266784
 30
0.0
 10
285.820092200629
 20
418.5253540770553
 30
0.0
 10
285.8379460897556
 20
417.9241472417145
 30
0.0
 10
285.8400384766503
 20
417.6138210386864
 30
0.0
 10
285.8401395736495
 20
417.5944255430766
 30
0.0
 10
285.8402109849205
 20
417.5750300298867
 30
0.0
  0
SPLINE
  5
136
330
1F
100
AcDbEntity
  8
0
  6
Continuous
 62
     7
370
    25
100
AcDbSpline
210
0.0
220
0.0
230
1.0
 70
     8
 71
     3
 72
    31
 73
    27
 74
     0
 42
0.00000001
 43
0.00000001
 40
0.0
 40
0.0
 40
0.0
 40
0.0
 40
0.001953125
 40
0.001953125
 40
0.0625
 40
0.0625
 40
0.125
 40
0.125
 40
0.25
 40
0.25
 40
0.375
 40
0.375
 40
0.5
 40
0.5
 40
0.625
 40
0.625
 40
0.75
 40
0.75
 40
0.875
 40
0.875
 40
0.9375
 40
0.96875
 40
0.99609375
 40
0.998046875
 40
0.998046875
 40
1.0
 40
1.0
 40
1.0
 40
1.0
 10
127.8523411135659
 20
417.5750300298861
 30
0.0
 10
127.8524125248696
 20
417.5944255519699
 30
0.0
 10
127.8525136218995
 20
417.6138210561882
 30
0.0
 10
127.8566983966077
 20
418.2344737287974
 30
0.0
 10
127.8892721668658
 20
418.8356270259578
 30
0.0
 10
128.0129125856998
 20
420.0516452805944
 30
0.0
 10
128.1058322056155
 20
420.6663269999564
 30
0.0
 10
128.4741053387783
 20
422.4925569621842
 30
0.0
 10
128.8389651597145
 20
423.6862554904422
 30
0.0
 10
129.7937329932055
 20
425.9805103092387
 30
0.0
 10
130.3836197403566
 20
427.0810070560196
 30
0.0
 10
131.7660382532993
 20
429.1466296748771
 30
0.0
 10
132.5585357561996
 20
430.1117011620174
 30
0.0
 10
134.3158626788797
 20
431.8694303729955
 30
0.0
 10
135.2806464057152
 20
432.662042393529
 30
0.0
 10
137.3455313191358
 20
434.0445123598332
 30
0.0
 10
138.4455781390579
 20
434.6343360415399
 30
0.0
 10
140.7387882598747
 20
435.5888027064423
 30
0.0
 10
141.9318919695626
 20
435.9534244132248
 30
0.0
 10
143.7571383318161
 20
436.32121609728
 30
0.0
 10
144.6786319235951
 20
436.4603236810132
 30
0.0
 10
145.8775248870342
 20
436.5524161450863
 30
0.0
 10
146.4783314939938
 20
436.5709643702008
 30
0.0
 10
146.7690904226361
 20
436.5732597515131
 30
0.0
 10
146.8078585094723
 20
436.5735064114018
 30
0.0
 10
146.8272426677323
 20
436.5736000458694
 30
0.0
 10
146.8466268509903
 20
436.5736639763455
 30
0.0
  0
SPLINE
  5
137
330
1F
100
AcDbEntity
  8
0
  6
Continuous
 62
     7
370
    25
100
AcDbSpline
210
0.0
220
0.0
230
1.0
 70
     8
 71
     3
 72
     8
 73
     4
 74
     0
 42
0.00000001
 43
0.00000001
 40
0.0
 40
0.0
 40
0.0
 40
0.0
 40
1.0
 40
1.0
 40
1.0
 40
1.0
 10
261.5067462387644
 20
288.838577397407
 30
0.0
 10
261.5430633771911
 20
296.1487018445198
 30
0.0
 10
261.5835231353008
 20
303.4595323909781
 30
0.0
 10
261.615873035212
 20
310.7704902448131
 30
0.0
  0
SPLINE
  5
138
330
1F
100
AcDbEntity
  8
0
  6
Continuous
 62
     7
370
    25
100
AcDbSpline
210
0.0
220
0.0
230
1.0
 70
     8
 71
     3
 72
     8
 73
     4
 74
     0
 42
0.00000001
 43
0.00000001
 40
0.0
 40
0.0
 40
0.0
 40
0.0
 40
1.0
 40
1.0
 40
1.0
 40
1.0
 10
263.0659864444145
 20
315.1175976458683
 30
0.0
 10
262.6367473230925
 20
313.6505991983162
 30
0.0
 10
262.1535343663156
 20
312.2015373155589
 30
0.0
 10
261.6158730352124
 20
310.7704902448131
 30
0.0
  0
LWPOLYLINE
  5
139
330
1F
100
AcDbEntity
  8
0
  6
Continuous
 62
     7
370
    25
100
AcDbPolyline
 90
       13
 70
   128
 43
0.0
 10
263.0659864444
 20
315.1175976459
 10
266.0053225034
 20
315.1239541631
 10
268.8710921373
 20
315.1339405655
 10
271.6227735907
 20
315.1474156461
 10
274.2214583061
 20
315.1641888684
 10
276.6304010878
 20
315.1840230602
 10
278.8155396759
 20
315.2066377678
 10
280.745976384
 20
315.2317132209
 10
282.3944149902
 20
315.2588948546
 10
283.7375467033
 20
315.2877983228
 10
284.7563797475
 20
315.3180149327
 10
285.4365079042
 20
315.3491174238
 10
285.7683142153
 20
315.3806660095
  0
SPLINE
  5
13A
330
1F
100
AcDbEntity
  8
0
  6
Continuous
 62
     7
370
    25
100
AcDbSpline
210
0.0
220
0.0
230
1.0
 70
     8
 71
     3
 72
     8
 73
     4
 74
     0
 42
0.00000001
 43
0.00000001
 40
0.0
 40
0.0
 40
0.0
 40
0.0
 40
1.0
 40
1.0
 40
1.0
 40
1.0
 10
152.1858058597221
 20
376.2967502267599
 30
0.0
 10
152.1494887212954
 20
368.986625779657
 30
0.0
 10
152.1090289631858
 20
361.6757952332078
 30
0.0
 10
152.0766790632746
 20
354.3648373793828
 30
0.0
  0
SPLINE
  5
13B
330
1F
100
AcDbEntity
  8
0
  6
Continuous
 62
     7
370
    25
100
AcDbSpline
210
0.0
220
0.0
230
1.0
 70
     8
 71
     3
 72
     8
 73
     4
 74
     0
 42
0.00000001
 43
0.00000001
 40
0.0
 40
0.0
 40
0.0
 40
0.0
 40
1.0
 40
1.0
 40
1.0
 40
1.0
 10
150.626565654078
 20
350.0177299783151
 30
0.0
 10
151.0558047754013
 20
351.4847284258702
 30
0.0
 10
151.5390177321797
 20
352.9337903086302
 30
0.0
 10
152.0766790632847
 20
354.3648373793789
 30
0.0
  0
LWPOLYLINE
  5
13C
330
1F
100
AcDbEntity
  8
0
  6
Continuous
 62
     7
370
    25
100
AcDbPolyline
 90
       13
 70
   128
 43
0.0
 10
127.9242378832
 20
349.7546616147
 10
128.2560441943
 20
349.7862102004
 10
128.936172351
 20
349.8173126915
 10
129.9550053952
 20
349.8475293014
 10
131.2981371083
 20
349.8764327696
 10
132.9465757145
 20
349.9036144033
 10
134.8770124226
 20
349.9286898564
 10
137.0621510107
 20
349.951304564
 10
139.4710937924
 20
349.9711387558
 10
142.0697785078
 20
349.9879119781
 10
144.8214599612
 20
350.0013870587
 10
147.6872295951
 20
350.0113734611
 10
150.6265656541
 20
350.0177299783
  0
LWPOLYLINE
  5
13D
330
1F
100
AcDbEntity
  8
0
  6
Continuous
 62
     7
370
    25
100
AcDbPolyline
 90
       13
 70
   128
 43
0.0
 10
127.9242378832
 20
315.3806660095
 10
128.2560441943
 20
315.3491174238
 10
128.936172351
 20
315.3180149327
 10
129.9550053952
 20
315.2877983227
 10
131.2981371083
 20
315.2588948546
 10
132.9465757145
 20
315.2317132208
 10
134.8770124226
 20
315.2066377677
 10
137.0621510107
 20
315.1840230602
 10
139.4710937924
 20
315.1641888683
 10
142.0697785078
 20
315.1474156461
 10
144.8214599612
 20
315.1339405655
 10
147.6872295951
 20
315.1239541631
 10
150.6265656541
 20
315.1175976458
  0
SPLINE
  5
13E
330
1F
100
AcDbEntity
  8
0
  6
Continuous
 62
     7
370
    25
100
AcDbSpline
210
0.0
220
0.0
230
1.0
 70
     8
 71
     3
 72
     8
 73
     4
 74
     0
 42
0.00000001
 43
0.00000001
 40
0.0
 40
0.0
 40
0.0
 40
0.0
 40
1.0
 40
1.0
 40
1.0
 40
1.0
 10
152.0766790632745
 20
310.7704902448132
 30
0.0
 10
151.539017732174
 20
312.2015373155519
 30
0.0
 10
151.0558047753991
 20
313.650599198302
 30
0.0
 10
150.6265656540787
 20
315.1175976458467
 30
0.0
  0
SPLINE
  5
13F
330
1F
100
AcDbEntity
  8
0
  6
Continuous
 62
     7
370
    25
100
AcDbSpline
210
0.0
220
0.0
230
1.0
 70
     8
 71
     3
 72
     8
 73
     4
 74
     0
 42
0.00000001
 43
0.00000001
 40
0.0
 40
0.0
 40
0.0
 40
0.0
 40
1.0
 40
1.0
 40
1.0
 40
1.0
 10
152.0766790632745
 20
310.7704902448132
 30
0.0
 10
152.109028287649
 20
303.4596850597752
 30
0.0
 10
152.1494868539244
 20
296.149077719785
 30
0.0
 10
152.185805859722
 20
288.8385773974384
 30
0.0
  0
LWPOLYLINE
  5
140
330
1F
100
AcDbEntity
  8
0
  6
Continuous
 62
     7
370
    25
100
AcDbPolyline
 90
       13
 70
   128
 43
0.0
 10
263.0659864444
 20
350.0177299783
 10
266.0053225034
 20
350.0113734611
 10
268.8710921373
 20
350.0013870587
 10
271.6227735907
 20
349.9879119781
 10
274.2214583061
 20
349.9711387558
 10
276.6304010878
 20
349.951304564
 10
278.8155396759
 20
349.9286898564
 10
280.745976384
 20
349.9036144033
 10
282.3944149902
 20
349.8764327696
 10
283.7375467033
 20
349.8475293014
 10
284.7563797475
 20
349.8173126915
 10
285.4365079042
 20
349.7862102003
 10
285.7683142153
 20
349.7546616147
  0
SPLINE
  5
141
330
1F
100
AcDbEntity
  8
0
  6
Continuous
 62
     7
370
    25
100
AcDbSpline
210
0.0
220
0.0
230
1.0
 70
     8
 71
     3
 72
     8
 73
     4
 74
     0
 42
0.00000001
 43
0.00000001
 40
0.0
 40
0.0
 40
0.0
 40
0.0
 40
1.0
 40
1.0
 40
1.0
 40
1.0
 10
261.6158730352124
 20
354.3648373793514
 30
0.0
 10
262.1535343663129
 20
352.9337903086126
 30
0.0
 10
262.6367473230877
 20
351.4847284258626
 30
0.0
 10
263.0659864444082
 20
350.0177299783177
 30
0.0
  0
SPLINE
  5
142
330
1F
100
AcDbEntity
  8
0
  6
Continuous
 62
     7
370
    25
100
AcDbSpline
210
0.0
220
0.0
230
1.0
 70
     8
 71
     3
 72
     8
 73
     4
 74
     0
 42
0.00000001
 43
0.00000001
 40
0.0
 40
0.0
 40
0.0
 40
0.0
 40
1.0
 40
1.0
 40
1.0
 40
1.0
 10
261.615873035212
 20
354.3648373793514
 30
0.0
 10
261.5835238108374
 20
361.6756425643889
 30
0.0
 10
261.5430652445621
 20
368.9862499043787
 30
0.0
 10
261.5067462387645
 20
376.2967502267248
 30
0.0
  0
SPLINE
  5
143
330
1F
100
AcDbEntity
  8
0
  6
Continuous
 62
     7
370
    25
100
AcDbSpline
210
0.0
220
0.0
230
1.0
 70
     8
 71
     3
 72
    18
 73
    14
 74
     0
 42
0.00000001
 43
0.00000001
 40
0.0
 40
0.0
 40
0.0
 40
0.0
 40
0.2499999999999994
 40
0.2499999999999994
 40
0.4999999999999988
 40
0.4999999999999988
 40
0.5624999999999987
 40
0.5624999999999987
 40
0.6249999999999984
 40
0.6249999999999984
 40
0.7499999999999993
 40
0.7499999999999993
 40
1.0
 40
1.0
 40
1.0
 40
1.0
 10
263.0659864444082
 20
350.0177299783177
 30
0.0
 10
263.8953149432548
 20
347.1665215550689
 30
0.0
 10
264.5149535947615
 20
344.2910768491822
 30
0.0
 10
265.3459562872905
 20
338.493085038504
 30
0.0
 10
265.5573798888939
 20
335.5705430968396
 30
0.0
 10
265.5607164263566
 20
331.8872731128067
 30
0.0
 10
265.548283480619
 20
331.1491082517516
 30
0.0
 10
265.4968495697215
 20
329.6697143326413
 30
0.0
 10
265.4577416902363
 20
328.9273437806011
 30
0.0
 10
265.3009773914838
 20
326.7090126765097
 30
0.0
 10
265.1440007679577
 20
325.2391104808785
 30
0.0
 10
264.5182965462612
 20
320.8559194385534
 30
0.0
 10
263.8953832044527
 20
317.9690407492081
 30
0.0
 10
263.0659864444144
 20
315.1175976458683
 30
0.0
  0
SPLINE
  5
144
330
1F
100
AcDbEntity
  8
0
  6
Continuous
 62
     7
370
    25
100
AcDbSpline
210
0.0
220
0.0
230
1.0
 70
     8
 71
     3
 72
    18
 73
    14
 74
     0
 42
0.00000001
 43
0.00000001
 40
0.0
 40
0.0
 40
0.0
 40
0.0
 40
0.25
 40
0.25
 40
0.5
 40
0.5
 40
0.5625000000000006
 40
0.5625000000000006
 40
0.6250000000000011
 40
0.6250000000000011
 40
0.7500000000000011
 40
0.7500000000000011
 40
1.0
 40
1.0
 40
1.0
 40
1.0
 10
150.6265656540787
 20
315.1175976458467
 30
0.0
 10
149.7972371552316
 20
317.9688060690972
 30
0.0
 10
149.1775985037243
 20
320.8442507749856
 30
0.0
 10
148.3465958111953
 20
326.6422425856671
 30
0.0
 10
148.1351722095921
 20
329.5647845273332
 30
0.0
 10
148.1318356721301
 20
333.2480545113683
 30
0.0
 10
148.1442686178678
 20
333.9862193724238
 30
0.0
 10
148.1957025287655
 20
335.465613291535
 30
0.0
 10
148.234810408251
 20
336.2079838435758
 30
0.0
 10
148.3915747070039
 20
338.4263149476684
 30
0.0
 10
148.5485513305306
 20
339.8962171433003
 30
0.0
 10
149.1742555522284
 20
344.2794081856279
 30
0.0
 10
149.7971688940384
 20
347.1662868749739
 30
0.0
 10
150.626565654078
 20
350.0177299783151
 30
0.0
  0
ARC
  5
145
330
1F
100
AcDbEntity
  8
0
  6
Continuous
 62
     7
370
    25
100
AcDbCircle
 10
206.8462760492
 20
332.5676638121
 30
0.0
 40
70.0000000000003
100
AcDbArc
 50
218.6602622186
 51
321.3397377814
  0
SPLINE
  5
146
330
1F
100
AcDbEntity
  8
0
  6
Continuous
 62
     7
370
    25
100
AcDbSpline
210
0.0
220
0.0
230
1.0
 70
     8
 71
     3
 72
    16
 73
    12
 74
     0
 42
0.00000001
 43
0.00000001
 40
0.0
 40
0.0
 40
0.0
 40
0.0
 40
0.2499999999999997
 40
0.2499999999999997
 40
0.4999999999999994
 40
0.4999999999999994
 40
0.6249999999999993
 40
0.6249999999999993
 40
0.7499999999999991
 40
0.7499999999999991
 40
1.0
 40
1.0
 40
1.0
 40
1.0
 10
261.7690237489931
 20
315.5458605847622
 30
0.0
 10
262.6283344458648
 20
318.318522444948
 30
0.0
 10
263.2679538929346
 20
321.1205026750254
 30
0.0
 10
264.1258823443039
 20
326.7806152138864
 30
0.0
 10
264.3441536022246
 20
329.6387541849795
 30
0.0
 10
264.3473142987793
 20
333.9691661847928
 30
0.0
 10
264.2934756259182
 20
335.423876944051
 30
0.0
 10
264.0774499258837
 20
338.3062550468115
 30
0.0
 10
263.9155633401026
 20
339.7382600710912
 30
0.0
 10
263.2703320792612
 20
344.0070655231368
 30
0.0
 10
262.6283311123094
 20
346.8168159353085
 30
0.0
 10
261.7690237489866
 20
349.5894670394233
 30
0.0
  0
ARC
  5
147
330
1F
100
AcDbEntity
  8
0
  6
Continuous
 62
     7
370
    25
100
AcDbCircle
 10
268.576972197
 20
331.1501070968
 30
0.0
 40
19.65599545087642
100
AcDbArc
 50
106.2823928826
 51
110.2645199818
  0
ARC
  5
148
330
1F
100
AcDbEntity
  8
0
  6
Continuous
 62
     7
370
    25
100
AcDbCircle
 10
268.576972197
 20
333.9852205274
 30
0.0
 40
19.65599545083802
100
AcDbArc
 50
249.7354800182
 51
253.7176071174
  0
ARC
  5
149
330
1F
100
AcDbEntity
  8
0
  6
Continuous
 62
     7
370
    25
100
AcDbCircle
 10
145.1155799017
 20
331.1501070976
 30
0.0
 40
19.65599545004809
100
AcDbArc
 50
69.7354800181
 51
73.7176071175
  0
SPLINE
  5
14A
330
1F
100
AcDbEntity
  8
0
  6
Continuous
 62
     7
370
    25
100
AcDbSpline
210
0.0
220
0.0
230
1.0
 70
     8
 71
     3
 72
    16
 73
    12
 74
     0
 42
0.00000001
 43
0.00000001
 40
0.0
 40
0.0
 40
0.0
 40
0.0
 40
0.2500000000000006
 40
0.2500000000000006
 40
0.5000000000000012
 40
0.5000000000000012
 40
0.625000000000001
 40
0.625000000000001
 40
0.7500000000000007
 40
0.7500000000000007
 40
1.0
 40
1.0
 40
1.0
 40
1.0
 10
151.9235283494991
 20
349.5894670394206
 30
0.0
 10
151.064217652626
 20
346.8168051792335
 30
0.0
 10
150.424598205555
 20
344.0148249491547
 30
0.0
 10
149.5666697541837
 20
338.3547124102907
 30
0.0
 10
149.3483984962624
 20
335.4965734391961
 30
0.0
 10
149.345237799707
 20
331.1661614393803
 30
0.0
 10
149.3990764725678
 20
329.7114506801212
 30
0.0
 10
149.6151021726021
 20
326.8290725773591
 30
0.0
 10
149.7769887583832
 20
325.3970675530786
 30
0.0
 10
150.4222200192247
 20
321.1282621010307
 30
0.0
 10
151.0642209861767
 20
318.3185116888574
 30
0.0
 10
151.9235283494999
 20
315.5458605847411
 30
0.0
  0
ARC
  5
14B
330
1F
100
AcDbEntity
  8
0
  6
Continuous
 62
     7
370
    25
100
AcDbCircle
 10
145.1155799015
 20
333.9852205274
 30
0.0
 40
19.65599545085955
100
AcDbArc
 50
286.2823928826
 51
290.2645199818
  0
ARC
  5
14C
330
1F
100
AcDbEntity
  8
0
  6
Continuous
 62
     7
370
    25
100
AcDbCircle
 10
206.8462760492
 20
332.5676638121
 30
0.0
 40
70.00000000000027
100
AcDbArc
 50
38.6602622186
 51
141.3397377814
  0
ARC
  5
14D
330
1F
100
AcDbEntity
  8
0
  6
Continuous
 62
     7
370
    25
100
AcDbCircle
 10
206.8462760492
 20
332.5676638121
 30
0.0
 40
58.94765075495793
100
AcDbArc
 50
21.7015386848
 51
158.2984613152
  0
ARC
  5
14E
330
1F
100
AcDbEntity
  8
0
  6
Continuous
 62
     7
370
    25
100
AcDbCircle
 10
206.8462760492
 20
332.5676638121
 30
0.0
 40
58.94765075494638
100
AcDbArc
 50
201.7015386848
 51
338.2984613152
  0
LINE
  5
14F
330
1F
100
AcDbEntity
  8
0
  6
Continuous
 62
     7
370
    25
100
AcDbLine
 10
153.4217241568
 20
353.8295370855
 30
0.0
 11
152.0766790633
 21
354.3648373794
 31
0.0
  0
SPLINE
  5
150
330
1F
100
AcDbEntity
  8
0
  6
Continuous
 62
     7
370
    25
100
AcDbSpline
210
0.0
220
0.0
230
1.0
 70
     8
 71
     3
 72
     8
 73
     4
 74
     0
 42
0.00000001
 43
0.00000001
 40
0.0
 40
0.0
 40
0.0
 40
0.0
 40
1.0
 40
1.0
 40
1.0
 40
1.0
 10
153.4217241568453
 20
353.829537085537
 30
0.0
 10
152.8669630009433
 20
352.4355928276539
 30
0.0
 10
152.3675839455331
 20
351.0222619754157
 30
0.0
 10
151.9235283494991
 20
349.5894670394206
 30
0.0
  0
LINE
  5
151
330
1F
100
AcDbEntity
  8
0
  6
Continuous
 62
     7
370
    25
100
AcDbLine
 10
261.6158730352
 20
310.7704902448
 30
0.0
 11
260.2708279417
 21
311.3057905387
 31
0.0
  0
SPLINE
  5
152
330
1F
100
AcDbEntity
  8
0
  6
Continuous
 62
     7
370
    25
100
AcDbSpline
210
0.0
220
0.0
230
1.0
 70
     8
 71
     3
 72
     8
 73
     4
 74
     0
 42
0.00000001
 43
0.00000001
 40
0.0
 40
0.0
 40
0.0
 40
0.0
 40
1.0
 40
1.0
 40
1.0
 40
1.0
 10
260.2708279416518
 20
311.3057905386539
 30
0.0
 10
260.8255890975519
 20
312.6997347965345
 30
0.0
 10
261.3249681529605
 20
314.1130656487699
 30
0.0
 10
261.7690237489931
 20
315.5458605847622
 30
0.0
  0
LINE
  5
153
330
1F
100
AcDbEntity
  8
0
  6
Continuous
 62
     7
370
    25
100
AcDbLine
 10
260.2708279417
 20
353.8295370855
 30
0.0
 11
261.6158730352
 21
354.3648373794
 31
0.0
  0
SPLINE
  5
154
330
1F
100
AcDbEntity
  8
0
  6
Continuous
 62
     7
370
    25
100
AcDbSpline
210
0.0
220
0.0
230
1.0
 70
     8
 71
     3
 72
     8
 73
     4
 74
     0
 42
0.00000001
 43
0.00000001
 40
0.0
 40
0.0
 40
0.0
 40
0.0
 40
1.0
 40
1.0
 40
1.0
 40
1.0
 10
261.7690237489866
 20
349.5894670394233
 30
0.0
 10
261.3249681529556
 20
351.0222619754083
 30
0.0
 10
260.8255890975492
 20
352.4355928276368
 30
0.0
 10
260.2708279416518
 20
353.8295370855106
 30
0.0
  0
LINE
  5
155
330
1F
100
AcDbEntity
  8
0
  6
Continuous
 62
     7
370
    25
100
AcDbLine
 10
152.0766790633
 20
310.7704902448
 30
0.0
 11
153.4217241568
 21
311.3057905387
 31
0.0
  0
SPLINE
  5
156
330
1F
100
AcDbEntity
  8
0
  6
Continuous
 62
     7
370
    25
100
AcDbSpline
210
0.0
220
0.0
230
1.0
 70
     8
 71
     3
 72
     8
 73
     4
 74
     0
 42
0.00000001
 43
0.00000001
 40
0.0
 40
0.0
 40
0.0
 40
0.0
 40
1.0
 40
1.0
 40
1.0
 40
1.0
 10
151.9235283494999
 20
315.5458605847411
 30
0.0
 10
152.3675839455309
 20
314.1130656487561
 30
0.0
 10
152.8669630009373
 20
312.6997347965278
 30
0.0
 10
153.4217241568347
 20
311.305790538654
 30
0.0
  0
ARC
  5
157
330
1F
100
AcDbEntity
  8
0
  6
Continuous
 62
     7
370
    25
100
AcDbCircle
 10
206.8462760492
 20
332.5676638121
 30
0.0
 40
57.49999999999986
100
AcDbArc
 50
21.7015386848
 51
158.2984613152
  0
ARC
  5
158
330
1F
100
AcDbEntity
  8
0
  6
Continuous
 62
     7
370
    25
100
AcDbCircle
 10
206.8462760492
 20
332.5676638121
 30
0.0
 40
57.49999999999984
100
AcDbArc
 50
201.7015386848
 51
338.2984613152
  0
LWPOLYLINE
  5
159
330
1F
100
AcDbEntity
  8
0
  6
Continuous
 62
     7
370
    25
100
AcDbPolyline
 90
        3
 70
   128
 43
0.0
 10
170.4461276771
 20
306.1095989076
 10
172.0992297468
 20
303.973210272
 10
172.950782927
 20
302.9687525821
  0
LWPOLYLINE
  5
15A
330
1F
100
AcDbEntity
  8
0
  6
Continuous
 62
     7
370
    25
100
AcDbPolyline
 90
        3
 70
   128
 43
0.0
 10
204.8400438287
 20
287.6124079205
 10
205.8780516646
 20
287.578081223
 10
208.8552449604
 20
287.6125301351
  0
LWPOLYLINE
  5
15B
330
1F
100
AcDbEntity
  8
0
  6
Continuous
 62
     7
370
    25
100
AcDbPolyline
 90
        3
 70
   128
 43
0.0
 10
240.7469984352
 20
302.9747419944
 10
242.7913478291
 20
305.494580967
 10
243.2437627036
 20
306.1059373898
  0
LWPOLYLINE
  5
15C
330
1F
100
AcDbEntity
  8
0
  6
Continuous
 62
     7
370
    25
100
AcDbPolyline
 90
        3
 70
   128
 43
0.0
 10
251.120349924
 20
340.6179049596
 10
250.8085082242
 20
342.1761050069
 10
250.2295074228
 20
344.5215433325
  0
LWPOLYLINE
  5
15D
330
1F
100
AcDbEntity
  8
0
  6
Continuous
 62
     7
370
    25
100
AcDbPolyline
 90
        3
 70
   128
 43
0.0
 10
228.1608932656
 20
372.1995587065
 10
224.735702692
 20
373.8589269848
 10
224.5464532597
 20
373.9404051609
  0
LWPOLYLINE
  5
15E
330
1F
100
AcDbEntity
  8
0
  6
Continuous
 62
     7
370
    25
100
AcDbPolyline
 90
        3
 70
   128
 43
0.0
 10
189.150981902
 20
373.9424939029
 10
187.1969706112
 20
373.0510529464
 10
185.5306000692
 20
372.1989892695
  0
LWPOLYLINE
  5
15F
330
1F
100
AcDbEntity
  8
0
  6
Continuous
 62
     7
370
    25
100
AcDbPolyline
 90
        3
 70
   128
 43
0.0
 10
163.4631338734
 20
344.5218670457
 10
163.338124437
 20
344.0585620923
 10
162.5715224096
 20
340.6141655456
  0
CIRCLE
  5
160
330
1F
100
AcDbEntity
  8
0
  6
HIDDEN
 62
     7
370
    18
100
AcDbCircle
 10
206.8462760492
 20
332.5676638121
 30
0.0
 40
8.836748315853868
  0
LWPOLYLINE
  5
161
330
1F
100
AcDbEntity
  8
0
  6
HIDDEN
 62
     7
370
    18
100
AcDbPolyline
 90
       16
 70
   128
 43
0.0
 10
206.9924909951
 20
329.6109778574
 10
207.9133617332
 20
329.8302636509
 10
208.7402459581
 20
330.3669508844
 10
209.340720179
 20
331.1494000267
 10
209.6363867093
 20
332.0681974624
 10
209.6090738707
 20
333.027202494
 10
209.264702234
 20
333.9092344403
 10
208.6549465899
 20
334.614908266
 10
207.8467603789
 20
335.072022811
 10
206.9543036713
 20
335.2278789643
 10
206.0605811116
 20
335.0755521496
 10
205.2912743179
 20
334.6429350139
 10
204.7122909086
 20
333.9806851775
 10
204.3965052793
 20
333.176243763
 10
204.3462760492
 20
332.5676638121
 10
204.3462760492
 20
332.5676638121
  0
LINE
  5
162
330
1F
100
AcDbEntity
  8
0
  6
HIDDEN
 62
     7
370
    18
100
AcDbLine
 10
209.3018840846
 20
332.5667311788
 30
0.0
 11
209.18025145
 21
333.4578186735
 31
0.0
  0
ARC
  5
163
330
1F
100
AcDbEntity
  8
0
  6
HIDDEN
 62
     7
370
    18
100
AcDbCircle
 10
206.8627126102
 20
332.5328313348
 30
0.0
 40
2.483807693246475
100
AcDbArc
 50
81.3109300515
 51
0.80353216
  0
SPLINE
  5
164
330
1F
100
AcDbEntity
  8
0
  6
HIDDEN
 62
     7
370
    18
100
AcDbSpline
210
0.0
220
0.0
230
1.0
 70
     8
 71
     3
 72
    19
 73
    15
 74
     0
 42
0.00000001
 43
0.00000001
 40
0.0
 40
0.0
 40
0.0
 40
0.0
 40
0.0914539952355145
 40
0.1829494796793337
 40
0.2732081585605295
 40
0.3620938866752887
 40
0.4491084121177453
 40
0.5357296152560015
 40
0.619544680775531
 40
0.7034317287659919
 40
0.7844902350402773
 40
0.8650965018021518
 40
0.9439187467803932
 40
1.0
 40
1.0
 40
1.0
 40
1.0
 10
204.8815815507128
 20
334.8891447294862
 30
0.0
 10
204.6547287713808
 20
334.6347386743289
 30
0.0
 10
204.2009202982167
 20
334.125811149638
 30
0.0
 10
203.8961981272165
 20
333.1338185254224
 30
0.0
 10
203.9169526269102
 20
332.1191587325965
 30
0.0
 10
204.2823693411484
 20
331.1848972290467
 30
0.0
 10
204.9267319030658
 20
330.4368792647331
 30
0.0
 10
205.7715144077696
 20
329.9606626654682
 30
0.0
 10
206.7141968321691
 20
329.7988352265584
 30
0.0
 10
207.6372192791158
 20
329.9584073197312
 30
0.0
 10
208.440188740953
 20
330.4167664762041
 30
0.0
 10
209.0292531718047
 20
331.1003969254268
 30
0.0
 10
209.3314295422337
 20
331.859840321962
 30
0.0
 10
209.3419164699503
 20
332.3598167034015
 30
0.0
 10
209.3462760310931
 20
332.5676638120822
 30
0.0
  0
SPLINE
  5
165
330
1F
100
AcDbEntity
  8
0
  6
HIDDEN
 62
     7
370
    18
100
AcDbSpline
210
0.0
220
0.0
230
1.0
 70
     8
 71
     3
 72
    12
 73
     8
 74
     0
 42
0.00000001
 43
0.00000001
 40
0.0
 40
0.0
 40
0.0
 40
0.0
 40
0.1940457052721666
 40
0.4087135375653299
 40
0.6233813681783261
 40
0.8380491983070593
 40
1.0
 40
1.0
 40
1.0
 40
1.0
 10
209.3462760492437
 20
332.5676638120822
 30
0.0
 10
209.3236465371774
 20
332.3138679894043
 30
0.0
 10
209.2759825710152
 20
331.7793042980279
 30
0.0
 10
208.8834754490914
 20
331.0410261824745
 30
0.0
 10
208.2677296989422
 20
330.4554331470212
 30
0.0
 10
207.5497069813428
 20
330.1203930331763
 30
0.0
 10
207.0578016076236
 20
330.0835197799435
 30
0.0
 10
206.8462760406448
 20
330.0676638120822
 30
0.0
  0
ARC
  5
166
330
1F
100
AcDbEntity
  8
0
  6
HIDDEN
 62
     7
370
    18
100
AcDbCircle
 10
206.8462760492
 20
332.5676638121
 30
0.0
 40
2.500000000000006
100
AcDbArc
 50
89.9999698136
 51
270.0
  0
SPLINE
  5
167
330
1F
100
AcDbEntity
  8
0
  6
HIDDEN
 62
     7
370
    18
100
AcDbSpline
210
0.0
220
0.0
230
1.0
 70
     8
 71
     3
 72
    10
 73
     6
 74
     0
 42
0.00000001
 43
0.00000001
 40
0.0
 40
0.0
 40
0.0
 40
0.0
 40
0.2493878978930869
 40
0.6242830357043311
 40
0.9999999999999999
 40
0.9999999999999999
 40
0.9999999999999999
 40
0.9999999999999999
 10
206.8462773663722
 20
335.0676638120819
 30
0.0
 10
206.8644985700809
 20
335.1129036494563
 30
0.0
 10
206.9101110014038
 20
335.2261507767204
 30
0.0
 10
206.9927021448075
 20
335.4040499839373
 30
0.0
 10
207.0632497317582
 20
335.5336010565874
 30
0.0
 10
207.098562145631
 20
335.5984475140328
 30
0.0
  0
ARC
  5
168
330
1F
100
AcDbEntity
  8
0
  6
HIDDEN
 62
     7
370
    18
100
AcDbCircle
 10
206.8462760492
 20
332.5676638121
 30
0.0
 40
2.500000000000028
100
AcDbArc
 50
0.0
 51
89.9999698136
  0
LINE
  5
169
330
1F
100
AcDbEntity
  8
0
  6
HIDDEN
 62
     7
370
    18
100
AcDbLine
 10
205.3946238886
 20
335.181749093
 30
0.0
 11
204.7008091684
 21
334.6545954472
 31
0.0
  0
ARC
  5
16A
330
1F
100
AcDbEntity
  8
0
  6
HIDDEN
 62
     7
370
    18
100
AcDbCircle
 10
206.9120950197
 20
332.5722969573
 30
0.0
 40
3.031890034432704
100
AcDbArc
 50
152.1504249408
 51
86.473973029
  0
SPLINE
  5
16B
330
1F
100
AcDbEntity
  8
0
  6
HIDDEN
 62
     7
370
    18
100
AcDbSpline
210
0.0
220
0.0
230
1.0
 70
     8
 71
     3
 72
    10
 73
     6
 74
     0
 42
0.00000001
 43
0.00000001
 40
0.0
 40
0.0
 40
0.0
 40
0.0
 40
0.1052430034226716
 40
0.5318304846630952
 40
1.0
 40
1.0
 40
1.0
 40
1.0
 10
207.098562145631
 20
335.5984475140328
 30
0.0
 10
207.0153683646634
 20
335.6031216212914
 30
0.0
 10
206.5949604761193
 20
335.6267415546635
 30
0.0
 10
205.7847421186189
 20
335.501128449955
 30
0.0
 10
205.1918200278165
 20
335.0993630496956
 30
0.0
 10
204.8815815508386
 20
334.8891447295952
 30
0.0
  0
CIRCLE
  5
16C
330
1F
100
AcDbEntity
  8
0
  6
HIDDEN
 62
     7
370
    18
100
AcDbCircle
 10
206.8462760492
 20
332.5676638121
 30
0.0
 40
7.000000000000227
  0
CIRCLE
  5
16D
330
1F
100
AcDbEntity
  8
0
  6
HIDDEN
 62
     7
370
    18
100
AcDbCircle
 10
206.8462760492
 20
332.5676638121
 30
0.0
 40
7.790646051830436
  0
CIRCLE
  5
16E
330
1F
100
AcDbEntity
  8
0
  6
HIDDEN
 62
     7
370
    18
100
AcDbCircle
 10
206.8462760492
 20
332.5676638121
 30
0.0
 40
3.500000000000114
  0
CIRCLE
  5
16F
330
1F
100
AcDbEntity
  8
0
  6
HIDDEN
 62
     7
370
    18
100
AcDbCircle
 10
206.8462760492
 20
332.5676638121
 30
0.0
 40
2.0
  0
LINE
  5
170
330
1F
100
AcDbEntity
  8
0
  6
HIDDEN
 62
     7
370
    18
100
AcDbLine
 10
206.8462760492
 20
329.5676638121
 30
0.0
 11
206.7133882731
 21
329.5706084507
 31
0.0
  0
ARC
  5
171
330
1F
100
AcDbEntity
  8
0
  6
HIDDEN
 62
     7
370
    18
100
AcDbCircle
 10
206.8462760492
 20
332.5676638121
 30
0.0
 40
3.000000000000028
100
AcDbArc
 50
44.9087083918
 51
106.8592559461
  0
LWPOLYLINE
  5
172
330
1F
100
AcDbEntity
  8
0
  6
HIDDEN
 62
     7
370
    18
100
AcDbPolyline
 90
        3
 70
   128
 43
0.0
 10
208.5755484416
 20
330.1162117948
 10
207.8723364792
 20
329.7485859497
 10
206.8462760492
 20
329.5676638121
  0
CIRCLE
  5
173
330
1F
100
AcDbEntity
  8
0
  6
HIDDEN
 62
     7
370
    18
100
AcDbCircle
 10
206.8462760492
 20
332.5676638121
 30
0.0
 40
4.0
  0
CIRCLE
  5
174
330
1F
100
AcDbEntity
  8
0
  6
HIDDEN
 62
     7
370
    18
100
AcDbCircle
 10
206.8462760492
 20
332.5676638121
 30
0.0
 40
56.00587307924928
  0
ARC
  5
175
330
1F
100
AcDbEntity
  8
0
  6
HIDDEN
 62
     7
370
    18
100
AcDbCircle
 10
206.8462760492
 20
332.5676638121
 30
0.0
 40
47.01047144386415
100
AcDbArc
 50
221.0097396865
 51
267.561688885
  0
ARC
  5
176
330
1F
100
AcDbEntity
  8
0
  6
HIDDEN
 62
     7
370
    18
100
AcDbCircle
 10
206.8462760492
 20
332.5676638121
 30
0.0
 40
47.01047144386414
100
AcDbArc
 50
272.438311115
 51
318.9902603135
  0
ARC
  5
177
330
1F
100
AcDbEntity
  8
0
  6
HIDDEN
 62
     7
370
    18
100
AcDbCircle
 10
206.8462760492
 20
332.5676638121
 30
0.0
 40
47.01047144386414
100
AcDbArc
 50
169.5811682579
 51
216.1331174564
  0
ARC
  5
178
330
1F
100
AcDbEntity
  8
0
  6
HIDDEN
 62
     7
370
    18
100
AcDbCircle
 10
206.8462760492
 20
332.5676638121
 30
0.0
 40
47.0104714438648
100
AcDbArc
 50
66.7240254007
 51
113.2759745993
  0
ARC
  5
179
330
1F
100
AcDbEntity
  8
0
  6
HIDDEN
 62
     7
370
    18
100
AcDbCircle
 10
206.8462760492
 20
332.5676638121
 30
0.0
 40
47.01047144386428
100
AcDbArc
 50
118.1525968293
 51
164.7045460278
  0
ARC
  5
17A
330
1F
100
AcDbEntity
  8
0
  6
HIDDEN
 62
     7
370
    18
100
AcDbCircle
 10
206.8462760492
 20
332.5676638121
 30
0.0
 40
47.01047144386468
100
AcDbArc
 50
15.2954539722
 51
61.8474031707
  0
ARC
  5
17B
330
1F
100
AcDbEntity
  8
0
  6
HIDDEN
 62
     7
370
    18
100
AcDbCircle
 10
206.8462760492
 20
332.5676638121
 30
0.0
 40
47.01047144386376
100
AcDbArc
 50
323.8668825436
 51
10.4188317421
  0
CIRCLE
  5
17C
330
1F
100
AcDbEntity
  8
0
  6
HIDDEN
 62
     7
370
    18
100
AcDbCircle
 10
206.8462760492
 20
332.5676638121
 30
0.0
 40
56.42044450422867
  0
SPLINE
  5
17D
330
1F
100
AcDbEntity
  8
0
  6
HIDDEN
 62
     7
370
    18
100
AcDbSpline
210
0.0
220
0.0
230
1.0
 70
     8
 71
     3
 72
    10
 73
     6
 74
     0
 42
0.00000001
 43
0.00000001
 40
0.0
 40
0.0
 40
0.0
 40
0.0
 40
0.4042760034662127
 40
0.8081029354808711
 40
1.0
 40
1.0
 40
1.0
 40
1.0
 10
203.3752061363027
 20
339.7754147553008
 30
0.0
 10
203.1713741887729
 20
339.7018547920822
 30
0.0
 10
202.763936711081
 20
339.5548165763554
 30
0.0
 10
202.2113839720657
 20
339.5600807932201
 30
0.0
 10
201.9240663973954
 20
339.6836352418741
 30
0.0
 10
201.8315144782436
 20
339.7234351091665
 30
0.0
  0
SPLINE
  5
17E
330
1F
100
AcDbEntity
  8
0
  6
HIDDEN
 62
     7
370
    18
100
AcDbSpline
210
0.0
220
0.0
230
1.0
 70
     8
 71
     3
 72
    10
 73
     6
 74
     0
 42
0.00000001
 43
0.00000001
 40
0.0
 40
0.0
 40
0.0
 40
0.0
 40
0.3212149462437741
 40
0.7411670485376177
 40
1.0
 40
1.0
 40
1.0
 40
1.0
 10
204.3949023214297
 20
340.9872916559447
 30
0.0
 10
204.3389608677874
 20
340.8229321951501
 30
0.0
 10
204.209882309732
 20
340.443691384967
 30
0.0
 10
203.8224509337658
 20
340.0291709893905
 30
0.0
 10
203.4986697326812
 20
339.8454651112623
 30
0.0
 10
203.3752061363027
 20
339.7754147553008
 30
0.0
  0
ARC
  5
17F
330
1F
100
AcDbEntity
  8
0
  6
HIDDEN
 62
     7
370
    18
100
AcDbCircle
 10
206.8462760492
 20
332.5676638121
 30
0.0
 40
7.999999999999947
100
AcDbArc
 50
115.7142857143
 51
167.1428571429
  0
SPLINE
  5
180
330
1F
100
AcDbEntity
  8
0
  6
HIDDEN
 62
     7
370
    18
100
AcDbSpline
210
0.0
220
0.0
230
1.0
 70
     8
 71
     3
 72
    10
 73
     6
 74
     0
 42
0.00000001
 43
0.00000001
 40
0.0
 40
0.0
 40
0.0
 40
0.0
 40
0.3719832960126749
 40
0.7435533914461281
 40
0.9999999999999999
 40
0.9999999999999999
 40
0.9999999999999999
 40
0.9999999999999999
 10
199.0468527517885
 20
334.3478312837319
 30
0.0
 10
198.9776356114797
 20
334.1420372679075
 30
0.0
 10
198.8392782175469
 20
333.7306778331002
 30
0.0
 10
198.4555707954263
 20
333.2723669168881
 30
0.0
 10
198.1375329113654
 20
333.1066130850715
 30
0.0
 10
198.0076641734142
 20
333.0389285668823
 30
0.0
  0
SPLINE
  5
181
330
1F
100
AcDbEntity
  8
0
  6
HIDDEN
 62
     7
370
    18
100
AcDbSpline
210
0.0
220
0.0
230
1.0
 70
     8
 71
     3
 72
    10
 73
     6
 74
     0
 42
0.00000001
 43
0.00000001
 40
0.0
 40
0.0
 40
0.0
 40
0.0
 40
0.3774593021148105
 40
0.7626140331943275
 40
1.0
 40
1.0
 40
1.0
 40
1.0
 10
198.6643223148446
 20
336.0281856920411
 30
0.0
 10
198.7858956034384
 20
335.8416700133345
 30
0.0
 10
199.0315207487822
 20
335.464836078668
 30
0.0
 10
199.1281421448377
 20
334.8561382460248
 30
0.0
 10
199.0692929922792
 20
334.4881513187216
 30
0.0
 10
199.0468527517885
 20
334.3478312837319
 30
0.0
  0
ARC
  5
182
330
1F
100
AcDbEntity
  8
0
  6
HIDDEN
 62
     7
370
    18
100
AcDbCircle
 10
206.8462760492
 20
332.5676638121
 30
0.0
 40
8.000000000000567
100
AcDbArc
 50
167.1428571429
 51
218.5714285714
  0
SPLINE
  5
183
330
1F
100
AcDbEntity
  8
0
  6
HIDDEN
 62
     7
370
    18
100
AcDbSpline
210
0.0
220
0.0
230
1.0
 70
     8
 71
     3
 72
    10
 73
     6
 74
     0
 42
0.00000001
 43
0.00000001
 40
0.0
 40
0.0
 40
0.0
 40
0.0
 40
0.3907985165801806
 40
0.7811629325568157
 40
0.9999999999999999
 40
0.9999999999999999
 40
0.9999999999999999
 40
0.9999999999999999
 10
200.5916241894989
 20
327.5797453972116
 30
0.0
 10
200.7089858396806
 20
327.3973606160241
 30
0.0
 10
200.9435787742389
 20
327.0327936474159
 30
0.0
 10
201.061767893534
 20
326.4747132283071
 30
0.0
 10
201.0003965860474
 20
326.1494724405817
 30
0.0
 10
200.9783508141295
 20
326.0326395993365
 30
0.0
  0
SPLINE
  5
184
330
1F
100
AcDbEntity
  8
0
  6
HIDDEN
 62
     7
370
    18
100
AcDbSpline
210
0.0
220
0.0
230
1.0
 70
     8
 71
     3
 72
    10
 73
     6
 74
     0
 42
0.00000001
 43
0.00000001
 40
0.0
 40
0.0
 40
0.0
 40
0.0
 40
0.3072698722229745
 40
0.7358495409595073
 40
1.0
 40
1.0
 40
1.0
 40
1.0
 10
199.2152823952847
 20
328.2988273167617
 30
0.0
 10
199.3770771387238
 20
328.2816491811159
 30
0.0
 10
199.7645430065224
 20
328.2405110013844
 30
0.0
 10
200.244659858214
 20
327.9590729559848
 30
0.0
 10
200.4958433902621
 20
327.6844601862428
 30
0.0
 10
200.5916241894989
 20
327.5797453972116
 30
0.0
  0
ARC
  5
185
330
1F
100
AcDbEntity
  8
0
  6
HIDDEN
 62
     7
370
    18
100
AcDbCircle
 10
206.8462760492
 20
332.5676638121
 30
0.0
 40
8.000000000000567
100
AcDbArc
 50
218.5714285714
 51
270.0
  0
SPLINE
  5
186
330
1F
100
AcDbEntity
  8
0
  6
HIDDEN
 62
     7
370
    18
100
AcDbSpline
210
0.0
220
0.0
230
1.0
 70
     8
 71
     3
 72
    10
 73
     6
 74
     0
 42
0.00000001
 43
0.00000001
 40
0.0
 40
0.0
 40
0.0
 40
0.0
 40
0.4052901454674046
 40
0.8101300929701354
 40
0.9999999999999999
 40
0.9999999999999999
 40
0.9999999999999999
 40
0.9999999999999999
 10
206.8462760492437
 20
324.5676638120822
 30
0.0
 10
207.0618228534068
 20
324.5454837073407
 30
0.0
 10
207.4926770314542
 20
324.5011481356094
 30
0.0
 10
207.9871819044941
 20
324.2574702980494
 30
0.0
 10
208.1916573320577
 20
324.0225623709072
 30
0.0
 10
208.2569391331335
 20
323.9475645447451
 30
0.0
  0
SPLINE
  5
187
330
1F
100
AcDbEntity
  8
0
  6
HIDDEN
 62
     7
370
    18
100
AcDbSpline
210
0.0
220
0.0
230
1.0
 70
     8
 71
     3
 72
    10
 73
     6
 74
     0
 42
0.00000001
 43
0.00000001
 40
0.0
 40
0.0
 40
0.0
 40
0.0
 40
0.3152138589458202
 40
0.7388787259989683
 40
1.0
 40
1.0
 40
1.0
 40
1.0
 10
205.4122794509837
 20
323.927679600519
 30
0.0
 10
205.5307714668151
 20
324.047994498963
 30
0.0
 10
205.8085233080295
 20
324.3300192778809
 30
0.0
 10
206.3332882017108
 20
324.5330097620171
 30
0.0
 10
206.7046638384049
 20
324.5580974321614
 30
0.0
 10
206.8462760492437
 20
324.5676638120822
 30
0.0
  0
ARC
  5
188
330
1F
100
AcDbEntity
  8
0
  6
HIDDEN
 62
     7
370
    18
100
AcDbCircle
 10
206.8462760492
 20
332.5676638121
 30
0.0
 40
8.000000000000338
100
AcDbArc
 50
270.0
 51
321.4285714286
  0
SPLINE
  5
189
330
1F
100
AcDbEntity
  8
0
  6
HIDDEN
 62
     7
370
    18
100
AcDbSpline
210
0.0
220
0.0
230
1.0
 70
     8
 71
     3
 72
    10
 73
     6
 74
     0
 42
0.00000001
 43
0.00000001
 40
0.0
 40
0.0
 40
0.0
 40
0.0
 40
0.3786412536960195
 40
0.7568619111262189
 40
1.0
 40
1.0
 40
1.0
 40
1.0
 10
213.1009279089879
 20
327.5797453972124
 30
0.0
 10
213.2525960747419
 20
327.7349965545777
 30
0.0
 10
213.5557639326258
 20
328.0453264156827
 30
0.0
 10
214.0905526028415
 20
328.2891566564537
 30
0.0
 10
214.4388901032492
 20
328.3009365672909
 30
0.0
 10
214.5751947978173
 20
328.3055460542018
 30
0.0
  0
SPLINE
  5
18A
330
1F
100
AcDbEntity
  8
0
  6
HIDDEN
 62
     7
370
    18
100
AcDbSpline
210
0.0
220
0.0
230
1.0
 70
     8
 71
     3
 72
    10
 73
     6
 74
     0
 42
0.00000001
 43
0.00000001
 40
0.0
 40
0.0
 40
0.0
 40
0.0
 40
0.3793507555033242
 40
0.7633352783961685
 40
1.0
 40
1.0
 40
1.0
 40
1.0
 10
212.7168090047518
 20
325.8944685726312
 30
0.0
 10
212.6879113108046
 20
326.1170434527569
 30
0.0
 10
212.6297629377377
 20
326.5649119639435
 30
0.0
 10
212.8071124504181
 20
327.1570461521017
 30
0.0
 10
213.0198190545252
 20
327.4630576922152
 30
0.0
 10
213.1009279089879
 20
327.5797453972124
 30
0.0
  0
ARC
  5
18B
330
1F
100
AcDbEntity
  8
0
  6
HIDDEN
 62
     7
370
    18
100
AcDbCircle
 10
206.8462760492
 20
332.5676638121
 30
0.0
 40
8.000000000000338
100
AcDbArc
 50
321.4285714286
 51
12.8571428571
  0
SPLINE
  5
18C
330
1F
100
AcDbEntity
  8
0
  6
HIDDEN
 62
     7
370
    18
100
AcDbSpline
210
0.0
220
0.0
230
1.0
 70
     8
 71
     3
 72
    10
 73
     6
 74
     0
 42
0.00000001
 43
0.00000001
 40
0.0
 40
0.0
 40
0.0
 40
0.0
 40
0.3864529635468248
 40
0.7724766535483215
 40
1.0
 40
1.0
 40
1.0
 40
1.0
 10
214.6456993466979
 20
334.3478312837328
 30
0.0
 10
214.6190172476026
 20
334.5631235716327
 30
0.0
 10
214.5656826879976
 20
334.9934689998716
 30
0.0
 10
214.7038570737584
 20
335.5531728569601
 30
0.0
 10
214.9043187461928
 20
335.8242275726123
 30
0.0
 10
214.978656503264
 20
335.9247435433734
 30
0.0
  0
SPLINE
  5
18D
330
1F
100
AcDbEntity
  8
0
  6
HIDDEN
 62
     7
370
    18
100
AcDbSpline
210
0.0
220
0.0
230
1.0
 70
     8
 71
     3
 72
    10
 73
     6
 74
     0
 42
0.00000001
 43
0.00000001
 40
0.0
 40
0.0
 40
0.0
 40
0.0
 40
0.31196919323669
 40
0.7376414765967375
 40
1.0
 40
1.0
 40
1.0
 40
1.0
 10
215.582567875876
 20
333.0965530917724
 30
0.0
 10
215.4411018506558
 20
333.1840393435425
 30
0.0
 10
215.1066098238979
 20
333.3908978710401
 30
0.0
 10
214.793669385165
 20
333.8554613127128
 30
0.0
 10
214.6865470283458
 20
334.2119107146937
 30
0.0
 10
214.6456993466979
 20
334.3478312837328
 30
0.0
  0
ARC
  5
18E
330
1F
100
AcDbEntity
  8
0
  6
HIDDEN
 62
     7
370
    18
100
AcDbCircle
 10
206.8462760492
 20
332.5676638121
 30
0.0
 40
8.000000000000082
100
AcDbArc
 50
12.8571428571
 51
64.2857142857
  0
SPLINE
  5
18F
330
1F
100
AcDbEntity
  8
0
  6
HIDDEN
 62
     7
370
    18
100
AcDbSpline
210
0.0
220
0.0
230
1.0
 70
     8
 71
     3
 72
    10
 73
     6
 74
     0
 42
0.00000001
 43
0.00000001
 40
0.0
 40
0.0
 40
0.0
 40
0.0
 40
0.4055574277084628
 40
0.8106643605540468
 40
1.0
 40
1.0
 40
1.0
 40
1.0
 10
210.3173459621837
 20
339.7754147553017
 30
0.0
 10
210.1327742074808
 20
339.8889225718664
 30
0.0
 10
209.7638357211411
 20
340.1158121200453
 30
0.0
 10
209.4241848009233
 20
340.5496054064304
 30
0.0
 10
209.3419439330588
 20
340.8496256908425
 30
0.0
 10
209.3157494307948
 20
340.9451850182589
 30
0.0
  0
SPLINE
  5
190
330
1F
100
AcDbEntity
  8
0
  6
HIDDEN
 62
     7
370
    18
100
AcDbSpline
210
0.0
220
0.0
230
1.0
 70
     8
 71
     3
 72
    10
 73
     6
 74
     0
 42
0.00000001
 43
0.00000001
 40
0.0
 40
0.0
 40
0.0
 40
0.0
 40
0.3102070440584044
 40
0.7369695374163142
 40
1.0
 40
1.0
 40
1.0
 40
1.0
 10
211.8758546633687
 20
339.7265945447047
 30
0.0
 10
211.7205240719384
 20
339.6710409067849
 30
0.0
 10
211.3514998466491
 20
339.5390602196157
 30
0.0
 10
210.7945466198538
 20
339.5841446254852
 30
0.0
 10
210.4490789856294
 20
339.7226139217517
 30
0.0
 10
210.3173459621837
 20
339.7754147553016
 30
0.0
  0
ARC
  5
191
330
1F
100
AcDbEntity
  8
0
  6
HIDDEN
 62
     7
370
    18
100
AcDbCircle
 10
206.8462760492
 20
332.5676638121
 30
0.0
 40
8.000000000000023
100
AcDbArc
 50
64.2857142857
 51
115.7142857143
  0
ARC
  5
192
330
1F
100
AcDbEntity
  8
0
  6
HIDDEN
 62
     7
370
    18
100
AcDbCircle
 10
206.8462760492
 20
332.5676638121
 30
0.0
 40
32.66785870823745
100
AcDbArc
 50
222.0814004288
 51
266.4900281426
  0
ARC
  5
193
330
1F
100
AcDbEntity
  8
0
  6
HIDDEN
 62
     7
370
    18
100
AcDbCircle
 10
206.8462760492
 20
332.5676638121
 30
0.0
 40
32.66785870823809
100
AcDbArc
 50
273.5099718574
 51
317.9185995712
  0
ARC
  5
194
330
1F
100
AcDbEntity
  8
0
  6
HIDDEN
 62
     7
370
    18
100
AcDbCircle
 10
206.8462760492
 20
332.5676638121
 30
0.0
 40
32.66785870823765
100
AcDbArc
 50
170.6528290002
 51
215.061456714
  0
ARC
  5
195
330
1F
100
AcDbEntity
  8
0
  6
HIDDEN
 62
     7
370
    18
100
AcDbCircle
 10
206.8462760492
 20
332.5676638121
 30
0.0
 40
32.66785870823928
100
AcDbArc
 50
67.7956861431
 51
112.2043138569
  0
ARC
  5
196
330
1F
100
AcDbEntity
  8
0
  6
HIDDEN
 62
     7
370
    18
100
AcDbCircle
 10
206.8462760492
 20
332.5676638121
 30
0.0
 40
32.66785870823835
100
AcDbArc
 50
119.2242575717
 51
163.6328852855
  0
ARC
  5
197
330
1F
100
AcDbEntity
  8
0
  6
HIDDEN
 62
     7
370
    18
100
AcDbCircle
 10
206.8462760492
 20
332.5676638121
 30
0.0
 40
32.66785870823905
100
AcDbArc
 50
16.3671147145
 51
60.7757424283
  0
ARC
  5
198
330
1F
100
AcDbEntity
  8
0
  6
HIDDEN
 62
     7
370
    18
100
AcDbCircle
 10
206.8462760492
 20
332.5676638121
 30
0.0
 40
32.66785870823822
100
AcDbArc
 50
324.938543286
 51
9.3471709998
  0
LINE
  5
199
330
1F
100
AcDbEntity
  8
0
  6
HIDDEN
 62
     7
370
    18
100
AcDbLine
 10
208.8462760492
 20
300.2427084839
 30
0.0
 11
208.8462760492
 21
299.9610848351
 31
0.0
  0
LINE
  5
19A
330
1F
100
AcDbEntity
  8
0
  6
HIDDEN
 62
     7
370
    18
100
AcDbLine
 10
204.8462760492
 20
299.9610848351
 30
0.0
 11
204.8462760492
 21
300.2427084839
 31
0.0
  0
CIRCLE
  5
19B
330
1F
100
AcDbEntity
  8
0
  6
HIDDEN
 62
     7
370
    18
100
AcDbCircle
 10
206.8462760492
 20
332.5676638121
 30
0.0
 40
3.150000000000091
  0
CIRCLE
  5
19C
330
1F
100
AcDbEntity
  8
0
  6
HIDDEN
 62
     7
370
    18
100
AcDbCircle
 10
206.8462760492
 20
332.5676638121
 30
0.0
 40
7.919573131193999
  0
LINE
  5
19D
330
1F
100
AcDbEntity
  8
0
  6
HIDDEN
 62
     7
370
    18
100
AcDbLine
 10
121.1218698735
 20
417.5676638121
 30
0.0
 11
120.4228291992
 21
417.5676638121
 31
0.0
  0
LINE
  5
19E
330
1F
100
AcDbEntity
  8
0
  6
HIDDEN
 62
     7
370
    18
100
AcDbLine
 10
146.8462760492
 20
443.9911106622
 30
0.0
 11
146.8462760492
 21
443.2920699878
 31
0.0
  0
ARC
  5
19F
330
1F
100
AcDbEntity
  8
0
  6
HIDDEN
 62
     7
370
    18
100
AcDbCircle
 10
146.8462760492
 20
417.5676638121
 30
0.0
 40
26.42344685007234
100
AcDbArc
 50
90.0
 51
180.0
  0
ARC
  5
1A0
330
1F
100
AcDbEntity
  8
0
  6
HIDDEN
 62
     7
370
    18
100
AcDbCircle
 10
266.8462760492
 20
417.5676638121
 30
0.0
 40
25.72440617574409
100
AcDbArc
 50
0.0
 51
90.0
  0
LINE
  5
1A1
330
1F
100
AcDbEntity
  8
0
  6
HIDDEN
 62
     7
370
    18
100
AcDbLine
 10
293.2697228993
 20
417.5676638121
 30
0.0
 11
292.570682225
 21
417.5676638121
 31
0.0
  0
LINE
  5
1A2
330
1F
100
AcDbEntity
  8
0
  6
HIDDEN
 62
     7
370
    18
100
AcDbLine
 10
266.8462760492
 20
443.9911106622
 30
0.0
 11
266.8462760492
 21
443.2920699878
 31
0.0
  0
ARC
  5
1A3
330
1F
100
AcDbEntity
  8
0
  6
HIDDEN
 62
     7
370
    18
100
AcDbCircle
 10
266.8462760492
 20
417.5676638121
 30
0.0
 40
26.42344685007237
100
AcDbArc
 50
0.0
 51
90.0
  0
LINE
  5
1A4
330
1F
100
AcDbEntity
  8
0
  6
HIDDEN
 62
     7
370
    18
100
AcDbLine
 10
293.2697228993
 20
417.5676638121
 30
0.0
 11
293.2697228993
 21
82.5676638121
 31
0.0
  0
LINE
  5
1A5
330
1F
100
AcDbEntity
  8
0
  6
HIDDEN
 62
     7
370
    18
100
AcDbLine
 10
120.4228291992
 20
82.5676638121
 30
0.0
 11
120.4228291992
 21
417.5676638121
 31
0.0
  0
LINE
  5
1A6
330
1F
100
AcDbEntity
  8
0
  6
HIDDEN
 62
     7
370
    18
100
AcDbLine
 10
146.8462760492
 20
443.9911106622
 30
0.0
 11
266.8462760492
 21
443.9911106622
 31
0.0
  0
LINE
  5
1A7
330
1F
100
AcDbEntity
  8
0
  6
HIDDEN
 62
     7
370
    18
100
AcDbLine
 10
146.8462760492
 20
56.8432576363
 30
0.0
 11
146.8462760492
 21
56.144216962
 31
0.0
  0
LINE
  5
1A8
330
1F
100
AcDbEntity
  8
0
  6
HIDDEN
 62
     7
370
    18
100
AcDbLine
 10
121.1218698735
 20
82.5676638121
 30
0.0
 11
120.4228291992
 21
82.5676638121
 31
0.0
  0
ARC
  5
1A9
330
1F
100
AcDbEntity
  8
0
  6
HIDDEN
 62
     7
370
    18
100
AcDbCircle
 10
146.8462760492
 20
82.5676638121
 30
0.0
 40
26.42344685007234
100
AcDbArc
 50
180.0
 51
270.0
  0
LINE
  5
1AA
330
1F
100
AcDbEntity
  8
0
  6
HIDDEN
 62
     7
370
    18
100
AcDbLine
 10
266.8462760492
 20
56.8432576363
 30
0.0
 11
266.8462760492
 21
56.144216962
 31
0.0
  0
LINE
  5
1AB
330
1F
100
AcDbEntity
  8
0
  6
HIDDEN
 62
     7
370
    18
100
AcDbLine
 10
293.2697228993
 20
82.5676638121
 30
0.0
 11
292.570682225
 21
82.5676638121
 31
0.0
  0
ARC
  5
1AC
330
1F
100
AcDbEntity
  8
0
  6
HIDDEN
 62
     7
370
    18
100
AcDbCircle
 10
266.8462760492
 20
82.5676638121
 30
0.0
 40
26.4234468500723
100
AcDbArc
 50
270.0
 51
0.0
  0
LINE
  5
1AD
330
1F
100
AcDbEntity
  8
0
  6
HIDDEN
 62
     7
370
    18
100
AcDbLine
 10
266.8462760492
 20
56.144216962
 30
0.0
 11
146.8462760492
 21
56.144216962
 31
0.0
  0
LINE
  5
1AE
330
1F
100
AcDbEntity
  8
0
  6
HIDDEN
 62
     7
370
    18
100
AcDbLine
 10
121.1218698735
 20
417.5676638121
 30
0.0
 11
127.038032883
 21
417.5676638121
 31
0.0
  0
LINE
  5
1AF
330
1F
100
AcDbEntity
  8
0
  6
HIDDEN
 62
     7
370
    18
100
AcDbLine
 10
292.570682225
 20
417.5676638121
 30
0.0
 11
286.6545192155
 21
417.5676638121
 31
0.0
  0
LINE
  5
1B0
330
1F
100
AcDbEntity
  8
0
  6
HIDDEN
 62
     7
370
    18
100
AcDbLine
 10
266.8462760492
 20
443.2920699878
 30
0.0
 11
266.8462760492
 21
437.3759069783
 31
0.0
  0
LINE
  5
1B1
330
1F
100
AcDbEntity
  8
0
  6
HIDDEN
 62
     7
370
    18
100
AcDbLine
 10
146.8462760492
 20
443.2920699878
 30
0.0
 11
146.8462760492
 21
437.3759069783
 31
0.0
  0
LINE
  5
1B2
330
1F
100
AcDbEntity
  8
0
  6
HIDDEN
 62
     7
370
    18
100
AcDbLine
 10
121.1218698735
 20
82.5676638121
 30
0.0
 11
126.5298276545
 21
82.5676638121
 31
0.0
  0
LINE
  5
1B3
330
1F
100
AcDbEntity
  8
0
  6
HIDDEN
 62
     7
370
    18
100
AcDbLine
 10
292.570682225
 20
82.5676638121
 30
0.0
 11
287.162724444
 21
82.5676638121
 31
0.0
  0
LINE
  5
1B4
330
1F
100
AcDbEntity
  8
0
  6
HIDDEN
 62
     7
370
    18
100
AcDbLine
 10
266.8462760492
 20
56.8432576363
 30
0.0
 11
266.8462760492
 21
62.2512154174
 31
0.0
  0
LINE
  5
1B5
330
1F
100
AcDbEntity
  8
0
  6
HIDDEN
 62
     7
370
    18
100
AcDbLine
 10
146.8462760492
 20
56.8432576363
 30
0.0
 11
146.8462760492
 21
62.2512154174
 31
0.0
  0
SPLINE
  5
1B6
330
1F
100
AcDbEntity
  8
0
  6
HIDDEN
 62
     7
370
    18
100
AcDbSpline
210
0.0
220
0.0
230
1.0
 70
     8
 71
     3
 72
    39
 73
    35
 74
     0
 42
0.00000001
 43
0.00000001
 40
0.0
 40
0.0
 40
0.0
 40
0.0
 40
0.0138170259904709
 40
0.027021983958441
 40
0.0396148686221362
 40
0.0515956753951085
 40
0.0629644003412532
 40
0.0737210401358568
 40
0.0838655920338651
 40
0.0933980538470291
 40
0.1023184239324518
 40
0.1106267011962072
 40
0.1183228851177987
 40
0.1254069758048093
 40
0.1909680713030312
 40
0.2495322928786383
 40
0.3143270114850246
 40
0.3751076665288171
 40
0.4384065171325647
 40
0.4991899172517597
 40
0.562786002896939
 40
0.6246016091167491
 40
0.6876089934604663
 40
0.749561955650674
 40
0.7749491882179362
 40
0.8002560942467151
 40
0.8254841573745773
 40
0.8506348728063172
 40
0.8757097471020054
 40
0.9007102979683971
 40
0.9256380540534451
 40
0.9504945547442475
 40
0.9752813499686385
 40
1.0
 40
1.0
 40
1.0
 40
1.0
 10
261.8274910627368
 20
86.01065943741473
 30
0.0
 10
261.8648957728725
 20
85.84215683539264
 30
0.0
 10
261.9380482354902
 20
85.51261597674933
 30
0.0
 10
262.0449853209663
 20
85.0305965604178
 30
0.0
 10
262.1467505088866
 20
84.57184483194
 30
0.0
 10
262.2433447305677
 20
84.13642036791336
 30
0.0
 10
262.3347938075601
 20
83.72426982148659
 30
0.0
 10
262.4211161640778
 20
83.3353314847212
 30
0.0
 10
262.5023308923446
 20
82.9695153086628
 30
0.0
 10
262.578455516368
 20
82.62671368043584
 30
0.0
 10
262.649507251052
 20
82.30680382208338
 30
0.0
 10
262.7155002380226
 20
82.00965335696111
 30
0.0
 10
262.7764544109479
 20
81.73511993281387
 30
0.0
 10
262.9878211607307
 20
80.78227151492712
 30
0.0
 10
263.3278721136713
 20
79.24546338340366
 30
0.0
 10
263.8010513709374
 20
77.10159831928956
 30
0.0
 10
264.2415701482623
 20
75.09198311545317
 30
0.0
 10
264.6682568587793
 20
73.1322262650467
 30
0.0
 10
265.0572851806968
 20
71.32671623697945
 30
0.0
 10
265.4201343344328
 20
69.62384497612217
 30
0.0
 10
265.7447427035481
 20
68.07754063064253
 30
0.0
 10
266.0345608998588
 20
66.67312444192348
 30
0.0
 10
266.2807677077367
 20
65.45147748097804
 30
0.0
 10
266.4445764761391
 20
64.6146490825356
 30
0.0
 10
266.5483966863438
 20
64.06881536604914
 30
0.0
 10
266.6108745548029
 20
63.73309288294901
 30
0.0
 10
266.6656802672742
 20
63.43095250581718
 30
0.0
 10
266.7128402455076
 20
63.16254520282799
 30
0.0
 10
266.7523902125867
 20
62.92796780141913
 30
0.0
 10
266.7843477678059
 20
62.72733990798984
 30
0.0
 10
266.8087934879528
 20
62.56045265756521
 30
0.0
 10
266.8255747256657
 20
62.42809572036467
 30
0.0
 10
266.8354045784545
 20
62.32712485974076
 30
0.0
 10
266.8356536806305
 20
62.28818780898246
 30
0.0
 10
266.8357780602715
 20
62.26874608240113
 30
0.0
  0
SPLINE
  5
1B7
330
1F
100
AcDbEntity
  8
0
  6
HIDDEN
 62
     7
370
    18
100
AcDbSpline
210
0.0
220
0.0
230
1.0
 70
     8
 71
     3
 72
    38
 73
    34
 74
     0
 42
0.00000001
 43
0.00000001
 40
0.0
 40
0.0
 40
0.0
 40
0.0
 40
0.0624999999999999
 40
0.0624999999999999
 40
0.1249999999999999
 40
0.1249999999999999
 40
0.1874999999999998
 40
0.1874999999999998
 40
0.2499999999999997
 40
0.2499999999999997
 40
0.3750000000000005
 40
0.3750000000000005
 40
0.4375000000000005
 40
0.4375000000000005
 40
0.5000000000000006
 40
0.5000000000000006
 40
0.5625000000000004
 40
0.5625000000000004
 40
0.6250000000000004
 40
0.6250000000000004
 40
0.6875000000000003
 40
0.6875000000000003
 40
0.7500000000000002
 40
0.7500000000000002
 40
0.8125000000000002
 40
0.8125000000000002
 40
0.8750000000000001
 40
0.8750000000000001
 40
0.9375000000000001
 40
0.9375000000000001
 40
0.96875
 40
0.96875
 40
1.0
 40
1.0
 40
1.0
 40
1.0
 10
287.0322371028823
 20
82.46833134889975
 30
0.0
 10
286.9390513179983
 20
82.41677642320558
 30
0.0
 10
286.80811284391
 20
82.37498748353094
 30
0.0
 10
286.4809138824604
 20
82.30956588210856
 30
0.0
 10
286.2852662999505
 20
82.2858365938261
 30
0.0
 10
285.8309313928883
 20
82.25488936055409
 30
0.0
 10
285.5725095700841
 20
82.24750307175749
 30
0.0
 10
284.9888984344784
 20
82.24930342649165
 30
0.0
 10
284.6628614747452
 20
82.25844476400191
 30
0.0
 10
283.592636524445
 20
82.31075362387958
 30
0.0
 10
282.7496655919882
 20
82.3791255803851
 30
0.0
 10
281.314104446909
 20
82.53160632649015
 30
0.0
 10
280.8056172209431
 20
82.5909155258857
 30
0.0
 10
279.7403712167341
 20
82.72508585196515
 30
0.0
 10
279.1865476635336
 20
82.79957775205568
 30
0.0
 10
278.0410222752981
 20
82.96229935094226
 30
0.0
 10
277.4508298555249
 20
83.05026867660123
 30
0.0
 10
276.2268842527404
 20
83.24082046539422
 30
0.0
 10
275.5901278892258
 20
83.34366882460561
 30
0.0
 10
274.273500944156
 20
83.56401176196901
 30
0.0
 10
273.5914531662638
 20
83.68200551099153
 30
0.0
 10
272.2031509903051
 20
83.92901232543699
 30
0.0
 10
271.4977713419491
 20
84.05802528977487
 30
0.0
 10
270.0752661200016
 20
84.32439029973418
 30
0.0
 10
269.3613292815089
 20
84.46121769912229
 30
0.0
 10
267.9009310843325
 20
84.74681948554355
 30
0.0
 10
267.1569743193835
 20
84.89530014746622
 30
0.0
 10
265.6524929354483
 20
85.20108205213967
 30
0.0
 10
264.8916449841514
 20
85.35850248313962
 30
0.0
 10
263.7445673439834
 20
85.59974822246957
 30
0.0
 10
263.3613573396053
 20
85.68099121015774
 30
0.0
 10
262.5940972577573
 20
85.84492811155503
 30
0.0
 10
262.2058959534369
 20
85.92850337067497
 30
0.0
 10
261.8274910628172
 20
86.0106594377717
 30
0.0
  0
SPLINE
  5
1B8
330
1F
100
AcDbEntity
  8
0
  6
HIDDEN
 62
     7
370
    18
100
AcDbSpline
210
0.0
220
0.0
230
1.0
 70
     8
 71
     3
 72
    41
 73
    37
 74
     0
 42
0.00000001
 43
0.00000001
 40
0.0
 40
0.0
 40
0.0
 40
0.0
 40
0.0137248449211158
 40
0.0274704940749518
 40
0.0412372161570899
 40
0.0550252788947219
 40
0.0688349490365906
 40
0.0826664923427235
 40
0.0965201735741428
 40
0.1103962564823772
 40
0.1242950037989954
 40
0.138216677224882
 40
0.1521615374195559
 40
0.1661298439903532
 40
0.1801218554813696
 40
0.1941378293625775
 40
0.2081780220185594
 40
0.222242688737379
 40
0.236332083699229
 40
0.2504464599650162
 40
0.3124003302276868
 40
0.3754060209039272
 40
0.437222534350377
 40
0.5008169243580869
 40
0.5616012286376661
 40
0.6248983950669855
 40
0.6856798831961894
 40
0.7504729793504793
 40
0.8090379803254064
 40
0.8745975162803246
 40
0.8893628848938733
 40
0.9065823446408258
 40
0.9262558515354379
 40
0.9483833473220276
 40
0.9729647594058876
 40
1.0
 40
1.0
 40
1.0
 40
1.0
 10
146.8567740382207
 20
62.26874608240113
 30
0.0
 10
146.8566659284178
 20
62.27874513216183
 30
0.0
 10
146.8564495449382
 20
62.29875838832508
 30
0.0
 10
146.8590387773509
 20
62.34189041655208
 30
0.0
 10
146.863765584833
 20
62.39467690649131
 30
0.0
 10
146.8708449953325
 20
62.45808222128707
 30
0.0
 10
146.8802259204874
 20
62.53187162722043
 30
0.0
 10
146.8919287719908
 20
62.61612691881383
 30
0.0
 10
146.9059547836443
 20
62.71083930535912
 30
0.0
 10
146.9223103612739
 20
62.81601869333636
 30
0.0
 10
146.9410005384717
 20
62.93166427811625
 30
0.0
 10
146.9620307302474
 20
63.05777238721394
 30
0.0
 10
146.9854062570242
 20
63.19433432373414
 30
0.0
 10
147.011132470652
 20
63.34133688502089
 30
0.0
 10
147.0392147067765
 20
63.498762213652
 30
0.0
 10
147.0696583283127
 20
63.6665876483008
 30
0.0
 10
147.1024685778938
 20
63.84478625745532
 30
0.0
 10
147.137651104652
 20
64.03332464636097
 30
0.0
 10
147.1752099784621
 20
64.23217102502133
 30
0.0
 10
147.2602612459831
 20
64.67737422346087
 30
0.0
 10
147.4117850403742
 20
65.4514955485875
 30
0.0
 10
147.6579951303984
 20
66.67313989474904
 30
0.0
 10
147.947811525993
 20
68.07755167099732
 30
0.0
 10
148.2724224801865
 20
69.62386719166463
 30
0.0
 10
148.6352696564896
 20
71.32672856292707
 30
0.0
 10
149.0243003673885
 20
73.13225122954053
 30
0.0
 10
149.4509859820376
 20
75.09199695075269
 30
0.0
 10
149.8915023183827
 20
77.10162153310817
 30
0.0
 10
150.3646975151528
 20
79.24548748192659
 30
0.0
 10
150.7246001814792
 20
80.87222364750443
 30
0.0
 10
150.9817047647526
 20
82.0306810146039
 30
0.0
 10
151.1187177859689
 20
82.64747209065654
 30
0.0
 10
151.2760460247057
 20
83.35603475919967
 30
0.0
 10
151.4538670941625
 20
84.15735367558064
 30
0.0
 10
151.652258049243
 20
85.05182488016641
 30
0.0
 10
151.7919136555661
 20
85.68107648820985
 30
0.0
 10
151.8650610357501
 20
86.01065943741467
 30
0.0
  0
SPLINE
  5
1B9
330
1F
100
AcDbEntity
  8
0
  6
HIDDEN
 62
     7
370
    18
100
AcDbSpline
210
0.0
220
0.0
230
1.0
 70
     8
 71
     3
 72
    38
 73
    34
 74
     0
 42
0.00000001
 43
0.00000001
 40
0.0
 40
0.0
 40
0.0
 40
0.0
 40
0.0312499999999996
 40
0.0312499999999996
 40
0.0624999999999991
 40
0.0624999999999991
 40
0.1249999999999986
 40
0.1249999999999986
 40
0.187499999999998
 40
0.187499999999998
 40
0.2499999999999979
 40
0.2499999999999979
 40
0.3124999999999978
 40
0.3124999999999978
 40
0.3749999999999977
 40
0.3749999999999977
 40
0.4374999999999976
 40
0.4374999999999976
 40
0.4999999999999976
 40
0.4999999999999976
 40
0.5624999999999974
 40
0.5624999999999974
 40
0.6249999999999973
 40
0.6249999999999973
 40
0.7499999999999972
 40
0.7499999999999972
 40
0.8124999999999979
 40
0.8124999999999979
 40
0.8749999999999986
 40
0.8749999999999986
 40
0.9374999999999993
 40
0.9374999999999993
 40
1.0
 40
1.0
 40
1.0
 40
1.0
 10
151.8650610357073
 20
86.010659437602
 30
0.0
 10
151.486656331656
 20
85.92850252069647
 30
0.0
 10
151.0984548404403
 20
85.8449281118519
 30
0.0
 10
150.3311947596662
 20
85.68099120832449
 30
0.0
 10
149.9479847543503
 20
85.5997482225779
 30
0.0
 10
148.8009071117909
 20
85.35850248688084
 30
0.0
 10
148.0400591628945
 20
85.20108205275015
 30
0.0
 10
146.5355777793264
 20
84.89530014756477
 30
0.0
 10
145.7916210145612
 20
84.74681948508295
 30
0.0
 10
144.3312228171229
 20
84.46121769917906
 30
0.0
 10
143.6172859784268
 20
84.32439029940986
 30
0.0
 10
142.1947807563891
 20
84.05802529064404
 30
0.0
 10
141.4894011083262
 20
83.92901232492869
 30
0.0
 10
140.1010989322893
 20
83.68200551101074
 30
0.0
 10
139.4190511541729
 20
83.56401176241745
 30
0.0
 10
138.1024242091818
 20
83.34366882462133
 30
0.0
 10
137.4656678457614
 20
83.24082046518161
 30
0.0
 10
136.2417222430363
 20
83.05026867650503
 30
0.0
 10
135.6515298233244
 20
82.96229935071715
 30
0.0
 10
134.5060044349532
 20
82.79957775214694
 30
0.0
 10
133.9521808816828
 20
82.72508585194416
 30
0.0
 10
132.8869348776125
 20
82.5909155258772
 30
0.0
 10
132.3784476517502
 20
82.53160632581721
 30
0.0
 10
130.94288650656
 20
82.37912558077682
 30
0.0
 10
130.0999155740249
 20
82.31075362382708
 30
0.0
 10
129.0296906237333
 20
82.25844476410238
 30
0.0
 10
128.7036536640568
 20
82.24930342604131
 30
0.0
 10
128.1200425284134
 20
82.24750307208275
 30
0.0
 10
127.8616207056016
 20
82.25488936046003
 30
0.0
 10
127.4072857985548
 20
82.28583659371905
 30
0.0
 10
127.2116382160276
 20
82.30956588214586
 30
0.0
 10
126.8844392545546
 20
82.37498748358007
 30
0.0
 10
126.7535007804981
 20
82.4167764232035
 30
0.0
 10
126.6603149956043
 20
82.46833134889997
 30
0.0
  0
SPLINE
  5
1BA
330
1F
100
AcDbEntity
  8
0
  6
HIDDEN
 62
     7
370
    18
100
AcDbSpline
210
0.0
220
0.0
230
1.0
 70
     8
 71
     3
 72
     8
 73
     4
 74
     0
 42
0.00000001
 43
0.00000001
 40
0.0
 40
0.0
 40
0.0
 40
0.0
 40
1.0
 40
1.0
 40
1.0
 40
1.0
 10
126.6603149956044
 20
82.46833134889991
 30
0.0
 10
126.6010406051828
 20
82.50158284168913
 30
0.0
 10
126.5574212741025
 20
82.53519941244228
 30
0.0
 10
126.5298276545254
 20
82.5676638120823
 30
0.0
  0
SPLINE
  5
1BB
330
1F
100
AcDbEntity
  8
0
  6
HIDDEN
 62
     7
370
    18
100
AcDbSpline
210
0.0
220
0.0
230
1.0
 70
     8
 71
     3
 72
     8
 73
     4
 74
     0
 42
0.00000001
 43
0.00000001
 40
0.0
 40
0.0
 40
0.0
 40
0.0
 40
1.0
 40
1.0
 40
1.0
 40
1.0
 10
146.8462760492434
 20
62.25121541736442
 30
0.0
 10
146.8462752821806
 20
62.25707946138922
 30
0.0
 10
146.8497469274151
 20
62.26292255333657
 30
0.0
 10
146.8567740382195
 20
62.26874608240415
 30
0.0
  0
SPLINE
  5
1BC
330
1F
100
AcDbEntity
  8
0
  6
HIDDEN
 62
     7
370
    18
100
AcDbSpline
210
0.0
220
0.0
230
1.0
 70
     8
 71
     3
 72
     8
 73
     4
 74
     0
 42
0.00000001
 43
0.00000001
 40
0.0
 40
0.0
 40
0.0
 40
0.0
 40
1.0
 40
1.0
 40
1.0
 40
1.0
 10
287.1627244439613
 20
82.56766381208216
 30
0.0
 10
287.1351308243759
 20
82.53519941360288
 30
0.0
 10
287.0915114932985
 20
82.50158284229622
 30
0.0
 10
287.0322371028824
 20
82.4683313489
 30
0.0
  0
SPLINE
  5
1BD
330
1F
100
AcDbEntity
  8
0
  6
HIDDEN
 62
     7
370
    18
100
AcDbSpline
210
0.0
220
0.0
230
1.0
 70
     8
 71
     3
 72
     8
 73
     4
 74
     0
 42
0.00000001
 43
0.00000001
 40
0.0
 40
0.0
 40
0.0
 40
0.0
 40
1.0
 40
1.0
 40
1.0
 40
1.0
 10
266.8357780602724
 20
62.26874608240413
 30
0.0
 10
266.8428051711513
 20
62.26292255334467
 30
0.0
 10
266.8462768164961
 20
62.2570794613834
 30
0.0
 10
266.846276049243
 20
62.25121541736451
 30
0.0
  0
SPLINE
  5
1BE
330
1F
100
AcDbEntity
  8
0
  6
HIDDEN
 62
     7
370
    18
100
AcDbSpline
210
0.0
220
0.0
230
1.0
 70
     8
 71
     3
 72
    38
 73
    34
 74
     0
 42
0.00000001
 43
0.00000001
 40
0.0
 40
0.0
 40
0.0
 40
0.0
 40
0.0156250000000007
 40
0.0156250000000007
 40
0.0312500000000014
 40
0.0312500000000014
 40
0.0625000000000026
 40
0.0625000000000026
 40
0.125000000000003
 40
0.125000000000003
 40
0.1875000000000034
 40
0.1875000000000034
 40
0.2500000000000038
 40
0.2500000000000038
 40
0.3750000000000037
 40
0.3750000000000037
 40
0.4375000000000037
 40
0.4375000000000037
 40
0.5000000000000037
 40
0.5000000000000037
 40
0.6250000000000051
 40
0.6250000000000051
 40
0.6875000000000042
 40
0.6875000000000042
 40
0.7500000000000034
 40
0.7500000000000034
 40
0.8125000000000026
 40
0.8125000000000026
 40
0.8750000000000018
 40
0.8750000000000018
 40
0.9375000000000009
 40
0.9375000000000009
 40
1.0
 40
1.0
 40
1.0
 40
1.0
 10
152.2080722428466
 20
412.4860924725954
 30
0.0
 10
152.1613715938084
 20
412.6788822946939
 30
0.0
 10
152.1136219166355
 20
412.8763971115046
 30
0.0
 10
152.0190065021569
 20
413.2678120976235
 30
0.0
 10
151.9717238376597
 20
413.4635549799316
 30
0.0
 10
151.8299438913391
 20
414.0509908145766
 30
0.0
 10
151.7355289575776
 20
414.4427130089478
 30
0.0
 10
151.4530758262935
 20
415.6164246374988
 30
0.0
 10
151.2655823414977
 20
416.3979138336981
 30
0.0
 10
150.8965718407287
 20
417.9426820760993
 30
0.0
 10
150.715113053111
 20
418.7052884413706
 30
0.0
 10
150.3620892194866
 20
420.1972387121054
 30
0.0
 10
150.1910383801143
 20
420.92354009158
 30
0.0
 10
149.6854270695155
 20
423.0858677969638
 30
0.0
 10
149.3610097840684
 20
424.4920452885451
 30
0.0
 10
148.9079369812611
 20
426.4919422808415
 30
0.0
 10
148.7622045282397
 20
427.1417408583525
 30
0.0
 10
148.4876119053359
 20
428.379442289935
 30
0.0
 10
148.3583385257284
 20
428.9696635978375
 30
0.0
 10
147.989385576329
 20
430.6749306939957
 30
0.0
 10
147.7712156799391
 20
431.7157781252695
 30
0.0
 10
147.488040022568
 20
433.120896294147
 30
0.0
 10
147.4014589483286
 20
433.561186531098
 30
0.0
 10
147.2468610345349
 20
434.3709776339704
 30
0.0
 10
147.1788114979247
 20
434.7405244411214
 30
0.0
 10
147.0611059502872
 20
435.4069829480792
 30
0.0
 10
147.0110792117712
 20
435.7060168574418
 30
0.0
 10
146.9288469962125
 20
436.2351588792799
 30
0.0
 10
146.8968026516418
 20
436.4635241335491
 30
0.0
 10
146.8509994857304
 20
436.8473377302874
 30
0.0
 10
146.8371497018022
 20
437.003397992456
 30
0.0
 10
146.8276169147175
 20
437.2440916921918
 30
0.0
 10
146.832029088141
 20
437.3283089759657
 30
0.0
 10
146.846626799486
 20
437.3725674479933
 30
0.0
  0
SPLINE
  5
1BF
330
1F
100
AcDbEntity
  8
0
  6
HIDDEN
 62
     7
370
    18
100
AcDbSpline
210
0.0
220
0.0
230
1.0
 70
     8
 71
     3
 72
    38
 73
    34
 74
     0
 42
0.00000001
 43
0.00000001
 40
0.0
 40
0.0
 40
0.0
 40
0.0
 40
0.0625000000000005
 40
0.0625000000000005
 40
0.1250000000000009
 40
0.1250000000000009
 40
0.1875000000000014
 40
0.1875000000000014
 40
0.2500000000000019
 40
0.2500000000000019
 40
0.3125000000000023
 40
0.3125000000000023
 40
0.3750000000000028
 40
0.3750000000000028
 40
0.5000000000000026
 40
0.5000000000000026
 40
0.5625000000000032
 40
0.5625000000000032
 40
0.6250000000000038
 40
0.6250000000000038
 40
0.7500000000000022
 40
0.7500000000000022
 40
0.8125000000000018
 40
0.8125000000000018
 40
0.8750000000000013
 40
0.8750000000000013
 40
0.937500000000001
 40
0.937500000000001
 40
0.9687500000000016
 40
0.9687500000000016
 40
0.9843750000000008
 40
0.9843750000000008
 40
1.0
 40
1.0
 40
1.0
 40
1.0
 10
266.8459252989983
 20
437.3725674479933
 30
0.0
 10
266.8605230106846
 20
437.3283089759668
 30
0.0
 10
266.8649351837124
 20
437.2440916921748
 30
0.0
 10
266.8554023966633
 20
437.003397992458
 30
0.0
 10
266.8415526122499
 20
436.8473377302909
 30
0.0
 10
266.7957494464115
 20
436.4635241335469
 30
0.0
 10
266.7637051020062
 20
436.2351588792879
 30
0.0
 10
266.6814728868624
 20
435.7060168574126
 30
0.0
 10
266.6314461480845
 20
435.4069829481243
 30
0.0
 10
266.5137406004776
 20
434.74052444119
 30
0.0
 10
266.4456910640276
 20
434.370977633989
 30
0.0
 10
266.2910931499615
 20
433.5611865311195
 30
0.0
 10
266.2045120762708
 20
433.120896294154
 30
0.0
 10
265.9213364176635
 20
431.7157781254552
 30
0.0
 10
265.7031665221625
 20
430.674930694109
 30
0.0
 10
265.3342135731272
 20
428.9696635979728
 30
0.0
 10
265.204940192954
 20
428.3794422900344
 30
0.0
 10
264.930347570282
 20
427.1417408583717
 30
0.0
 10
264.784615118291
 20
426.4919422806595
 30
0.0
 10
264.331542311912
 20
424.4920452893591
 30
0.0
 10
264.0071250302744
 20
423.0858677969721
 30
0.0
 10
263.5015137171465
 20
420.9235400922204
 30
0.0
 10
263.3304628791657
 20
420.1972387117795
 30
0.0
 10
262.9774390470254
 20
418.7052884398917
 30
0.0
 10
262.7959802586779
 20
417.9426820746639
 30
0.0
 10
262.4269697571025
 20
416.3979138336221
 30
0.0
 10
262.2394762712302
 20
415.6164246387426
 30
0.0
 10
261.9570231408176
 20
414.4427130089612
 30
0.0
 10
261.8626082082478
 20
414.0509908131588
 30
0.0
 10
261.7208282610165
 20
413.46355497983
 30
0.0
 10
261.6735455954633
 20
413.2678120980216
 30
0.0
 10
261.5789301822316
 20
412.8763971112955
 30
0.0
 10
261.5311810235155
 20
412.6788821685238
 30
0.0
 10
261.4844798541058
 20
412.4860924729829
 30
0.0
  0
SPLINE
  5
1C0
330
1F
100
AcDbEntity
  8
0
  6
HIDDEN
 62
     7
370
    18
100
AcDbSpline
210
0.0
220
0.0
230
1.0
 70
     8
 71
     3
 72
    22
 73
    18
 74
     0
 42
0.00000001
 43
0.00000001
 40
0.0
 40
0.0
 40
0.0
 40
0.0
 40
0.125
 40
0.125
 40
0.25
 40
0.25
 40
0.375
 40
0.375
 40
0.5
 40
0.5
 40
0.625
 40
0.625
 40
0.75
 40
0.75
 40
0.875
 40
0.875
 40
1.0
 40
1.0
 40
1.0
 40
1.0
 10
266.8459252474943
 20
437.372567604149
 30
0.0
 10
268.1388547784603
 20
437.3684461498614
 30
0.0
 10
269.4310734820782
 20
437.2374587754912
 30
0.0
 10
271.9672464742218
 20
436.7264188783441
 30
0.0
 10
273.2101348546384
 20
436.3465567415704
 30
0.0
 10
275.6000058558575
 20
435.3517861886269
 30
0.0
 10
276.7459982111164
 20
434.7372854651288
 30
0.0
 10
278.8979906152798
 20
433.2964048883712
 30
0.0
 10
279.9030973005081
 20
432.4706233374965
 30
0.0
 10
281.7345829297454
 20
430.6386285166674
 30
0.0
 10
282.5602068935638
 20
429.633181233952
 30
0.0
 10
284.0009585120459
 20
427.4803405207301
 30
0.0
 10
284.6154950331569
 20
426.3338414280061
 30
0.0
 10
285.6105335061707
 20
423.942827038032
 30
0.0
 10
285.9906336644422
 20
422.6992996180222
 30
0.0
 10
286.5023802853902
 20
420.1617908464476
 30
0.0
 10
286.6338258684196
 20
418.8688290047077
 30
0.0
 10
286.6386218065592
 20
417.5753400622854
 30
0.0
  0
LINE
  5
1C1
330
1F
100
AcDbEntity
  8
0
  6
HIDDEN
 62
     7
370
    18
100
AcDbLine
 10
266.8462760492
 20
437.3759069783
 30
0.0
 11
266.8462760492
 21
437.3725676041
 31
0.0
  0
SPLINE
  5
1C2
330
1F
100
AcDbEntity
  8
0
  6
HIDDEN
 62
     7
370
    18
100
AcDbSpline
210
0.0
220
0.0
230
1.0
 70
     8
 71
     3
 72
     8
 73
     4
 74
     0
 42
0.00000001
 43
0.00000001
 40
0.0
 40
0.0
 40
0.0
 40
0.0
 40
1.0
 40
1.0
 40
1.0
 40
1.0
 10
146.8466268509902
 20
437.3725676041491
 30
0.0
 10
146.8463929261239
 20
437.3736803470595
 30
0.0
 10
146.8462759005898
 20
437.3747934678667
 30
0.0
 10
146.8462760492431
 20
437.375906978316
 30
0.0
  0
SPLINE
  5
1C3
330
1F
100
AcDbEntity
  8
0
  6
HIDDEN
 62
     7
370
    18
100
AcDbSpline
210
0.0
220
0.0
230
1.0
 70
     8
 71
     3
 72
     8
 73
     4
 74
     0
 42
0.00000001
 43
0.00000001
 40
0.0
 40
0.0
 40
0.0
 40
0.0
 40
1.0
 40
1.0
 40
1.0
 40
1.0
 10
286.6386218065592
 20
417.5753400622854
 30
0.0
 10
286.6444077341548
 20
417.5727018994305
 30
0.0
 10
286.6497073111169
 20
417.570058184194
 30
0.0
 10
286.6545192154769
 20
417.5676638120822
 30
0.0
  0
SPLINE
  5
1C4
330
1F
100
AcDbEntity
  8
0
  6
HIDDEN
 62
     7
370
    18
100
AcDbSpline
210
0.0
220
0.0
230
1.0
 70
     8
 71
     3
 72
    34
 73
    30
 74
     0
 42
0.00000001
 43
0.00000001
 40
0.0
 40
0.0
 40
0.0
 40
0.0
 40
0.0138391061380338
 40
0.0270597644496663
 40
0.0396619467457233
 40
0.0516456268271358
 40
0.0630107804137045
 40
0.0737573850814921
 40
0.0838854202103982
 40
0.0933948669440931
 40
0.1022857081656034
 40
0.1105579284935253
 40
0.1182115143065729
 40
0.1252464538090889
 40
0.1909460009842564
 40
0.2495190624441468
 40
0.3140234726325669
 40
0.374559971817449
 40
0.438276553281886
 40
0.4994066390438581
 40
0.6273212251823415
 40
0.7496766434992511
 40
0.8121730954699184
 40
0.8738929912105506
 40
0.8991205856971033
 40
0.9243430428864058
 40
0.9495624051480324
 40
0.9747807120914468
 40
1.0
 40
1.0
 40
1.0
 40
1.0
 10
261.4844798546686
 20
412.4860924728447
 30
0.0
 10
261.6585626470339
 20
412.5279929276041
 30
0.0
 10
261.9989487463351
 20
412.6099213718848
 30
0.0
 10
262.4973893334956
 20
412.7294604885927
 30
0.0
 10
262.9719829099049
 20
412.843032927202
 30
0.0
 10
263.4226412329024
 20
412.9506462100196
 30
0.0
 10
263.8493399741967
 20
413.05235225407
 30
0.0
 10
264.2520835752879
 20
413.148189310974
 30
0.0
 10
264.6309073154614
 20
413.2381964299093
 30
0.0
 10
264.9858703670926
 20
413.3224095800131
 30
0.0
 10
265.3170518681166
 20
413.4008634633679
 30
0.0
 10
265.6245451880473
 20
413.4735880886977
 30
0.0
 10
265.9084577994893
 20
413.5406195411509
 30
0.0
 10
266.9004583573309
 20
413.7742818245021
 30
0.0
 10
268.5048821805859
 20
414.1486499947224
 30
0.0
 10
270.7489490262949
 20
414.66451750972
 30
0.0
 10
272.8568857821177
 20
415.139190342908
 30
0.0
 10
274.9259223400023
 20
415.5949358287186
 30
0.0
 10
276.8464197924181
 20
416.0061884240605
 30
0.0
 10
279.2869333509862
 20
416.5122863799818
 30
0.0
 10
281.9274489142016
 20
417.0238035460462
 30
0.0
 10
283.9776901695933
 20
417.3702221492983
 30
0.0
 10
285.196050741755
 20
417.536763374139
 30
0.0
 10
285.7664056254284
 20
417.5943254876447
 30
0.0
 10
286.1025657998173
 20
417.614058933555
 30
0.0
 10
286.2933443057581
 20
417.6183091072341
 30
0.0
 10
286.4468418961157
 20
417.6133314669522
 30
0.0
 10
286.5662052088318
 20
417.5999937259065
 30
0.0
 10
286.6144826276662
 20
417.583558056711
 30
0.0
 10
286.6386218065592
 20
417.5753400622838
 30
0.0
  0
SPLINE
  5
1C5
330
1F
100
AcDbEntity
  8
0
  6
HIDDEN
 62
     7
370
    18
100
AcDbSpline
210
0.0
220
0.0
230
1.0
 70
     8
 71
     3
 72
     8
 73
     4
 74
     0
 42
0.00000001
 43
0.00000001
 40
0.0
 40
0.0
 40
0.0
 40
0.0
 40
1.0
 40
1.0
 40
1.0
 40
1.0
 10
127.0380328830094
 20
417.5676638120822
 30
0.0
 10
127.0428416125087
 20
417.5702226904986
 30
0.0
 10
127.0481408497908
 20
417.5727815040156
 30
0.0
 10
127.0539302919272
 20
417.5753400622848
 30
0.0
  0
SPLINE
  5
1C6
330
1F
100
AcDbEntity
  8
0
  6
HIDDEN
 62
     7
370
    18
100
AcDbSpline
210
0.0
220
0.0
230
1.0
 70
     8
 71
     3
 72
    33
 73
    29
 74
     0
 42
0.00000001
 43
0.00000001
 40
0.0
 40
0.0
 40
0.0
 40
0.0
 40
0.012610691159701
 40
0.0252208328851125
 40
0.0378306793459227
 40
0.0504404849571575
 40
0.0630505043622887
 40
0.075660992415894
 40
0.0882722041662513
 40
0.1008843948374176
 40
0.1134978198111417
 40
0.126112734608517
 40
0.1878337525902527
 40
0.2503288184538748
 40
0.3726851579395354
 40
0.5005982915014022
 40
0.5617294827635725
 40
0.6254446935836935
 40
0.685982400796777
 40
0.7504853374751992
 40
0.8090595894379126
 40
0.874757682407862
 40
0.889461686257246
 40
0.9066338171101066
 40
0.9262739197225652
 40
0.9483818053564625
 40
0.9729572514128277
 40
1.0
 40
1.0
 40
1.0
 40
1.0
 10
127.0539302919272
 20
417.5753400622831
 30
0.0
 10
127.0651069726071
 20
417.5796627268163
 30
0.0
 10
127.087459847011
 20
417.5883078675486
 30
0.0
 10
127.132743414412
 20
417.5984541994496
 30
0.0
 10
127.1866075183262
 20
417.6065252286022
 30
0.0
 10
127.2498748410844
 20
417.612311620212
 30
0.0
 10
127.3222933492317
 20
417.6158601449849
 30
0.0
 10
127.4038946800034
 20
417.6171489881988
 30
0.0
 10
127.4946306155749
 20
417.6161746983727
 30
0.0
 10
127.5944688954005
 20
417.6129290995949
 30
0.0
 10
127.7033735830945
 20
417.6074047126119
 30
0.0
 10
127.9742831233343
 20
417.589464511743
 30
0.0
 10
128.4965083499232
 20
417.5367637387237
 30
0.0
 10
129.7148751266163
 20
417.3702194042781
 30
0.0
 10
131.7651127097093
 20
417.0238018732627
 30
0.0
 10
134.40564051012
 20
416.5122820650494
 30
0.0
 10
136.8461448457
 20
416.0061856656238
 30
0.0
 10
138.7666568847203
 20
415.5949302410328
 30
0.0
 10
140.8356822937153
 20
415.1391857164148
 30
0.0
 10
142.9436307824528
 20
414.6645153715467
 30
0.0
 10
145.1876972983654
 20
414.1486290115844
 30
0.0
 10
146.8857848077328
 20
413.7524616159328
 30
0.0
 10
148.091173307781
 20
413.4681856790842
 30
0.0
 10
148.730251700691
 20
413.3168793275775
 30
0.0
 10
149.4642245476535
 20
413.1426179414681
 30
0.0
 10
150.2936651648089
 20
412.9450637346606
 30
0.0
 10
151.2186613942051
 20
412.7240366905177
 30
0.0
 10
151.8679239089955
 20
412.5678950217558
 30
0.0
 10
152.2080722438182
 20
412.4860924728393
 30
0.0
  0
SPLINE
  5
1C7
330
1F
100
AcDbEntity
  8
0
  6
HIDDEN
 62
     7
370
    18
100
AcDbSpline
210
0.0
220
0.0
230
1.0
 70
     8
 71
     3
 72
    10
 73
     6
 74
     0
 42
0.00000001
 43
0.00000001
 40
0.0
 40
0.0
 40
0.0
 40
0.0
 40
0.5
 40
0.5
 40
1.0
 40
1.0
 40
1.0
 40
1.0
 10
151.8650610357499
 20
86.0106594374147
 30
0.0
 10
170.1907140366756
 20
86.02062961603232
 30
0.0
 10
188.5181926389114
 20
86.02529215482797
 30
0.0
 10
225.1748582104252
 20
86.02529206837575
 30
0.0
 10
243.5018398816348
 20
86.0206296150422
 30
0.0
 10
261.8274910627369
 20
86.01065943741473
 30
0.0
  0
SPLINE
  5
1C8
330
1F
100
AcDbEntity
  8
0
  6
HIDDEN
 62
     7
370
    18
100
AcDbSpline
210
0.0
220
0.0
230
1.0
 70
     8
 71
     3
 72
    14
 73
    10
 74
     0
 42
0.00000001
 43
0.00000001
 40
0.0
 40
0.0
 40
0.0
 40
0.0
 40
0.5
 40
0.5
 40
0.75
 40
0.75
 40
0.875
 40
0.875
 40
1.0
 40
1.0
 40
1.0
 40
1.0
 10
261.8274910627369
 20
86.01065943741452
 30
0.0
 10
261.7004892823501
 20
119.7609192893357
 30
0.0
 10
261.599520649617
 20
153.5457180864748
 30
0.0
 10
261.5079431010917
 20
204.249185106742
 30
0.0
 10
261.4875855748418
 20
221.1554251611772
 30
0.0
 10
261.4815737277551
 20
246.5231639578935
 30
0.0
 10
261.4837868230949
 20
254.9804794157911
 30
0.0
 10
261.4986041364328
 20
271.8982682361477
 30
0.0
 10
261.5115266868809
 20
280.3587338971379
 30
0.0
 10
261.5285476433263
 20
288.821135990476
 30
0.0
  0
SPLINE
  5
1C9
330
1F
100
AcDbEntity
  8
0
  6
HIDDEN
 62
     7
370
    18
100
AcDbSpline
210
0.0
220
0.0
230
1.0
 70
     8
 71
     3
 72
    14
 73
    10
 74
     0
 42
0.00000001
 43
0.00000001
 40
0.0
 40
0.0
 40
0.0
 40
0.0
 40
0.1249999999999999
 40
0.1249999999999999
 40
0.2499999999999999
 40
0.2499999999999999
 40
0.4999999999999999
 40
0.4999999999999999
 40
1.0
 40
1.0
 40
1.0
 40
1.0
 10
152.1640044551548
 20
288.8211359904952
 30
0.0
 10
152.1810245594646
 20
280.3591575580829
 30
0.0
 10
152.1939479556559
 20
271.8984952997109
 30
0.0
 10
152.208766114794
 20
254.9793012499383
 30
0.0
 10
152.2109791427213
 20
246.5207751611163
 30
0.0
 10
152.2049620994493
 20
221.148053382477
 30
0.0
 10
152.1845963086376
 20
204.2400273775699
 30
0.0
 10
152.0930067964996
 20
153.5363353964828
 30
0.0
 10
151.9920617550804
 20
119.7606373174658
 30
0.0
 10
151.86506103575
 20
86.01065943741456
 30
0.0
  0
SPLINE
  5
1CA
330
1F
100
AcDbEntity
  8
0
  6
HIDDEN
 62
     7
370
    18
100
AcDbSpline
210
0.0
220
0.0
230
1.0
 70
     8
 71
     3
 72
     8
 73
     4
 74
     0
 42
0.00000001
 43
0.00000001
 40
0.0
 40
0.0
 40
0.0
 40
0.0
 40
1.0
 40
1.0
 40
1.0
 40
1.0
 10
152.2080722438182
 20
412.4860924728391
 30
0.0
 10
152.2035565896805
 20
400.4308339737111
 30
0.0
 10
152.1882605500678
 20
388.3737271232497
 30
0.0
 10
152.1640044551606
 20
376.3141916336899
 30
0.0
  0
SPLINE
  5
1CB
330
1F
100
AcDbEntity
  8
0
  6
HIDDEN
 62
     7
370
    18
100
AcDbSpline
210
0.0
220
0.0
230
1.0
 70
     8
 71
     3
 72
     8
 73
     4
 74
     0
 42
0.00000001
 43
0.00000001
 40
0.0
 40
0.0
 40
0.0
 40
0.0
 40
1.0
 40
1.0
 40
1.0
 40
1.0
 10
261.5285476433326
 20
376.3141916336685
 30
0.0
 10
261.5042915484254
 20
388.3737271232354
 30
0.0
 10
261.4889955088059
 20
400.4308339737038
 30
0.0
 10
261.4844798546682
 20
412.4860924728391
 30
0.0
  0
SPLINE
  5
1CC
330
1F
100
AcDbEntity
  8
0
  6
HIDDEN
 62
     7
370
    18
100
AcDbSpline
210
0.0
220
0.0
230
1.0
 70
     8
 71
     3
 72
    12
 73
     8
 74
     0
 42
0.00000001
 43
0.00000001
 40
0.0
 40
0.0
 40
0.0
 40
0.0
 40
0.25
 40
0.25
 40
0.5
 40
0.5
 40
1.0
 40
1.0
 40
1.0
 40
1.0
 10
261.4844798546684
 20
412.4860924728388
 30
0.0
 10
252.3785885990785
 20
412.4947043938258
 30
0.0
 10
243.2713742600048
 20
412.5057810876291
 30
0.0
 10
225.0577277003197
 20
412.5237273176779
 30
0.0
 10
215.9510820453815
 20
412.5300195462399
 30
0.0
 10
188.6317193965798
 20
412.5300174649387
 30
0.0
 10
170.419590033342
 20
412.5033160644514
 30
0.0
 10
152.2080722438182
 20
412.4860924728388
 30
0.0
  0
ARC
  5
1CD
330
1F
100
AcDbEntity
  8
0
  6
HIDDEN
 62
     7
370
    18
100
AcDbCircle
 10
147.9823431634
 20
341.2212574867
 30
0.0
 40
9.172797878331366
100
AcDbArc
 50
69.7354800186
 51
73.7176071173
  0
ARC
  5
1CE
330
1F
100
AcDbEntity
  8
0
  6
HIDDEN
 62
     7
370
    18
100
AcDbCircle
 10
147.9823431637
 20
323.9140701362
 30
0.0
 40
9.172797877019962
100
AcDbArc
 50
286.2823928826
 51
290.2645199818
  0
SPLINE
  5
1CF
330
1F
100
AcDbEntity
  8
0
  6
HIDDEN
 62
     7
370
    18
100
AcDbSpline
210
0.0
220
0.0
230
1.0
 70
     8
 71
     3
 72
    16
 73
    12
 74
     0
 42
0.00000001
 43
0.00000001
 40
0.0
 40
0.0
 40
0.0
 40
0.0
 40
0.2500000000000001
 40
0.2500000000000001
 40
0.5000000000000001
 40
0.5000000000000001
 40
0.6250000000000001
 40
0.6250000000000001
 40
0.7500000000000002
 40
0.7500000000000002
 40
1.0
 40
1.0
 40
1.0
 40
1.0
 10
151.159385772807
 20
349.8262921278009
 30
0.0
 10
150.2881177185185
 20
347.0150485195046
 30
0.0
 10
149.6395992982209
 20
344.1740817322993
 30
0.0
 10
148.7697352065337
 20
338.4352191445681
 30
0.0
 10
148.5484278761873
 20
335.5373166252194
 30
0.0
 10
148.5452234262257
 20
331.1466613814233
 30
0.0
 10
148.5998110365221
 20
329.6717140040245
 30
0.0
 10
148.8188418501578
 20
326.7492368734894
 30
0.0
 10
148.9829804540138
 20
325.2973094196106
 30
0.0
 10
149.6371881214933
 20
320.9691130833419
 30
0.0
 10
150.2881210064367
 20
318.1202684958245
 30
0.0
 10
151.1593857728079
 20
315.3090354963608
 30
0.0
  0
SPLINE
  5
1D0
330
1F
100
AcDbEntity
  8
0
  6
HIDDEN
 62
     7
370
    18
100
AcDbSpline
210
0.0
220
0.0
230
1.0
 70
     8
 71
     3
 72
    18
 73
    14
 74
     0
 42
0.00000001
 43
0.00000001
 40
0.0
 40
0.0
 40
0.0
 40
0.0
 40
0.2499999999999997
 40
0.2499999999999997
 40
0.3749999999999996
 40
0.3749999999999996
 40
0.4999999999999994
 40
0.4999999999999994
 40
0.7500000000000002
 40
0.7500000000000002
 40
0.8750000000000001
 40
0.8750000000000001
 40
1.0
 40
1.0
 40
1.0
 40
1.0
 10
150.5541365149446
 20
315.1091794582101
 30
0.0
 10
149.6986483914573
 20
317.9512667078349
 30
0.0
 10
149.0577887235079
 20
320.8290267667031
 30
0.0
 10
148.412917325367
 20
325.1981771015133
 30
0.0
 10
148.2508876229427
 20
326.6633449392839
 30
0.0
 10
148.0341183599142
 20
329.6114822006671
 30
0.0
 10
147.979628907972
 20
331.0984178105913
 30
0.0
 10
147.9802541598409
 20
335.5317139247131
 30
0.0
 10
148.1964878397811
 20
338.4644085188669
 30
0.0
 10
148.8393857164373
 20
342.8297313399461
 30
0.0
 10
149.1069769925422
 20
344.2791976161755
 30
0.0
 10
149.7502784249426
 20
347.1666787619994
 30
0.0
 10
150.1263899158279
 20
348.6050961115266
 30
0.0
 10
150.5541365149434
 20
350.0261481659503
 30
0.0
  0
ARC
  5
1D1
330
1F
100
AcDbEntity
  8
0
  6
HIDDEN
 62
     7
370
    18
100
AcDbCircle
 10
265.7102089348
 20
341.2212574878
 30
0.0
 40
9.172797877223328
100
AcDbArc
 50
106.2823928826
 51
110.2645199818
  0
ARC
  5
1D2
330
1F
100
AcDbEntity
  8
0
  6
HIDDEN
 62
     7
370
    18
100
AcDbCircle
 10
265.7102089343
 20
323.9140701349
 30
0.0
 40
9.172797875588863
100
AcDbArc
 50
249.735480018
 51
253.7176071179
  0
SPLINE
  5
1D3
330
1F
100
AcDbEntity
  8
0
  6
HIDDEN
 62
     7
370
    18
100
AcDbSpline
210
0.0
220
0.0
230
1.0
 70
     8
 71
     3
 72
    16
 73
    12
 74
     0
 42
0.00000001
 43
0.00000001
 40
0.0
 40
0.0
 40
0.0
 40
0.0
 40
0.2500000000000001
 40
0.2500000000000001
 40
0.5000000000000001
 40
0.5000000000000001
 40
0.6250000000000001
 40
0.6250000000000001
 40
0.7500000000000002
 40
0.7500000000000002
 40
1.0
 40
1.0
 40
1.0
 40
1.0
 10
262.5331663256852
 20
315.3090354963821
 30
0.0
 10
263.4044343799723
 20
318.1202791046771
 30
0.0
 10
264.0529528002687
 20
320.961245891881
 30
0.0
 10
264.922816891954
 20
326.7001084796092
 30
0.0
 10
265.1441242222996
 20
329.5980109989564
 30
0.0
 10
265.1473286722605
 20
333.9886662427499
 30
0.0
 10
265.092741061964
 20
335.4636136201479
 30
0.0
 10
264.873710248328
 20
338.3860907506814
 30
0.0
 10
264.709571644472
 20
339.8380182045594
 30
0.0
 10
264.0553639769925
 20
344.1662145408258
 30
0.0
 10
263.4044310920494
 20
347.0150591283415
 30
0.0
 10
262.5331663256787
 20
349.8262921278036
 30
0.0
  0
SPLINE
  5
1D4
330
1F
100
AcDbEntity
  8
0
  6
HIDDEN
 62
     7
370
    18
100
AcDbSpline
210
0.0
220
0.0
230
1.0
 70
     8
 71
     3
 72
    18
 73
    14
 74
     0
 42
0.00000001
 43
0.00000001
 40
0.0
 40
0.0
 40
0.0
 40
0.0
 40
0.2500000000000006
 40
0.2500000000000006
 40
0.3750000000000003
 40
0.3750000000000003
 40
0.5
 40
0.5
 40
0.7499999999999994
 40
0.7499999999999994
 40
0.8749999999999997
 40
0.8749999999999997
 40
1.0
 40
1.0
 40
1.0
 40
1.0
 10
263.1384155835419
 20
350.0261481659545
 30
0.0
 10
263.9939037070287
 20
347.1840609163311
 30
0.0
 10
264.6347633749779
 20
344.3063008574645
 30
0.0
 10
265.2796347731188
 20
339.9371505226567
 30
0.0
 10
265.4416644755432
 20
338.4719826848868
 30
0.0
 10
265.6584337385719
 20
335.5238454235053
 30
0.0
 10
265.7129231905143
 20
334.0369098135818
 30
0.0
 10
265.7122979386461
 20
329.6036136994625
 30
0.0
 10
265.4960642587067
 20
326.6709191053104
 30
0.0
 10
264.8531663820518
 20
322.3055962842336
 30
0.0
 10
264.5855751059474
 20
320.8561300080051
 30
0.0
 10
263.9422736735482
 20
317.9686488621826
 30
0.0
 10
263.5661621826636
 20
316.530231512656
 30
0.0
 10
263.1384155835488
 20
315.109179458233
 30
0.0
  0
ARC
  5
1D5
330
1F
100
AcDbEntity
  8
0
  6
HIDDEN
 62
     7
370
    18
100
AcDbCircle
 10
206.8462760492
 20
332.5676638121
 30
0.0
 40
70.02791959736192
100
AcDbArc
 50
38.6602622186
 51
141.3397377814
  0
SPLINE
  5
1D6
330
1F
100
AcDbEntity
  8
0
  6
HIDDEN
 62
     7
370
    18
100
AcDbSpline
210
0.0
220
0.0
230
1.0
 70
     8
 71
     3
 72
     8
 73
     4
 74
     0
 42
0.00000001
 43
0.00000001
 40
0.0
 40
0.0
 40
0.0
 40
0.0
 40
1.0
 40
1.0
 40
1.0
 40
1.0
 10
261.6418137652656
 20
354.3751612565854
 30
0.0
 10
261.6082734814893
 20
361.688814172852
 30
0.0
 10
261.566295682302
 20
369.0017064347795
 30
0.0
 10
261.5285476433264
 20
376.3141916336684
 30
0.0
  0
SPLINE
  5
1D7
330
1F
100
AcDbEntity
  8
0
  6
HIDDEN
 62
     7
370
    18
100
AcDbSpline
210
0.0
220
0.0
230
1.0
 70
     8
 71
     3
 72
     8
 73
     4
 74
     0
 42
0.00000001
 43
0.00000001
 40
0.0
 40
0.0
 40
0.0
 40
0.0
 40
1.0
 40
1.0
 40
1.0
 40
1.0
 10
152.1640044551714
 20
376.31419163369
 30
0.0
 10
152.1262565247883
 20
369.0017274711534
 30
0.0
 10
152.0842784575394
 20
361.6887794021655
 30
0.0
 10
152.0507383332211
 20
354.3751612566146
 30
0.0
  0
ARC
  5
1D8
330
1F
100
AcDbEntity
  8
0
  6
HIDDEN
 62
     7
370
    18
100
AcDbCircle
 10
206.8462760492
 20
332.5676638121
 30
0.0
 40
70.02791959736187
100
AcDbArc
 50
218.6602622186
 51
321.3397377814
  0
SPLINE
  5
1D9
330
1F
100
AcDbEntity
  8
0
  6
HIDDEN
 62
     7
370
    18
100
AcDbSpline
210
0.0
220
0.0
230
1.0
 70
     8
 71
     3
 72
     8
 73
     4
 74
     0
 42
0.00000001
 43
0.00000001
 40
0.0
 40
0.0
 40
0.0
 40
0.0
 40
1.0
 40
1.0
 40
1.0
 40
1.0
 10
152.0507383332209
 20
310.7601663675791
 30
0.0
 10
152.0842786169971
 20
303.4465134513123
 30
0.0
 10
152.1262564161848
 20
296.1336211893845
 30
0.0
 10
152.1640044551605
 20
288.8211359904952
 30
0.0
  0
SPLINE
  5
1DA
330
1F
100
AcDbEntity
  8
0
  6
HIDDEN
 62
     7
370
    18
100
AcDbSpline
210
0.0
220
0.0
230
1.0
 70
     8
 71
     3
 72
     8
 73
     4
 74
     0
 42
0.00000001
 43
0.00000001
 40
0.0
 40
0.0
 40
0.0
 40
0.0
 40
1.0
 40
1.0
 40
1.0
 40
1.0
 10
261.5285476433168
 20
288.821135990476
 30
0.0
 10
261.5662955736999
 20
296.1336001530218
 30
0.0
 10
261.6082736409472
 20
303.4465482220189
 30
0.0
 10
261.6418137652656
 20
310.760166367579
 30
0.0
  0
SPLINE
  5
1DB
330
1F
100
AcDbEntity
  8
0
  6
HIDDEN
 62
     7
370
    18
100
AcDbSpline
210
0.0
220
0.0
230
1.0
 70
     8
 71
     3
 72
     8
 73
     4
 74
     0
 42
0.00000001
 43
0.00000001
 40
0.0
 40
0.0
 40
0.0
 40
0.0
 40
1.0
 40
1.0
 40
1.0
 40
1.0
 10
152.6784260435597
 20
354.1253544528199
 30
0.0
 10
152.1159479131378
 20
352.7120198100733
 30
0.0
 10
151.609620434885
 20
351.279024509954
 30
0.0
 10
151.159385772807
 20
349.8262921278009
 30
0.0
  0
SPLINE
  5
1DC
330
1F
100
AcDbEntity
  8
0
  6
HIDDEN
 62
     7
370
    18
100
AcDbSpline
210
0.0
220
0.0
230
1.0
 70
     8
 71
     3
 72
     8
 73
     4
 74
     0
 42
0.00000001
 43
0.00000001
 40
0.0
 40
0.0
 40
0.0
 40
0.0
 40
1.0
 40
1.0
 40
1.0
 40
1.0
 10
150.5541365149438
 20
350.0261481659502
 30
0.0
 10
150.997445806741
 20
351.4948333192683
 30
0.0
 10
151.4962268519198
 20
352.9445045952316
 30
0.0
 10
152.0507383332317
 20
354.3751612566131
 30
0.0
  0
SPLINE
  5
1DD
330
1F
100
AcDbEntity
  8
0
  6
HIDDEN
 62
     7
370
    18
100
AcDbSpline
210
0.0
220
0.0
230
1.0
 70
     8
 71
     3
 72
     8
 73
     4
 74
     0
 42
0.00000001
 43
0.00000001
 40
0.0
 40
0.0
 40
0.0
 40
0.0
 40
1.0
 40
1.0
 40
1.0
 40
1.0
 10
261.0141260549374
 20
311.0099731713715
 30
0.0
 10
261.5766041853574
 20
312.4233078141154
 30
0.0
 10
262.0829316636086
 20
313.8563031142319
 30
0.0
 10
262.5331663256852
 20
315.3090354963821
 30
0.0
  0
SPLINE
  5
1DE
330
1F
100
AcDbEntity
  8
0
  6
HIDDEN
 62
     7
370
    18
100
AcDbSpline
210
0.0
220
0.0
230
1.0
 70
     8
 71
     3
 72
     8
 73
     4
 74
     0
 42
0.00000001
 43
0.00000001
 40
0.0
 40
0.0
 40
0.0
 40
0.0
 40
1.0
 40
1.0
 40
1.0
 40
1.0
 10
263.1384155835484
 20
315.1091794582331
 30
0.0
 10
262.6951062917527
 20
313.640494304918
 30
0.0
 10
262.1963252465756
 20
312.1908230289577
 30
0.0
 10
261.6418137652655
 20
310.760166367579
 30
0.0
  0
SPLINE
  5
1DF
330
1F
100
AcDbEntity
  8
0
  6
HIDDEN
 62
     7
370
    18
100
AcDbSpline
210
0.0
220
0.0
230
1.0
 70
     8
 71
     3
 72
     8
 73
     4
 74
     0
 42
0.00000001
 43
0.00000001
 40
0.0
 40
0.0
 40
0.0
 40
0.0
 40
1.0
 40
1.0
 40
1.0
 40
1.0
 10
262.5331663256787
 20
349.8262921278036
 30
0.0
 10
262.0829316636037
 20
351.2790245099465
 30
0.0
 10
261.5766041853547
 20
352.7120198100559
 30
0.0
 10
261.0141260549374
 20
354.125354452793
 30
0.0
  0
SPLINE
  5
1E0
330
1F
100
AcDbEntity
  8
0
  6
HIDDEN
 62
     7
370
    18
100
AcDbSpline
210
0.0
220
0.0
230
1.0
 70
     8
 71
     3
 72
     8
 73
     4
 74
     0
 42
0.00000001
 43
0.00000001
 40
0.0
 40
0.0
 40
0.0
 40
0.0
 40
1.0
 40
1.0
 40
1.0
 40
1.0
 10
261.6418137652656
 20
354.3751612565854
 30
0.0
 10
262.1963252465727
 20
352.9445045952142
 30
0.0
 10
262.6951062917478
 20
351.4948333192617
 30
0.0
 10
263.1384155835419
 20
350.0261481659544
 30
0.0
  0
SPLINE
  5
1E1
330
1F
100
AcDbEntity
  8
0
  6
HIDDEN
 62
     7
370
    18
100
AcDbSpline
210
0.0
220
0.0
230
1.0
 70
     8
 71
     3
 72
     8
 73
     4
 74
     0
 42
0.00000001
 43
0.00000001
 40
0.0
 40
0.0
 40
0.0
 40
0.0
 40
1.0
 40
1.0
 40
1.0
 40
1.0
 10
151.1593857728079
 20
315.3090354963608
 30
0.0
 10
151.6096204348828
 20
313.856303114218
 30
0.0
 10
152.1159479131317
 20
312.4233078141086
 30
0.0
 10
152.678426043549
 20
311.0099731713716
 30
0.0
  0
SPLINE
  5
1E2
330
1F
100
AcDbEntity
  8
0
  6
HIDDEN
 62
     7
370
    18
100
AcDbSpline
210
0.0
220
0.0
230
1.0
 70
     8
 71
     3
 72
     8
 73
     4
 74
     0
 42
0.00000001
 43
0.00000001
 40
0.0
 40
0.0
 40
0.0
 40
0.0
 40
1.0
 40
1.0
 40
1.0
 40
1.0
 10
152.0507383332209
 20
310.7601663675791
 30
0.0
 10
151.4962268519138
 20
312.1908230289504
 30
0.0
 10
150.9974458067386
 20
313.6404943049028
 30
0.0
 10
150.5541365149446
 20
315.1091794582101
 30
0.0
  0
LINE
  5
1E3
330
1F
100
AcDbEntity
  8
0
  6
HIDDEN
 62
     7
370
    18
100
AcDbLine
 10
261.0141260549
 20
354.1253544528
 30
0.0
 11
261.6418137653
 21
354.3751612566
 31
0.0
  0
LINE
  5
1E4
330
1F
100
AcDbEntity
  8
0
  6
HIDDEN
 62
     7
370
    18
100
AcDbLine
 10
152.6784260436
 20
354.1253544528
 30
0.0
 11
152.0507383332
 21
354.3751612566
 31
0.0
  0
ARC
  5
1E5
330
1F
100
AcDbEntity
  8
0
  6
HIDDEN
 62
     7
370
    18
100
AcDbCircle
 10
206.8462760492
 20
332.5676638121
 30
0.0
 40
58.97557035231344
100
AcDbArc
 50
21.7015386848
 51
158.2984613152
  0
ARC
  5
1E6
330
1F
100
AcDbEntity
  8
0
  6
HIDDEN
 62
     7
370
    18
100
AcDbCircle
 10
206.8462760492
 20
332.5676638121
 30
0.0
 40
58.29999999999982
100
AcDbArc
 50
21.7015386848
 51
158.2984613152
  0
LINE
  5
1E7
330
1F
100
AcDbEntity
  8
0
  6
HIDDEN
 62
     7
370
    18
100
AcDbLine
 10
152.0507383332
 20
310.7601663676
 30
0.0
 11
152.6784260435
 21
311.0099731714
 31
0.0
  0
LINE
  5
1E8
330
1F
100
AcDbEntity
  8
0
  6
HIDDEN
 62
     7
370
    18
100
AcDbLine
 10
261.6418137653
 20
310.7601663676
 30
0.0
 11
261.0141260549
 21
311.0099731714
 31
0.0
  0
ARC
  5
1E9
330
1F
100
AcDbEntity
  8
0
  6
HIDDEN
 62
     7
370
    18
100
AcDbCircle
 10
206.8462760492
 20
332.5676638121
 30
0.0
 40
58.97557035230801
100
AcDbArc
 50
201.7015386848
 51
338.2984613152
  0
ARC
  5
1EA
330
1F
100
AcDbEntity
  8
0
  6
HIDDEN
 62
     7
370
    18
100
AcDbCircle
 10
206.8462760492
 20
332.5676638121
 30
0.0
 40
58.2999999999998
100
AcDbArc
 50
201.7015386848
 51
338.2984613152
  0
CIRCLE
  5
1EB
330
1F
100
AcDbEntity
  8
0
  6
HIDDEN
 62
     7
370
    18
100
AcDbCircle
 10
206.8462760492
 20
332.5676638121
 30
0.0
 40
56.65688033694556
  0
CIRCLE
  5
1EC
330
1F
100
AcDbEntity
  8
0
  6
HIDDEN
 62
     7
370
    18
100
AcDbCircle
 10
206.8462760492
 20
332.5676638121
 30
0.0
 40
56.58715574274748
  0
ARC
  5
1ED
330
1F
100
AcDbEntity
  8
0
  6
HIDDEN
 62
     7
370
    18
100
AcDbCircle
 10
206.8462760492
 20
332.5676638121
 30
0.0
 40
45.00000000000003
100
AcDbArc
 50
180.0
 51
216.0121642144
  0
ARC
  5
1EE
330
1F
100
AcDbEntity
  8
0
  6
HIDDEN
 62
     7
370
    18
100
AcDbCircle
 10
206.8462760492
 20
332.5676638121
 30
0.0
 40
45.00000000000003
100
AcDbArc
 50
221.1287724551
 51
267.4447388344
  0
ARC
  5
1EF
330
1F
100
AcDbEntity
  8
0
  6
HIDDEN
 62
     7
370
    18
100
AcDbCircle
 10
206.8462760492
 20
332.5676638121
 30
0.0
 40
45.00000000000002
100
AcDbArc
 50
272.5587491011
 51
318.8813510612
  0
ARC
  5
1F0
330
1F
100
AcDbEntity
  8
0
  6
HIDDEN
 62
     7
370
    18
100
AcDbCircle
 10
206.8462760492
 20
332.5676638121
 30
0.0
 40
45.0
100
AcDbArc
 50
323.9820721501
 51
10.3053594927
  0
ARC
  5
1F1
330
1F
100
AcDbEntity
  8
0
  6
HIDDEN
 62
     7
370
    18
100
AcDbCircle
 10
206.8462760492
 20
332.5676638121
 30
0.0
 40
45.00000000000003
100
AcDbArc
 50
15.4050901836
 51
61.727981113
  0
ARC
  5
1F2
330
1F
100
AcDbEntity
  8
0
  6
HIDDEN
 62
     7
370
    18
100
AcDbCircle
 10
206.8462760492
 20
332.5676638121
 30
0.0
 40
45.00000000000005
100
AcDbArc
 50
66.8376857883
 51
113.1555519851
  0
ARC
  5
1F3
330
1F
100
AcDbEntity
  8
0
  6
HIDDEN
 62
     7
370
    18
100
AcDbCircle
 10
206.8462760492
 20
332.5676638121
 30
0.0
 40
45.00000000000005
100
AcDbArc
 50
118.2735495513
 51
164.5944822914
  0
ARC
  5
1F4
330
1F
100
AcDbEntity
  8
0
  6
HIDDEN
 62
     7
370
    18
100
AcDbCircle
 10
206.8462760492
 20
332.5676638121
 30
0.0
 40
45.00000000000006
100
AcDbArc
 50
169.6994797049
 51
180.0
  0
CIRCLE
  5
1F5
330
1F
100
AcDbEntity
  8
0
  6
HIDDEN
 62
     7
370
    18
100
AcDbCircle
 10
206.8462760492
 20
332.5676638121
 30
0.0
 40
45.0349287543267
  0
ENDSEC
  0
SECTION
  2
OBJECTS
  0
DICTIONARY
  5
C
330
0
100
AcDbDictionary
281
     1
  3
ACAD_GROUP
350
D
  3
ACAD_LAYOUT
350
1A
  3
ACAD_MLINESTYLE
350
17
  3
ACAD_PLOTSETTINGS
350
19
  3
ACAD_PLOTSTYLENAME
350
E
  3
ACAD_SCALELIST
350
47
  3
DWGPROPS
350
1F6
  0
DICTIONARY
  5
D
102
{ACAD_REACTORS
330
C
102
}
330
C
100
AcDbDictionary
281
     1
  0
DICTIONARY
  5
1A
102
{ACAD_REACTORS
330
C
102
}
330
C
100
AcDbDictionary
281
     1
  3
Layout1
350
1E
  3
Layout2
350
26
  3
Model
350
22
  0
DICTIONARY
  5
17
102
{ACAD_REACTORS
330
C
102
}
330
C
100
AcDbDictionary
281
     1
  3
Standard
350
18
  0
DICTIONARY
  5
19
102
{ACAD_REACTORS
330
C
102
}
330
C
100
AcDbDictionary
281
     1
  0
ACDBDICTIONARYWDFLT
  5
E
102
{ACAD_REACTORS
330
C
102
}
330
C
100
AcDbDictionary
281
     1
  3
Normal
350
F
100
AcDbDictionaryWithDefault
340
F
  0
DICTIONARY
  5
47
102
{ACAD_REACTORS
330
C
102
}
330
C
100
AcDbDictionary
281
     1
  3
A0
350
48
  3
A1
350
49
  3
A2
350
4A
  3
A3
350
4B
  3
A4
350
4C
  3
A5
350
4D
  3
A6
350
4E
  3
A7
350
4F
  3
A8
350
50
  3
A9
350
51
  3
B0
350
52
  3
B1
350
53
  3
B2
350
54
  3
B3
350
55
  3
B4
350
56
  3
B5
350
57
  3
B6
350
58
  0
XRECORD
  5
1F6
102
{ACAD_REACTORS
330
C
102
}
330
C
100
AcDbXrecord
280
     1
  1
DWGPROPS COOKIE
  2

  3

  4

  6

  7

  8
villesi
  9

300
=
301
=
302
=
303
=
304
=
305
=
306
=
307
=
308
=
309
=
 40
0.0
 41
2460404.293058878
 42
2460404.293059769
  1

 90
        0
  0
LAYOUT
  5
1E
102
{ACAD_REACTORS
330
1A
102
}
330
1A
100
AcDbPlotSettings
  1

  2
none_device
  4

  6

 40
0.0
 41
0.0
 42
0.0
 43
0.0
 44
0.0
 45
0.0
 46
0.0
 47
0.0
 48
0.0
 49
0.0
140
0.0
141
0.0
142
1.0
143
1.0
 70
   688
 72
     1
 73
     0
 74
     5
  7

 75
    16
147
1.0
148
0.0
149
0.0
100
AcDbLayout
  1
Layout1
 70
     1
 71
     1
 10
0.0
 20
0.0
 11
420.0
 21
297.0
 12
0.0
 22
0.0
 32
0.0
 14
1.0000000000E+20
 24
1.0000000000E+20
 34
1.0000000000E+20
 15
-1.0000000000E+20
 25
-1.0000000000E+20
 35
-1.0000000000E+20
146
0.0
 13
0.0
 23
0.0
 33
0.0
 16
1.0
 26
0.0
 36
0.0
 17
0.0
 27
1.0
 37
0.0
 76
     0
330
1B
  0
LAYOUT
  5
26
102
{ACAD_REACTORS
330
1A
102
}
330
1A
100
AcDbPlotSettings
  1

  2
none_device
  4

  6

 40
0.0
 41
0.0
 42
0.0
 43
0.0
 44
0.0
 45
0.0
 46
0.0
 47
0.0
 48
0.0
 49
0.0
140
0.0
141
0.0
142
1.0
143
1.0
 70
   688
 72
     1
 73
     0
 74
     5
  7

 75
    16
147
1.0
148
0.0
149
0.0
100
AcDbLayout
  1
Layout2
 70
     1
 71
     2
 10
0.0
 20
0.0
 11
0.0
 21
0.0
 12
0.0
 22
0.0
 32
0.0
 14
0.0
 24
0.0
 34
0.0
 15
0.0
 25
0.0
 35
0.0
146
0.0
 13
0.0
 23
0.0
 33
0.0
 16
1.0
 26
0.0
 36
0.0
 17
0.0
 27
1.0
 37
0.0
 76
     0
330
23
  0
LAYOUT
  5
22
102
{ACAD_REACTORS
330
1A
102
}
330
1A
100
AcDbPlotSettings
  1

  2
none_device
  4
Letter_(8.50_x_11.00_Inches)
  6

 40
6.35
 41
6.35
 42
6.35000508
 43
6.35000508
 44
215.9
 45
279.4
 46
0.0
 47
0.0
 48
0.0
 49
0.0
140
0.0
141
0.0
142
1.0
143
1.0
 70
  1712
 72
     1
 73
     0
 74
     0
  7

 75
     0
147
1.0
148
0.0
149
0.0
100
AcDbLayout
  1
Model
 70
     1
 71
     0
 10
0.0
 20
0.0
 11
420.0
 21
500.0
 12
0.0
 22
0.0
 32
0.0
 14
0.0
 24
0.0
 34
0.0
 15
420.0
 25
500.0
 35
0.0
146
0.0
 13
0.0
 23
0.0
 33
0.0
 16
1.0
 26
0.0
 36
0.0
 17
0.0
 27
1.0
 37
0.0
 76
     0
330
1F
331
29
  0
MLINESTYLE
  5
18
102
{ACAD_REACTORS
330
17
102
}
330
17
100
AcDbMlineStyle
  2
Standard
 70
     0
  3

 62
   256
 51
90.0
 52
90.0
 71
     2
 49
0.5
 62
   256
  6
BYLAYER
 49
-0.5
 62
   256
  6
BYLAYER
  0
ACDBPLACEHOLDER
  5
F
102
{ACAD_REACTORS
330
E
102
}
330
E
  0
SCALE
  5
48
102
{ACAD_REACTORS
330
47
102
}
330
47
100
AcDbScale
 70
     0
300
1:1
140
1.0
141
1.0
290
     1
  0
SCALE
  5
49
102
{ACAD_REACTORS
330
47
102
}
330
47
100
AcDbScale
 70
     0
300
1:2
140
1.0
141
2.0
290
     0
  0
SCALE
  5
4A
102
{ACAD_REACTORS
330
47
102
}
330
47
100
AcDbScale
 70
     0
300
1:4
140
1.0
141
4.0
290
     0
  0
SCALE
  5
4B
102
{ACAD_REACTORS
330
47
102
}
330
47
100
AcDbScale
 70
     0
300
1:5
140
1.0
141
5.0
290
     0
  0
SCALE
  5
4C
102
{ACAD_REACTORS
330
47
102
}
330
47
100
AcDbScale
 70
     0
300
1:8
140
1.0
141
8.0
290
     0
  0
SCALE
  5
4D
102
{ACAD_REACTORS
330
47
102
}
330
47
100
AcDbScale
 70
     0
300
1:10
140
1.0
141
10.0
290
     0
  0
SCALE
  5
4E
102
{ACAD_REACTORS
330
47
102
}
330
47
100
AcDbScale
 70
     0
300
1:16
140
1.0
141
16.0
290
     0
  0
SCALE
  5
4F
102
{ACAD_REACTORS
330
47
102
}
330
47
100
AcDbScale
 70
     0
300
1:20
140
1.0
141
20.0
290
     0
  0
SCALE
  5
50
102
{ACAD_REACTORS
330
47
102
}
330
47
100
AcDbScale
 70
     0
300
1:30
140
1.0
141
30.0
290
     0
  0
SCALE
  5
51
102
{ACAD_REACTORS
330
47
102
}
330
47
100
AcDbScale
 70
     0
300
1:40
140
1.0
141
40.0
290
     0
  0
SCALE
  5
52
102
{ACAD_REACTORS
330
47
102
}
330
47
100
AcDbScale
 70
     0
300
1:50
140
1.0
141
50.0
290
     0
  0
SCALE
  5
53
102
{ACAD_REACTORS
330
47
102
}
330
47
100
AcDbScale
 70
     0
300
1:100
140
1.0
141
100.0
290
     0
  0
SCALE
  5
54
102
{ACAD_REACTORS
330
47
102
}
330
47
100
AcDbScale
 70
     0
300
2:1
140
2.0
141
1.0
290
     0
  0
SCALE
  5
55
102
{ACAD_REACTORS
330
47
102
}
330
47
100
AcDbScale
 70
     0
300
4:1
140
4.0
141
1.0
290
     0
  0
SCALE
  5
56
102
{ACAD_REACTORS
330
47
102
}
330
47
100
AcDbScale
 70
     0
300
8:1
140
8.0
141
1.0
290
     0
  0
SCALE
  5
57
102
{ACAD_REACTORS
330
47
102
}
330
47
100
AcDbScale
 70
     0
300
10:1
140
10.0
141
1.0
290
     0
  0
SCALE
  5
58
102
{ACAD_REACTORS
330
47
102
}
330
47
100
AcDbScale
 70
     0
300
100:1
140
100.0
141
1.0
290
     0
  0
ENDSEC
  0
EOF
