  0
SECTION
  2
HEADER
  9
$ACADVER
  1
AC1015
  9
$ACADMAINTVER
 70
     6
  9
$DWGCODEPAGE
  3
ANSI_1252
  9
$INSBASE
 10
0.0
 20
0.0
 30
0.0
  9
$EXTMIN
 10
0.0
 20
0.0
 30
0.0
  9
$EXTMAX
 10
500.0
 20
450.0
 30
0.0
  9
$LIMMIN
 10
0.0
 20
0.0
  9
$LIMMAX
 10
500.0
 20
450.0
  9
$ORTHOMODE
 70
     0
  9
$REGENMODE
 70
     1
  9
$FILLMODE
 70
     1
  9
$QTEXTMODE
 70
     0
  9
$MIRRTEXT
 70
     1
  9
$LTSCALE
 40
1.0
  9
$ATTMODE
 70
     1
  9
$TEXTSIZE
 40
3.5
  9
$TRACEWID
 40
1.0
  9
$TEXTSTYLE
  7
Standard
  9
$CLAYER
  8
0
  9
$CELTYPE
  6
ByLayer
  9
$CECOLOR
 62
   256
  9
$CELTSCALE
 40
1.0
  9
$DISPSILH
 70
     0
  9
$DIMSCALE
 40
1.0
  9
$DIMASZ
 40
3.302
  9
$DIMEXO
 40
1.0
  9
$DIMDLI
 40
3.75
  9
$DIMRND
 40
0.0
  9
$DIMDLE
 40
0.0
  9
$DIMEXE
 40
1.0
  9
$DIMTP
 40
0.0
  9
$DIMTM
 40
0.0
  9
$DIMTXT
 40
3.5
  9
$DIMCEN
 40
2.5
  9
$DIMTSZ
 40
0.0
  9
$DIMTOL
 70
     0
  9
$DIMLIM
 70
     0
  9
$DIMTIH
 70
     1
  9
$DIMTOH
 70
     1
  9
$DIMSE1
 70
     0
  9
$DIMSE2
 70
     0
  9
$DIMTAD
 70
     1
  9
$DIMZIN
 70
     1
  9
$DIMBLK
  1

  9
$DIMASO
 70
     1
  9
$DIMSHO
 70
     1
  9
$DIMPOST
  1

  9
$DIMAPOST
  1

  9
$DIMALT
 70
     0
  9
$DIMALTD
 70
     3
  9
$DIMALTF
 40
0.0393700787
  9
$DIMLFAC
 40
1.0
  9
$DIMTOFL
 70
     1
  9
$DIMTVP
 40
0.0
  9
$DIMTIX
 70
     0
  9
$DIMSOXD
 70
     0
  9
$DIMSAH
 70
     0
  9
$DIMBLK1
  1

  9
$DIMBLK2
  1

  9
$DIMSTYLE
  2
ISO-25
  9
$DIMCLRD
 70
     0
  9
$DIMCLRE
 70
     0
  9
$DIMCLRT
 70
     0
  9
$DIMTFAC
 40
1.0
  9
$DIMGAP
 40
1.524
  9
$DIMJUST
 70
     0
  9
$DIMSD1
 70
     0
  9
$DIMSD2
 70
     0
  9
$DIMTOLJ
 70
     0
  9
$DIMTZIN
 70
     1
  9
$DIMALTZ
 70
     0
  9
$DIMALTTZ
 70
     0
  9
$DIMUPT
 70
     0
  9
$DIMDEC
 70
     2
  9
$DIMTDEC
 70
     2
  9
$DIMALTU
 70
     2
  9
$DIMALTTD
 70
     3
  9
$DIMTXSTY
  7
Standard
  9
$DIMAUNIT
 70
     0
  9
$DIMADEC
 70
     0
  9
$DIMALTRND
 40
0.0
  9
$DIMAZIN
 70
     0
  9
$DIMDSEP
 70
    44
  9
$DIMATFIT
 70
     3
  9
$DIMFRAC
 70
     0
  9
$DIMLDRBLK
  1

  9
$DIMLUNIT
 70
     2
  9
$DIMLWD
 70
    -2
  9
$DIMLWE
 70
    -2
  9
$DIMTMOVE
 70
     0
  9
$LUNITS
 70
     2
  9
$LUPREC
 70
     2
  9
$SKETCHINC
 40
1.0
  9
$FILLETRAD
 40
0.0
  9
$AUNITS
 70
     0
  9
$AUPREC
 70
     2
  9
$MENU
  1
.
  9
$ELEVATION
 40
0.0
  9
$PELEVATION
 40
0.0
  9
$THICKNESS
 40
0.0
  9
$LIMCHECK
 70
     0
  9
$CHAMFERA
 40
0.0
  9
$CHAMFERB
 40
0.0
  9
$CHAMFERC
 40
0.0
  9
$CHAMFERD
 40
0.0
  9
$SKPOLY
 70
     0
  9
$TDCREATE
 40
2460406.305943681
  9
$TDUCREATE
 40
2460406.180943681
  9
$TDUPDATE
 40
2460406.305944248
  9
$TDUUPDATE
 40
2460406.180944248
  9
$TDINDWG
 40
0.0000000116
  9
$TDUSRTIMER
 40
0.0000000116
  9
$USRTIMER
 70
     1
  9
$ANGBASE
 50
0.0
  9
$ANGDIR
 70
     0
  9
$PDMODE
 70
     0
  9
$PDSIZE
 40
-1.0
  9
$PLINEWID
 40
0.0
  9
$SPLFRAME
 70
     0
  9
$SPLINETYPE
 70
     6
  9
$SPLINESEGS
 70
     8
  9
$HANDSEED
  5
163
  9
$SURFTAB1
 70
     6
  9
$SURFTAB2
 70
     6
  9
$SURFTYPE
 70
     6
  9
$SURFU
 70
     6
  9
$SURFV
 70
     6
  9
$UCSBASE
  2

  9
$UCSNAME
  2

  9
$UCSORG
 10
0.0
 20
0.0
 30
0.0
  9
$UCSXDIR
 10
1.0
 20
0.0
 30
0.0
  9
$UCSYDIR
 10
0.0
 20
1.0
 30
0.0
  9
$UCSORTHOREF
  2

  9
$UCSORTHOVIEW
 70
     0
  9
$UCSORGTOP
 10
0.0
 20
0.0
 30
0.0
  9
$UCSORGBOTTOM
 10
0.0
 20
0.0
 30
0.0
  9
$UCSORGLEFT
 10
0.0
 20
0.0
 30
0.0
  9
$UCSORGRIGHT
 10
0.0
 20
0.0
 30
0.0
  9
$UCSORGFRONT
 10
0.0
 20
0.0
 30
0.0
  9
$UCSORGBACK
 10
0.0
 20
0.0
 30
0.0
  9
$PUCSBASE
  2

  9
$PUCSNAME
  2

  9
$PUCSORG
 10
0.0
 20
0.0
 30
0.0
  9
$PUCSXDIR
 10
1.0
 20
0.0
 30
0.0
  9
$PUCSYDIR
 10
0.0
 20
1.0
 30
0.0
  9
$PUCSORTHOREF
  2

  9
$PUCSORTHOVIEW
 70
     0
  9
$PUCSORGTOP
 10
0.0
 20
0.0
 30
0.0
  9
$PUCSORGBOTTOM
 10
0.0
 20
0.0
 30
0.0
  9
$PUCSORGLEFT
 10
0.0
 20
0.0
 30
0.0
  9
$PUCSORGRIGHT
 10
0.0
 20
0.0
 30
0.0
  9
$PUCSORGFRONT
 10
0.0
 20
0.0
 30
0.0
  9
$PUCSORGBACK
 10
0.0
 20
0.0
 30
0.0
  9
$USERI1
 70
     0
  9
$USERI2
 70
     0
  9
$USERI3
 70
     0
  9
$USERI4
 70
     0
  9
$USERI5
 70
     0
  9
$USERR1
 40
0.0
  9
$USERR2
 40
0.0
  9
$USERR3
 40
0.0
  9
$USERR4
 40
0.0
  9
$USERR5
 40
0.0
  9
$WORLDVIEW
 70
     1
  9
$SHADEDGE
 70
     3
  9
$SHADEDIF
 70
    70
  9
$TILEMODE
 70
     1
  9
$MAXACTVP
 70
    64
  9
$PINSBASE
 10
0.0
 20
0.0
 30
0.0
  9
$PLIMCHECK
 70
     0
  9
$PEXTMIN
 10
1.0000000000E+20
 20
1.0000000000E+20
 30
1.0000000000E+20
  9
$PEXTMAX
 10
-1.0000000000E+20
 20
-1.0000000000E+20
 30
-1.0000000000E+20
  9
$PLIMMIN
 10
0.0
 20
0.0
  9
$PLIMMAX
 10
420.0
 20
297.0
  9
$UNITMODE
 70
     0
  9
$VISRETAIN
 70
     1
  9
$PLINEGEN
 70
     0
  9
$PSLTSCALE
 70
     1
  9
$TREEDEPTH
 70
  3020
  9
$CMLSTYLE
  2
Standard
  9
$CMLJUST
 70
     0
  9
$CMLSCALE
 40
20.0
  9
$PROXYGRAPHICS
 70
     1
  9
$MEASUREMENT
 70
     1
  9
$CELWEIGHT
370
    -1
  9
$ENDCAPS
280
     0
  9
$JOINSTYLE
280
     0
  9
$LWDISPLAY
290
     1
  9
$INSUNITS
 70
     4
  9
$HYPERLINKBASE
  1

  9
$STYLESHEET
  1

  9
$XEDIT
290
     1
  9
$CEPSNTYPE
380
     0
  9
$PSTYLEMODE
290
     1
  9
$FINGERPRINTGUID
  2
{e4bc0df0-525c-4f2b-a84c-12ade5389a43}
  9
$VERSIONGUID
  2
{FAEB1C32-E019-11D5-929B-00C0DF256EC4}
  9
$EXTNAMES
290
     1
  9
$PSVPSCALE
 40
0.0
  9
$OLESTARTUP
290
     0
  0
ENDSEC
  0
SECTION
  2
CLASSES
  0
CLASS
  1
ACDBDICTIONARYWDFLT
  2
AcDbDictionaryWithDefault
  3
ObjectDBX Classes
 90
        0
280
     0
281
     0
  0
CLASS
  1
VISUALSTYLE
  2
AcDbVisualStyle
  3
ObjectDBX Classes
 90
     4095
280
     0
281
     0
  0
CLASS
  1
MATERIAL
  2
AcDbMaterial
  3
ObjectDBX Classes
 90
     1153
280
     0
281
     0
  0
CLASS
  1
SCALE
  2
AcDbScale
  3
ObjectDBX Classes
 90
     1153
280
     0
281
     0
  0
CLASS
  1
TABLESTYLE
  2
AcDbTableStyle
  3
ObjectDBX Classes
 90
     4095
280
     0
281
     0
  0
CLASS
  1
MLEADERSTYLE
  2
AcDbMLeaderStyle
  3
ACDB_MLEADERSTYLE_CLASS
 90
     4095
280
     0
281
     0
  0
CLASS
  1
SUN
  2
AcDbSun
  3
SCENEOE
 90
     1153
280
     0
281
     0
  0
CLASS
  1
ACDBPLACEHOLDER
  2
AcDbPlaceHolder
  3
ObjectDBX Classes
 90
        0
280
     0
281
     0
  0
CLASS
  1
LAYOUT
  2
AcDbLayout
  3
ObjectDBX Classes
 90
        0
280
     0
281
     0
  0
ENDSEC
  0
SECTION
  2
TABLES
  0
TABLE
  2
VPORT
  5
8
330
0
100
AcDbSymbolTable
 70
     1
  0
VPORT
  5
29
330
8
100
AcDbSymbolTableRecord
100
AcDbViewportTableRecord
  2
*Active
 70
     0
 10
0.0
 20
0.0
 11
1.0
 21
1.0
 12
250.0
 22
225.0
 13
0.0
 23
0.0
 14
10.0
 24
10.0
 15
10.0
 25
10.0
 16
0.0
 26
0.0
 36
1.0
 17
0.0
 27
0.0
 37
0.0
 40
450.0
 41
1.1111111111
 42
50.0
 43
0.0
 44
0.0
 50
0.0
 51
0.0
 71
     0
 72
  2000
 73
     1
 74
     3
 75
     0
 76
     0
 77
     0
 78
     0
281
     0
 65
     1
110
0.0
120
0.0
130
0.0
111
1.0
121
0.0
131
0.0
112
0.0
122
1.0
132
0.0
 79
     0
146
0.0
  0
ENDTAB
  0
TABLE
  2
LTYPE
  5
5
330
0
100
AcDbSymbolTable
 70
     6
  0
LTYPE
  5
14
330
5
100
AcDbSymbolTableRecord
100
AcDbLinetypeTableRecord
  2
ByBlock
 70
     0
  3

 72
    65
 73
     0
 40
0.0
  0
LTYPE
  5
15
330
5
100
AcDbSymbolTableRecord
100
AcDbLinetypeTableRecord
  2
ByLayer
 70
     0
  3

 72
    65
 73
     0
 40
0.0
  0
LTYPE
  5
16
330
5
100
AcDbSymbolTableRecord
100
AcDbLinetypeTableRecord
  2
Continuous
 70
     0
  3
Solid line
 72
    65
 73
     0
 40
0.0
  0
LTYPE
  5
5E
330
5
100
AcDbSymbolTableRecord
100
AcDbLinetypeTableRecord
  2
HIDDEN
 70
     0
  3
Hidden __ __ __ __ __ __ __ __ __ __ __ __ __ __
 72
    65
 73
     2
 40
1.905
 49
1.27
 74
     0
 49
-0.635
 74
     0
  0
LTYPE
  5
5F
330
5
100
AcDbSymbolTableRecord
100
AcDbLinetypeTableRecord
  2
PHANTOM
 70
     0
  3
Phantom ______  __  __  ______  __  __  ______
 72
    65
 73
     6
 40
12.7
 49
6.35
 74
     0
 49
-1.27
 74
     0
 49
1.27
 74
     0
 49
-1.27
 74
     0
 49
1.27
 74
     0
 49
-1.27
 74
     0
  0
LTYPE
  5
60
330
5
100
AcDbSymbolTableRecord
100
AcDbLinetypeTableRecord
  2
CENTER
 70
     0
  3
Center ____ _ ____ _ ____ _ ____ _ ____ _ ____
 72
    65
 73
     4
 40
10.16
 49
6.35
 74
     0
 49
-1.27
 74
     0
 49
1.27
 74
     0
 49
-1.27
 74
     0
  0
LTYPE
  5
61
330
5
100
AcDbSymbolTableRecord
100
AcDbLinetypeTableRecord
  2
CENTERX2
 70
     0
  3
Center (2x) ________  __  ________  __  _____
 72
    65
 73
     4
 40
20.32
 49
12.7
 74
     0
 49
-2.54
 74
     0
 49
2.54
 74
     0
 49
-2.54
 74
     0
  0
LTYPE
  5
62
330
5
100
AcDbSymbolTableRecord
100
AcDbLinetypeTableRecord
  2
DOT2
 70
     0
  3
Dot (.5x) ........................................
 72
    65
 73
     2
 40
0.635
 49
0.0
 74
     0
 49
-0.635
 74
     0
  0
ENDTAB
  0
TABLE
  2
LAYER
  5
2
330
0
100
AcDbSymbolTable
 70
     2
  0
LAYER
  5
10
330
2
100
AcDbSymbolTableRecord
100
AcDbLayerTableRecord
  2
0
 70
     0
 62
     7
  6
Continuous
370
    -3
390
F
  0
LAYER
  5
63
330
2
100
AcDbSymbolTableRecord
100
AcDbLayerTableRecord
  2
TABLE_BL1
 70
     0
 62
   179
  6
Continuous
370
    -3
390
F
  0
ENDTAB
  0
TABLE
  2
STYLE
  5
3
330
0
100
AcDbSymbolTable
 70
     1
  0
STYLE
  5
11
330
3
100
AcDbSymbolTableRecord
100
AcDbTextStyleTableRecord
  2
Standard
 70
     0
 40
0.0
 41
1.0
 50
0.0
 71
     0
 42
3.5
  3
txt
  4

  0
ENDTAB
  0
TABLE
  2
VIEW
  5
6
330
0
100
AcDbSymbolTable
 70
     0
  0
ENDTAB
  0
TABLE
  2
UCS
  5
7
330
0
100
AcDbSymbolTable
 70
     0
  0
ENDTAB
  0
TABLE
  2
APPID
  5
9
330
0
100
AcDbSymbolTable
 70
     1
  0
APPID
  5
12
330
9
100
AcDbSymbolTableRecord
100
AcDbRegAppTableRecord
  2
ACAD
 70
     0
  0
ENDTAB
  0
TABLE
  2
DIMSTYLE
  5
A
330
0
100
AcDbSymbolTable
 70
     1
100
AcDbDimStyleTable
  0
DIMSTYLE
105
27
330
A
100
AcDbSymbolTableRecord
100
AcDbDimStyleTableRecord
  2
ISO-25
 70
     0
 41
2.5
 42
0.625
 43
3.75
 44
1.25
 73
     0
 74
     0
 77
     1
 78
     8
140
2.5
141
2.5
143
0.0393700787
147
0.625
171
     3
172
     1
178
     0
271
     2
272
     2
274
     3
278
    44
283
     0
284
     8
340
11
  0
ENDTAB
  0
TABLE
  2
BLOCK_RECORD
  5
1
330
0
100
AcDbSymbolTable
 70
     1
  0
BLOCK_RECORD
  5
1F
330
1
100
AcDbSymbolTableRecord
100
AcDbBlockTableRecord
  2
*Model_Space
340
22
  0
BLOCK_RECORD
  5
1B
330
1
100
AcDbSymbolTableRecord
100
AcDbBlockTableRecord
  2
*Paper_Space
340
1E
  0
BLOCK_RECORD
  5
23
330
1
100
AcDbSymbolTableRecord
100
AcDbBlockTableRecord
  2
*Paper_Space0
340
26
  0
ENDTAB
  0
ENDSEC
  0
SECTION
  2
BLOCKS
  0
BLOCK
  5
20
330
1F
100
AcDbEntity
  8
0
100
AcDbBlockBegin
  2
*Model_Space
 70
     0
 10
0.0
 20
0.0
 30
0.0
  3
*Model_Space
  1

  0
ENDBLK
  5
21
330
1F
100
AcDbEntity
  8
0
100
AcDbBlockEnd
  0
BLOCK
  5
1C
330
1B
100
AcDbEntity
 67
     1
  8
0
100
AcDbBlockBegin
  2
*Paper_Space
 70
     0
 10
0.0
 20
0.0
 30
0.0
  3
*Paper_Space
  1

  0
ENDBLK
  5
1D
330
1B
100
AcDbEntity
 67
     1
  8
0
100
AcDbBlockEnd
  0
BLOCK
  5
24
330
23
100
AcDbEntity
  8
0
100
AcDbBlockBegin
  2
*Paper_Space0
 70
     0
 10
0.0
 20
0.0
 30
0.0
  3
*Paper_Space0
  1

  0
ENDBLK
  5
25
330
23
100
AcDbEntity
  8
0
100
AcDbBlockEnd
  0
ENDSEC
  0
SECTION
  2
ENTITIES
  0
CIRCLE
  5
64
330
1F
100
AcDbEntity
  8
0
  6
Continuous
 62
     7
370
    25
100
AcDbCircle
 10
254.3449180832
 20
310.5327510381
 30
0.0
 40
8.899999999999977
  0
LWPOLYLINE
  5
65
330
1F
100
AcDbEntity
  8
0
  6
Continuous
 62
     7
370
    25
100
AcDbPolyline
 90
        3
 70
   128
 43
0.0
 10
262.2744974567
 20
314.7897183811
 10
261.3863197535
 20
316.1379863158
 10
260.294716667
 20
317.2855206042
  0
ARC
  5
66
330
1F
100
AcDbEntity
  8
0
  6
Continuous
 62
     7
370
    25
100
AcDbCircle
 10
254.3449180832
 20
310.5327510381
 30
0.0
 40
9.000000000000071
100
AcDbArc
 50
79.9623703882
 51
99.9709200089
  0
ARC
  5
67
330
1F
100
AcDbEntity
  8
0
  6
Continuous
 62
     7
370
    25
100
AcDbCircle
 10
254.3449180832
 20
310.5327510381
 30
0.0
 40
9.00000000000003
100
AcDbArc
 50
131.5662655105
 51
151.1236196133
  0
LINE
  5
68
330
1F
100
AcDbEntity
  8
0
  6
Continuous
 62
     7
370
    25
100
AcDbLine
 10
245.3540733623
 20
310.126904757
 30
0.0
 11
245.3761046971
 21
309.7841614016
 31
0.0
  0
LWPOLYLINE
  5
69
330
1F
100
AcDbEntity
  8
0
  6
Continuous
 62
     7
370
    25
100
AcDbPolyline
 90
        3
 70
   128
 43
0.0
 10
245.3761046971
 20
309.7841614016
 10
245.7277353252
 20
307.9357987255
 10
246.0428150081
 20
307.0578288045
  0
LWPOLYLINE
  5
6A
330
1F
100
AcDbEntity
  8
0
  6
Continuous
 62
     7
370
    25
100
AcDbPolyline
 90
        3
 70
   128
 43
0.0
 10
249.0753080253
 20
303.2367788728
 10
250.5088090324
 20
302.3912359856
 10
251.9526780179
 20
301.8565083335
  0
ARC
  5
6B
330
1F
100
AcDbEntity
  8
0
  6
Continuous
 62
     7
370
    25
100
AcDbCircle
 10
254.3449180832
 20
310.5327510381
 30
0.0
 40
9.000000000000075
100
AcDbArc
 50
285.9496577617
 51
305.5612274071
  0
ARC
  5
6C
330
1F
100
AcDbEntity
  8
0
  6
Continuous
 62
     7
370
    25
100
AcDbCircle
 10
254.3449180832
 20
310.5327510381
 30
0.0
 40
9.00000000000012
100
AcDbArc
 50
337.1639837857
 51
356.8199880674
  0
CIRCLE
  5
6D
330
1F
100
AcDbEntity
  8
0
  6
Continuous
 62
     7
370
    25
100
AcDbCircle
 10
254.3449180832
 20
310.5327510381
 30
0.0
 40
8.100000000000023
  0
CIRCLE
  5
6E
330
1F
100
AcDbEntity
  8
0
  6
Continuous
 62
     7
370
    25
100
AcDbCircle
 10
254.3449180832
 20
310.5327510381
 30
0.0
 40
55.99540163538487
  0
CIRCLE
  5
6F
330
1F
100
AcDbEntity
  8
0
  6
Continuous
 62
     7
370
    25
100
AcDbCircle
 10
254.3449180832
 20
310.5327510381
 30
0.0
 40
56.58542857502064
  0
SPLINE
  5
70
330
1F
100
AcDbEntity
  8
0
  6
Continuous
 62
     7
370
    25
100
AcDbSpline
210
0.0
220
0.0
230
1.0
 70
     8
 71
     3
 72
    17
 73
    13
 74
     0
 42
0.00000001
 43
0.00000001
 40
0.0
 40
0.0
 40
0.0
 40
0.0
 40
0.1073415831264222
 40
0.2147340135529334
 40
0.3221186568153245
 40
0.4294882791417557
 40
0.5368445105545053
 40
0.6441943157237137
 40
0.751547150844622
 40
0.8589113006666653
 40
0.966290600210555
 40
1.0
 40
1.0
 40
1.0
 40
1.0
 10
234.018785124042
 20
263.7155712968378
 30
0.0
 10
233.9013339714731
 20
263.5226089456768
 30
0.0
 10
233.6663760301705
 20
263.1365928378224
 30
0.0
 10
233.0960840804983
 20
262.7467899461189
 30
0.0
 10
232.4411453821109
 20
262.5570190087027
 30
0.0
 10
231.7570633114307
 20
262.597614987652
 30
0.0
 10
231.1258925530516
 20
262.8615909146729
 30
0.0
 10
230.6175741220729
 20
263.3196584617869
 30
0.0
 10
230.2891492479999
 20
263.9204816560395
 30
0.0
 10
230.1796439384
 20
264.594683577273
 30
0.0
 10
230.267515233035
 20
265.1176780635878
 30
0.0
 10
230.3864849874323
 20
265.3868054159148
 30
0.0
 10
230.4149096524322
 20
265.451106253308
 30
0.0
  0
ARC
  5
71
330
1F
100
AcDbEntity
  8
0
  6
Continuous
 62
     7
370
    25
100
AcDbCircle
 10
254.3449180832
 20
310.5327510381
 30
0.0
 40
46.99999999999999
100
AcDbArc
 50
246.7245689767
 51
293.2754310233
  0
SPLINE
  5
72
330
1F
100
AcDbEntity
  8
0
  6
Continuous
 62
     7
370
    25
100
AcDbSpline
210
0.0
220
0.0
230
1.0
 70
     8
 71
     3
 72
    17
 73
    13
 74
     0
 42
0.00000001
 43
0.00000001
 40
0.0
 40
0.0
 40
0.0
 40
0.0
 40
0.1073415831264198
 40
0.2147340135529157
 40
0.3221186568153209
 40
0.4294882791417354
 40
0.5368445105545024
 40
0.6441943157237235
 40
0.7515471508446129
 40
0.8589113006666523
 40
0.966290600210568
 40
0.9999999999999999
 40
0.9999999999999999
 40
0.9999999999999999
 40
0.9999999999999999
 10
278.2749265140329
 20
265.4511062533081
 30
0.0
 10
278.3525609592583
 20
265.2389691864861
 30
0.0
 10
278.5078666248507
 20
264.8145945643196
 30
0.0
 10
278.4570555828392
 20
264.1256842361556
 30
0.0
 10
278.1970768768815
 20
263.4953122985014
 30
0.0
 10
277.7388194677736
 20
262.9857865779232
 30
0.0
 10
277.1389062463342
 20
262.6569037066428
 30
0.0
 10
276.4638432590916
 20
262.5450847983731
 30
0.0
 10
275.7893312107665
 20
262.6629190265336
 30
0.0
 10
275.1939434794211
 20
262.997662350274
 30
0.0
 10
274.8398367809436
 20
263.3924446234702
 30
0.0
 10
274.7036009726977
 20
263.6532570824966
 30
0.0
 10
274.6710510424233
 20
263.7155712968379
 30
0.0
  0
ARC
  5
73
330
1F
100
AcDbEntity
  8
0
  6
Continuous
 62
     7
370
    25
100
AcDbCircle
 10
254.3449180832
 20
310.5327510381
 30
0.0
 40
47.00000000000018
100
AcDbArc
 50
298.1531404052
 51
344.7040024519
  0
SPLINE
  5
74
330
1F
100
AcDbEntity
  8
0
  6
Continuous
 62
     7
370
    25
100
AcDbSpline
210
0.0
220
0.0
230
1.0
 70
     8
 71
     3
 72
    17
 73
    13
 74
     0
 42
0.00000001
 43
0.00000001
 40
0.0
 40
0.0
 40
0.0
 40
0.0
 40
0.1073415831264229
 40
0.2147340135529424
 40
0.3221186568153292
 40
0.4294882791417672
 40
0.5368445105545069
 40
0.6441943157237167
 40
0.7515471508446018
 40
0.8589113006666542
 40
0.9662906002105442
 40
1.0
 40
1.0
 40
1.0
 40
1.0
 10
304.5112834724181
 20
301.1340392306884
 30
0.0
 10
304.725543194729
 20
301.0624709863297
 30
0.0
 10
305.1541641333671
 20
300.919300596007
 30
0.0
 10
305.6610957500071
 20
300.4500463596999
 30
0.0
 10
305.9918463046642
 20
299.8537563481054
 30
0.0
 10
306.1044907329347
 20
299.1777921880255
 30
0.0
 10
305.9875819401783
 20
298.5037060285061
 30
0.0
 10
305.6541105948409
 20
297.9062025834697
 30
0.0
 10
305.141432702191
 20
297.4523162683535
 30
0.0
 10
304.5085016544993
 20
297.1955324443042
 30
0.0
 10
303.9790665293236
 20
297.1648234005747
 30
0.0
 10
303.6902135007475
 20
297.220923865049
 30
0.0
 10
303.6211997365929
 20
297.234327581961
 30
0.0
  0
ARC
  5
75
330
1F
100
AcDbEntity
  8
0
  6
Continuous
 62
     7
370
    25
100
AcDbCircle
 10
254.3449180832
 20
310.5327510381
 30
0.0
 40
47.00000000000005
100
AcDbArc
 50
349.5817118338
 51
36.1325738805
  0
SPLINE
  5
76
330
1F
100
AcDbEntity
  8
0
  6
Continuous
 62
     7
370
    25
100
AcDbSpline
210
0.0
220
0.0
230
1.0
 70
     8
 71
     3
 72
    17
 73
    13
 74
     0
 42
0.00000001
 43
0.00000001
 40
0.0
 40
0.0
 40
0.0
 40
0.0
 40
0.1073415831264268
 40
0.2147340135529383
 40
0.3221186568153293
 40
0.4294882791417444
 40
0.5368445105545062
 40
0.644194315723702
 40
0.751547150844599
 40
0.8589113006666721
 40
0.9662906002105675
 40
1.0
 40
1.0
 40
1.0
 40
1.0
 10
292.9713440853841
 20
343.8943938978281
 30
0.0
 10
293.1608871437786
 20
344.0172868236612
 30
0.0
 10
293.5400630463942
 20
344.2631308892391
 30
0.0
 10
294.2230074748352
 20
344.3668907557699
 30
0.0
 10
294.8954253763689
 20
344.2537012110655
 30
0.0
 10
295.4941480900022
 20
343.92031341118
 30
0.0
 10
295.9482784313795
 20
343.4086245903915
 30
0.0
 10
296.2075094525617
 20
342.7753688895499
 30
0.0
 10
296.2427226254759
 20
342.0915476840326
 30
0.0
 10
296.04885824979
 20
341.4366001691388
 30
0.0
 10
295.7427701456816
 20
341.0035243447617
 30
0.0
 10
295.5188121188212
 20
340.8126680206941
 30
0.0
 10
295.4653032928191
 20
340.7670679679561
 30
0.0
  0
ARC
  5
77
330
1F
100
AcDbEntity
  8
0
  6
Continuous
 62
     7
370
    25
100
AcDbCircle
 10
254.3449180832
 20
310.5327510381
 30
0.0
 40
47.00000000000011
100
AcDbArc
 50
41.0102832624
 51
87.5611453091
  0
SPLINE
  5
78
330
1F
100
AcDbEntity
  8
0
  6
Continuous
 62
     7
370
    25
100
AcDbSpline
210
0.0
220
0.0
230
1.0
 70
     8
 71
     3
 72
    17
 73
    13
 74
     0
 42
0.00000001
 43
0.00000001
 40
0.0
 40
0.0
 40
0.0
 40
0.0
 40
0.1073415831264198
 40
0.2147340135529391
 40
0.3221186568153258
 40
0.4294882791417469
 40
0.5368445105545085
 40
0.6441943157237306
 40
0.7515471508446215
 40
0.8589113006666819
 40
0.9662906002105771
 40
1.0
 40
1.0
 40
1.0
 40
1.0
 10
252.3449180832318
 20
361.5327510380964
 30
0.0
 10
252.367014688765
 20
361.7575642544099
 30
0.0
 10
252.4112183669097
 20
362.2072971802033
 30
0.0
 10
252.7559045230084
 20
362.8059378537589
 30
0.0
 10
253.263645376738
 20
363.2610828117527
 30
0.0
 10
253.8975959606508
 20
363.5213191852473
 30
0.0
 10
254.5807960265336
 20
363.557339821793
 30
0.0
 10
255.2375231679365
 20
363.3651863239422
 30
0.0
 10
255.794111168992
 20
362.966361543189
 30
0.0
 10
256.1852972943166
 20
362.40643917466
 30
0.0
 10
256.3330467967283
 20
361.8971114985285
 30
0.0
 10
256.3426287337207
 20
361.6030170907013
 30
0.0
 10
256.3449180832318
 20
361.5327510380965
 30
0.0
  0
ARC
  5
79
330
1F
100
AcDbEntity
  8
0
  6
Continuous
 62
     7
370
    25
100
AcDbCircle
 10
254.3449180832
 20
310.5327510381
 30
0.0
 40
47.0000000000001
100
AcDbArc
 50
92.438854691
 51
138.9897167376
  0
SPLINE
  5
7A
330
1F
100
AcDbEntity
  8
0
  6
Continuous
 62
     7
370
    25
100
AcDbSpline
210
0.0
220
0.0
230
1.0
 70
     8
 71
     3
 72
    17
 73
    13
 74
     0
 42
0.00000001
 43
0.00000001
 40
0.0
 40
0.0
 40
0.0
 40
0.0
 40
0.1073415831264264
 40
0.2147340135529308
 40
0.3221186568153085
 40
0.4294882791417484
 40
0.5368445105544937
 40
0.6441943157237209
 40
0.751547150844604
 40
0.8589113006666635
 40
0.9662906002105763
 40
0.9999999999999999
 40
0.9999999999999999
 40
0.9999999999999999
 40
0.9999999999999999
 10
213.2245328736454
 20
340.7670679679557
 30
0.0
 10
213.0625438316623
 20
340.9245125375118
 30
0.0
 10
212.7384890141023
 20
341.2394762575183
 30
0.0
 10
212.4853611920003
 20
341.8822091008671
 30
0.0
 10
212.4460857790415
 20
342.5629551249246
 30
0.0
 10
212.637886513312
 20
343.2208523747032
 30
0.0
 10
213.0356927193493
 20
343.7774581945773
 30
0.0
 10
213.5953870487039
 20
344.1711024028161
 30
0.0
 10
214.2542277607803
 20
344.3575972412768
 30
0.0
 10
214.9358932560027
 20
344.3143329829499
 30
0.0
 10
215.4262219760782
 20
344.112287583582
 30
0.0
 10
215.6621284829322
 20
343.9364141795216
 30
0.0
 10
215.7184920810803
 20
343.8943938978279
 30
0.0
  0
ARC
  5
7B
330
1F
100
AcDbEntity
  8
0
  6
Continuous
 62
     7
370
    25
100
AcDbCircle
 10
254.3449180832
 20
310.5327510381
 30
0.0
 40
47.00000000000002
100
AcDbArc
 50
143.8674261195
 51
190.4182881662
  0
SPLINE
  5
7C
330
1F
100
AcDbEntity
  8
0
  6
Continuous
 62
     7
370
    25
100
AcDbSpline
210
0.0
220
0.0
230
1.0
 70
     8
 71
     3
 72
    17
 73
    13
 74
     0
 42
0.00000001
 43
0.00000001
 40
0.0
 40
0.0
 40
0.0
 40
0.0
 40
0.1073415831264392
 40
0.214734013552924
 40
0.3221186568153145
 40
0.4294882791417546
 40
0.5368445105544994
 40
0.644194315723721
 40
0.7515471508446095
 40
0.8589113006666688
 40
0.9662906002105787
 40
1.0
 40
1.0
 40
1.0
 40
1.0
 10
205.068636429872
 20
297.2343275819605
 30
0.0
 10
204.8445427929601
 20
297.2058445325996
 30
0.0
 10
204.3962493668319
 20
297.1488649415654
 30
0.0
 10
203.7359179794383
 20
297.351699014305
 30
0.0
 10
203.1792014868217
 20
297.7454304636226
 30
0.0
 10
202.7844225065223
 20
298.3055785419437
 30
0.0
 10
202.5972786658003
 20
298.9636340100915
 30
0.0
 10
202.6384789374186
 20
299.6466538067374
 30
0.0
 10
202.9034518664211
 20
300.27803384725
 30
0.0
 10
203.362288710197
 20
300.7840065680751
 30
0.0
 10
203.8259691208361
 20
301.0413877521701
 30
0.0
 10
204.1105577862749
 20
301.1161716122978
 30
0.0
 10
204.1785526940467
 20
301.1340392306878
 30
0.0
  0
ARC
  5
7D
330
1F
100
AcDbEntity
  8
0
  6
Continuous
 62
     7
370
    25
100
AcDbCircle
 10
254.3449180832
 20
310.5327510381
 30
0.0
 40
47.0
100
AcDbArc
 50
195.2959975481
 51
241.8468595948
  0
LINE
  5
7E
330
1F
100
AcDbEntity
  8
0
  6
Continuous
 62
     7
370
    25
100
AcDbLine
 10
216.3851433028
 20
338.2465652581
 30
0.0
 11
213.2245328736
 21
340.767067968
 31
0.0
  0
LINE
  5
7F
330
1F
100
AcDbEntity
  8
0
  6
Continuous
 62
     7
370
    25
100
AcDbLine
 10
209.0098531703
 20
298.1338845841
 30
0.0
 11
205.0686364299
 21
297.234327582
 31
0.0
  0
LINE
  5
80
330
1F
100
AcDbEntity
  8
0
  6
Continuous
 62
     7
370
    25
100
AcDbLine
 10
235.7727915841
 20
267.3578032408
 30
0.0
 11
234.018785124
 21
263.7155712968
 31
0.0
  0
LINE
  5
81
330
1F
100
AcDbEntity
  8
0
  6
Continuous
 62
     7
370
    25
100
AcDbLine
 10
276.520920054
 20
269.0933381973
 30
0.0
 11
278.274926514
 21
265.4511062533
 31
0.0
  0
LINE
  5
82
330
1F
100
AcDbEntity
  8
0
  6
Continuous
 62
     7
370
    25
100
AcDbLine
 10
289.8107336562
 20
341.3738911879
 30
0.0
 11
292.9713440854
 21
343.8943938978
 31
0.0
  0
LINE
  5
83
330
1F
100
AcDbEntity
  8
0
  6
Continuous
 62
     7
370
    25
100
AcDbLine
 10
252.3449180832
 20
357.4901785656
 30
0.0
 11
252.3449180832
 21
361.5327510381
 31
0.0
  0
LINE
  5
84
330
1F
100
AcDbEntity
  8
0
  6
Continuous
 62
     7
370
    25
100
AcDbLine
 10
300.570066732
 20
302.0335962329
 30
0.0
 11
304.5112834724
 21
301.1340392307
 31
0.0
  0
LINE
  5
85
330
1F
100
AcDbEntity
  8
0
  6
Continuous
 62
     7
370
    25
100
AcDbLine
 10
303.6211997366
 20
297.234327582
 30
0.0
 11
299.6799829961
 21
298.1338845841
 31
0.0
  0
LINE
  5
86
330
1F
100
AcDbEntity
  8
0
  6
Continuous
 62
     7
370
    25
100
AcDbLine
 10
230.4149096524
 20
265.4511062533
 30
0.0
 11
232.1689161125
 21
269.0933381973
 31
0.0
  0
LINE
  5
87
330
1F
100
AcDbEntity
  8
0
  6
Continuous
 62
     7
370
    25
100
AcDbLine
 10
274.6710510424
 20
263.7155712968
 30
0.0
 11
272.9170445824
 21
267.3578032408
 31
0.0
  0
LINE
  5
88
330
1F
100
AcDbEntity
  8
0
  6
Continuous
 62
     7
370
    25
100
AcDbLine
 10
204.178552694
 20
301.1340392307
 30
0.0
 11
208.1197694345
 21
302.0335962329
 31
0.0
  0
LINE
  5
89
330
1F
100
AcDbEntity
  8
0
  6
Continuous
 62
     7
370
    25
100
AcDbLine
 10
215.7184920811
 20
343.8943938978
 30
0.0
 11
218.8791025102
 21
341.3738911879
 31
0.0
  0
LINE
  5
8A
330
1F
100
AcDbEntity
  8
0
  6
Continuous
 62
     7
370
    25
100
AcDbLine
 10
256.3449180832
 20
361.5327510381
 30
0.0
 11
256.3449180832
 21
357.4901785656
 31
0.0
  0
LINE
  5
8B
330
1F
100
AcDbEntity
  8
0
  6
Continuous
 62
     7
370
    25
100
AcDbLine
 10
295.4653032928
 20
340.767067968
 30
0.0
 11
292.3046928637
 21
338.2465652581
 31
0.0
  0
ARC
  5
8C
330
1F
100
AcDbEntity
  8
0
  6
Continuous
 62
     7
370
    25
100
AcDbCircle
 10
254.3449180832
 20
310.5327510381
 30
0.0
 40
32.28988981635698
100
AcDbArc
 50
93.5511101712
 51
137.8774612573
  0
SPLINE
  5
8D
330
1F
100
AcDbEntity
  8
0
  6
Continuous
 62
     7
370
    25
100
AcDbSpline
210
0.0
220
0.0
230
1.0
 70
    24
 71
     3
 72
    14
 73
    10
 74
     0
 42
0.00000001
 43
0.00000001
 40
0.0
 40
0.0
 40
0.0
 40
0.0
 40
0.1599365945527964
 40
0.3204782349631305
 40
0.4327831140154424
 40
0.5446248701610619
 40
0.6577837919875129
 40
0.7712520390670946
 40
1.0
 40
1.0
 40
1.0
 40
1.0
 10
252.3449180832319
 20
342.7606424421655
 30
0.0
 10
252.3449180832319
 20
343.4616986252317
 30
0.0
 10
252.3449180832319
 20
344.8664631119789
 30
0.0
 10
252.3449180832319
 20
346.477846381395
 30
0.0
 10
252.3449180832319
 20
348.0371724468733
 30
0.0
 10
252.3449180832319
 20
349.6280705654077
 30
0.0
 10
252.3449180832319
 20
351.4672314906125
 30
0.0
 10
252.3449180832318
 20
354.0896498934529
 30
0.0
 10
252.3449180832319
 20
356.1278093624903
 30
0.0
 10
252.344918083232
 20
357.490178565592
 30
0.0
  0
SPLINE
  5
8E
330
1F
100
AcDbEntity
  8
0
  6
Continuous
 62
     7
370
    25
100
AcDbSpline
210
0.0
220
0.0
230
1.0
 70
    24
 71
     3
 72
    13
 73
     9
 74
     0
 42
0.00000001
 43
0.00000001
 40
0.0
 40
0.0
 40
0.0
 40
0.0
 40
0.1649272304776882
 40
0.3291782252302764
 40
0.5219202432988864
 40
0.6820453210982774
 40
0.8413177176944858
 40
1.0
 40
1.0
 40
1.0
 40
1.0
 10
218.8791025102431
 20
341.3738911879466
 30
0.0
 10
219.6446295213884
 20
340.7634037680875
 30
0.0
 10
221.1725447247468
 20
339.5449320529402
 30
0.0
 10
223.5580037872966
 20
337.6425919302883
 30
0.0
 10
225.7334729789857
 20
335.9077131415828
 30
0.0
 10
227.3685558278075
 20
334.6037780810293
 30
0.0
 10
228.7618042268641
 20
333.4926995586787
 30
0.0
 10
229.8513538484878
 20
332.6238127295669
 30
0.0
 10
230.3951175736878
 20
332.1901756288804
 30
0.0
  0
ARC
  5
8F
330
1F
100
AcDbEntity
  8
0
  6
Continuous
 62
     7
370
    25
100
AcDbCircle
 10
254.3449180832
 20
310.5327510381
 30
0.0
 40
32.28988981635698
100
AcDbArc
 50
42.1225387427
 51
86.4488898288
  0
SPLINE
  5
90
330
1F
100
AcDbEntity
  8
0
  6
Continuous
 62
     7
370
    25
100
AcDbSpline
210
0.0
220
0.0
230
1.0
 70
    24
 71
     3
 72
    14
 73
    10
 74
     0
 42
0.00000001
 43
0.00000001
 40
0.0
 40
0.0
 40
0.0
 40
0.0
 40
0.1599365945527159
 40
0.320478234962962
 40
0.4327831140153636
 40
0.5446248701610593
 40
0.6577837919875102
 40
0.7712520390670901
 40
1.0
 40
1.0
 40
1.0
 40
1.0
 10
278.2947185927767
 20
332.1901756288805
 30
0.0
 10
278.8428263876768
 20
332.6272770095522
 30
0.0
 10
279.9411154888685
 20
333.5031333410522
 30
0.0
 10
281.2009456592217
 20
334.50781437642
 30
0.0
 10
282.4200758686443
 20
335.4800382760174
 30
0.0
 10
283.6638901031134
 20
336.4719470287196
 30
0.0
 10
285.101804015764
 20
337.6186451095623
 30
0.0
 10
287.152093283308
 20
339.2536962399398
 30
0.0
 10
288.7455905224919
 20
340.5244678834466
 30
0.0
 10
289.8107336562216
 20
341.3738911879468
 30
0.0
  0
SPLINE
  5
91
330
1F
100
AcDbEntity
  8
0
  6
Continuous
 62
     7
370
    25
100
AcDbSpline
210
0.0
220
0.0
230
1.0
 70
    24
 71
     3
 72
    13
 73
     9
 74
     0
 42
0.00000001
 43
0.00000001
 40
0.0
 40
0.0
 40
0.0
 40
0.0
 40
0.1649272304776938
 40
0.3291782252302868
 40
0.5219202432988932
 40
0.6820453210982806
 40
0.8413177176944862
 40
1.0
 40
1.0
 40
1.0
 40
1.0
 10
256.3449180832318
 20
357.490178565592
 30
0.0
 10
256.3449180832318
 20
356.5110327671537
 30
0.0
 10
256.3449180832318
 20
354.5567558703789
 30
0.0
 10
256.344918083232
 20
351.5056392089984
 30
0.0
 10
256.344918083232
 20
348.7231096735778
 30
0.0
 10
256.3449180832319
 20
346.6317602133843
 30
0.0
 10
256.344918083232
 20
344.8497286243538
 30
0.0
 10
256.3449180832321
 20
343.4561423515366
 30
0.0
 10
256.3449180832321
 20
342.7606424421655
 30
0.0
  0
ARC
  5
92
330
1F
100
AcDbEntity
  8
0
  6
Continuous
 62
     7
370
    25
100
AcDbCircle
 10
254.3449180832
 20
310.5327510381
 30
0.0
 40
32.28988981635715
100
AcDbArc
 50
350.6939673141
 51
35.0203184002
  0
SPLINE
  5
93
330
1F
100
AcDbEntity
  8
0
  6
Continuous
 62
     7
370
    25
100
AcDbSpline
210
0.0
220
0.0
230
1.0
 70
    24
 71
     3
 72
    14
 73
    10
 74
     0
 42
0.00000001
 43
0.00000001
 40
0.0
 40
0.0
 40
0.0
 40
0.0
 40
0.1599365945528046
 40
0.3204782349631471
 40
0.4327831140154664
 40
0.5446248701610937
 40
0.6577837919875008
 40
0.7712520390670564
 40
1.0
 40
1.0
 40
1.0
 40
1.0
 10
286.2098308317368
 20
305.3112263677841
 30
0.0
 10
286.8933100726157
 20
305.1552266911723
 30
0.0
 10
288.2628541807873
 20
304.8426371855927
 30
0.0
 10
289.8338367073638
 20
304.4840706755207
 30
0.0
 10
291.3540672127913
 20
304.137087983088
 30
0.0
 10
292.9050781939876
 20
303.7830798479225
 30
0.0
 10
294.6981275149646
 20
303.3738280411499
 30
0.0
 10
297.2547964133133
 20
302.7902850489255
 30
0.0
 10
299.2418549691552
 20
302.3367519003235
 30
0.0
 10
300.5700667319557
 20
302.0335962328561
 30
0.0
  0
SPLINE
  5
94
330
1F
100
AcDbEntity
  8
0
  6
Continuous
 62
     7
370
    25
100
AcDbSpline
210
0.0
220
0.0
230
1.0
 70
    24
 71
     3
 72
    13
 73
     9
 74
     0
 42
0.00000001
 43
0.00000001
 40
0.0
 40
0.0
 40
0.0
 40
0.0
 40
0.1649272304776748
 40
0.3291782252302488
 40
0.5219202432988059
 40
0.6820453210981636
 40
0.8413177176944318
 40
1.0
 40
1.0
 40
1.0
 40
1.0
 10
292.3046928636565
 20
338.2465652580747
 30
0.0
 10
291.5391658525111
 20
337.6360778382156
 30
0.0
 10
290.0112506491525
 20
336.4176061230684
 30
0.0
 10
287.6257915866023
 20
334.5152660004167
 30
0.0
 10
285.4503223949139
 20
332.7803872117108
 30
0.0
 10
283.8152395460915
 20
331.476452151157
 30
0.0
 10
282.4219911470357
 20
330.3653736288069
 30
0.0
 10
281.3324415254118
 20
329.496486799695
 30
0.0
 10
280.7886778002118
 20
329.0628496990084
 30
0.0
  0
ARC
  5
95
330
1F
100
AcDbEntity
  8
0
  6
Continuous
 62
     7
370
    25
100
AcDbCircle
 10
254.3449180832
 20
310.5327510381
 30
0.0
 40
32.289889816357
100
AcDbArc
 50
144.9796815998
 51
189.3060326859
  0
SPLINE
  5
96
330
1F
100
AcDbEntity
  8
0
  6
Continuous
 62
     7
370
    25
100
AcDbSpline
210
0.0
220
0.0
230
1.0
 70
    24
 71
     3
 72
    14
 73
    10
 74
     0
 42
0.00000001
 43
0.00000001
 40
0.0
 40
0.0
 40
0.0
 40
0.0
 40
0.1599365945527989
 40
0.3204782349631354
 40
0.4327831140154522
 40
0.5446248701610772
 40
0.6577837919875269
 40
0.771252039067106
 40
1.0
 40
1.0
 40
1.0
 40
1.0
 10
227.9011583662528
 20
329.0628496990082
 30
0.0
 10
227.3530505713528
 20
329.49995107968
 30
0.0
 10
226.2547614701608
 20
330.3758074111802
 30
0.0
 10
224.994931299809
 20
331.3804884465468
 30
0.0
 10
223.7758010903851
 20
332.3527123461451
 30
0.0
 10
222.5319868559157
 20
333.3446210988475
 30
0.0
 10
221.0940729432657
 20
334.4913191796898
 30
0.0
 10
219.0437836757217
 20
336.1263703100673
 30
0.0
 10
217.4502864365377
 20
337.3971419535741
 30
0.0
 10
216.385143302808
 20
338.2465652580743
 30
0.0
  0
SPLINE
  5
97
330
1F
100
AcDbEntity
  8
0
  6
Continuous
 62
     7
370
    25
100
AcDbSpline
210
0.0
220
0.0
230
1.0
 70
    24
 71
     3
 72
    13
 73
     9
 74
     0
 42
0.00000001
 43
0.00000001
 40
0.0
 40
0.0
 40
0.0
 40
0.0
 40
0.1649272304777044
 40
0.3291782252303085
 40
0.521920243299045
 40
0.6820453210982664
 40
0.8413177176944815
 40
1.0
 40
1.0
 40
1.0
 40
1.0
 10
208.1197694345092
 20
302.0335962328556
 30
0.0
 10
209.0743660035022
 20
302.2514766704035
 30
0.0
 10
210.9796450982999
 20
302.686344190683
 30
0.0
 10
213.9542638948043
 20
303.3652815197833
 30
0.0
 10
216.6670296053521
 20
303.9844525907656
 30
0.0
 10
218.7059445682253
 20
304.4498216258776
 30
0.0
 10
220.4432969047592
 20
304.8463609594079
 30
0.0
 10
221.8019430601622
 20
305.156463078384
 30
0.0
 10
222.480005334728
 20
305.3112263677838
 30
0.0
  0
ARC
  5
98
330
1F
100
AcDbEntity
  8
0
  6
Continuous
 62
     7
370
    25
100
AcDbCircle
 10
254.3449180832
 20
310.5327510381
 30
0.0
 40
32.2898898163571
100
AcDbArc
 50
299.2653958855
 51
343.5917469716
  0
SPLINE
  5
99
330
1F
100
AcDbEntity
  8
0
  6
Continuous
 62
     7
370
    25
100
AcDbSpline
210
0.0
220
0.0
230
1.0
 70
    24
 71
     3
 72
    14
 73
    10
 74
     0
 42
0.00000001
 43
0.00000001
 40
0.0
 40
0.0
 40
0.0
 40
0.0
 40
0.1599365945527917
 40
0.3204782349631216
 40
0.4327831140154369
 40
0.5446248701610606
 40
0.6577837919875125
 40
0.7712520390670937
 40
1.0
 40
1.0
 40
1.0
 40
1.0
 10
270.1300138453096
 20
282.3641916831252
 30
0.0
 10
270.4341907233498
 20
281.732561887532
 30
0.0
 10
271.0436951914391
 20
280.4669128182379
 30
0.0
 10
271.7428481895246
 20
279.0151066582351
 30
0.0
 10
272.419414413318
 20
277.6102024183305
 30
0.0
 10
273.109679237543
 20
276.1768527415265
 30
0.0
 10
273.9076612566098
 20
274.5198260048543
 30
0.0
 10
275.045485958765
 20
272.1571086652809
 30
0.0
 10
275.9298102101088
 20
270.3207904358575
 30
0.0
 10
276.520920054009
 20
269.093338197274
 30
0.0
  0
SPLINE
  5
9A
330
1F
100
AcDbEntity
  8
0
  6
Continuous
 62
     7
370
    25
100
AcDbSpline
210
0.0
220
0.0
230
1.0
 70
    24
 71
     3
 72
    13
 73
     9
 74
     0
 42
0.00000001
 43
0.00000001
 40
0.0
 40
0.0
 40
0.0
 40
0.0
 40
0.1649272304777296
 40
0.3291782252303765
 40
0.5219202432988566
 40
0.682045321098262
 40
0.841317717694478
 40
1.0
 40
1.0
 40
1.0
 40
1.0
 10
299.6799829961306
 20
298.1338845841288
 30
0.0
 10
298.7253864271374
 20
298.3517650216767
 30
0.0
 10
296.8201073323391
 20
298.7866325419563
 30
0.0
 10
293.845488535838
 20
299.4655698710558
 30
0.0
 10
291.1327228252838
 20
300.0847409420393
 30
0.0
 10
289.0938078624159
 20
300.5501099771503
 30
0.0
 10
287.3564555258802
 20
300.946649310681
 30
0.0
 10
285.9978093704773
 20
301.256751429657
 30
0.0
 10
285.3197470959116
 20
301.4115147190568
 30
0.0
  0
ARC
  5
9B
330
1F
100
AcDbEntity
  8
0
  6
Continuous
 62
     7
370
    25
100
AcDbCircle
 10
254.3449180832
 20
310.5327510381
 30
0.0
 40
32.28988981635698
100
AcDbArc
 50
196.4082530284
 51
240.7346041145
  0
SPLINE
  5
9C
330
1F
100
AcDbEntity
  8
0
  6
Continuous
 62
     7
370
    25
100
AcDbSpline
210
0.0
220
0.0
230
1.0
 70
    24
 71
     3
 72
    14
 73
    10
 74
     0
 42
0.00000001
 43
0.00000001
 40
0.0
 40
0.0
 40
0.0
 40
0.0
 40
0.1599365945528085
 40
0.3204782349631548
 40
0.4327831140153887
 40
0.5446248701609447
 40
0.6577837919874553
 40
0.7712520390670764
 40
1.0
 40
1.0
 40
1.0
 40
1.0
 10
223.3700890705533
 20
301.4115147190565
 30
0.0
 10
222.6866098296744
 20
301.2555150424447
 30
0.0
 10
221.3170657215027
 20
300.942925536865
 30
0.0
 10
219.746083194927
 20
300.5843590267932
 30
0.0
 10
218.2258526894987
 20
300.2373763343603
 30
0.0
 10
216.6748417083009
 20
299.8833681991945
 30
0.0
 10
214.8817923873261
 20
299.4741163924223
 30
0.0
 10
212.3251234889778
 20
298.890573400198
 30
0.0
 10
210.3380649331352
 20
298.4370402515958
 30
0.0
 10
209.0098531703345
 20
298.1338845841284
 30
0.0
  0
SPLINE
  5
9D
330
1F
100
AcDbEntity
  8
0
  6
Continuous
 62
     7
370
    25
100
AcDbSpline
210
0.0
220
0.0
230
1.0
 70
    24
 71
     3
 72
    13
 73
     9
 74
     0
 42
0.00000001
 43
0.00000001
 40
0.0
 40
0.0
 40
0.0
 40
0.0
 40
0.1649272304776876
 40
0.3291782252302561
 40
0.5219202432988767
 40
0.6820453210982679
 40
0.8413177176944817
 40
1.0
 40
1.0
 40
1.0
 40
1.0
 10
232.1689161124562
 20
269.0933381972738
 30
0.0
 10
232.5937515526238
 20
269.975518078804
 30
0.0
 10
233.4416805198674
 20
271.7362607220589
 30
0.0
 10
234.7655104253915
 20
274.4852218463014
 30
0.0
 10
235.9728047444244
 20
276.9921943317343
 30
0.0
 10
236.8802072680146
 20
278.8764350872732
 30
0.0
 10
237.653401797089
 20
280.4819900706083
 30
0.0
 10
238.2580562199217
 20
281.7375679171528
 30
0.0
 10
238.5598223211555
 20
282.3641916831252
 30
0.0
  0
ARC
  5
9E
330
1F
100
AcDbEntity
  8
0
  6
Continuous
 62
     7
370
    25
100
AcDbCircle
 10
254.3449180832
 20
310.5327510381
 30
0.0
 40
32.28988981635712
100
AcDbArc
 50
247.836824457
 51
292.163175543
  0
SPLINE
  5
9F
330
1F
100
AcDbEntity
  8
0
  6
Continuous
 62
     7
370
    25
100
AcDbSpline
210
0.0
220
0.0
230
1.0
 70
    24
 71
     3
 72
    14
 73
    10
 74
     0
 42
0.00000001
 43
0.00000001
 40
0.0
 40
0.0
 40
0.0
 40
0.0
 40
0.159936594552795
 40
0.3204782349631281
 40
0.4327831140154429
 40
0.5446248701610659
 40
0.657783791987516
 40
0.7712520390670953
 40
0.9999999999999999
 40
0.9999999999999999
 40
0.9999999999999999
 40
0.9999999999999999
 10
242.1636977927652
 20
280.6286567266548
 30
0.0
 10
241.8595209147249
 20
279.9970269310617
 30
0.0
 10
241.2500164466355
 20
278.7313778617676
 30
0.0
 10
240.5508634485498
 20
277.2795717017648
 30
0.0
 10
239.8742972247566
 20
275.8746674618601
 30
0.0
 10
239.1840324005319
 20
274.441317785056
 30
0.0
 10
238.3860503814651
 20
272.7842910483839
 30
0.0
 10
237.24822567931
 20
270.4215737088104
 30
0.0
 10
236.3639014279662
 20
268.5852554793872
 30
0.0
 10
235.7727915840659
 20
267.3578032408036
 30
0.0
  0
SPLINE
  5
A0
330
1F
100
AcDbEntity
  8
0
  6
Continuous
 62
     7
370
    25
100
AcDbSpline
210
0.0
220
0.0
230
1.0
 70
    24
 71
     3
 72
    13
 73
     9
 74
     0
 42
0.00000001
 43
0.00000001
 40
0.0
 40
0.0
 40
0.0
 40
0.0
 40
0.1649272304776899
 40
0.3291782252302799
 40
0.5219202432988981
 40
0.6820453210982772
 40
0.8413177176944856
 40
1.0
 40
1.0
 40
1.0
 40
1.0
 10
272.9170445823994
 20
267.3578032408037
 30
0.0
 10
272.4922091422317
 20
268.239983122334
 30
0.0
 10
271.644280174988
 20
270.000725765589
 30
0.0
 10
270.3204502694644
 20
272.7496868898311
 30
0.0
 10
269.1131559504309
 20
275.2566593752642
 30
0.0
 10
268.2057534268407
 20
277.1409001308031
 30
0.0
 10
267.4325588977666
 20
278.7464551141382
 30
0.0
 10
266.8279044749337
 20
280.0020329606826
 30
0.0
 10
266.5261383736999
 20
280.6286567266549
 30
0.0
  0
CIRCLE
  5
A1
330
1F
100
AcDbEntity
  8
0
  6
Continuous
 62
     7
370
    25
100
AcDbCircle
 10
254.3449180832
 20
310.5327510381
 30
0.0
 40
57.0
  0
SPLINE
  5
A2
330
1F
100
AcDbEntity
  8
0
  6
Continuous
 62
     7
370
    25
100
AcDbSpline
210
0.0
220
0.0
230
1.0
 70
     8
 71
     3
 72
    17
 73
    13
 74
     0
 42
0.00000001
 43
0.00000001
 40
0.0
 40
0.0
 40
0.0
 40
0.0
 40
0.1455223921505235
 40
0.2624588275806584
 40
0.3598828361521619
 40
0.4578119450663652
 40
0.5434089571657315
 40
0.6239661829574848
 40
0.7083342836253014
 40
0.803399929861135
 40
0.9148734637124004
 40
1.0
 40
1.0
 40
1.0
 40
1.0
 10
231.3551217304409
 20
331.4245978606531
 30
0.0
 10
231.550462479795
 20
331.2281917328598
 30
0.0
 10
231.9027718618533
 20
330.8739608734813
 30
0.0
 10
232.1222875518639
 20
330.1619639732893
 30
0.0
 10
232.1087849915544
 20
329.4807349526034
 30
0.0
 10
231.8824271617671
 20
328.8642121627905
 30
0.0
 10
231.4893073543623
 20
328.375361867863
 30
0.0
 10
231.0096734274346
 20
328.0465294020266
 30
0.0
 10
230.4630493093396
 20
327.8643028243183
 30
0.0
 10
229.8574949496486
 20
327.8453805012719
 30
0.0
 10
229.2980601515975
 20
327.9962005265693
 30
0.0
 10
228.9931755490599
 20
328.2063001686856
 30
0.0
 10
228.861162523006
 20
328.2972719307811
 30
0.0
  0
SPLINE
  5
A3
330
1F
100
AcDbEntity
  8
0
  6
Continuous
 62
     7
370
    25
100
AcDbSpline
210
0.0
220
0.0
230
1.0
 70
     8
 71
     3
 72
    17
 73
    13
 74
     0
 42
0.00000001
 43
0.00000001
 40
0.0
 40
0.0
 40
0.0
 40
0.0
 40
0.1455223921505522
 40
0.2624588275807122
 40
0.359882836152227
 40
0.4578119450665004
 40
0.5434089571658675
 40
0.6239661829575243
 40
0.7083342836252892
 40
0.8033999298611221
 40
0.9148734637124066
 40
1.0
 40
1.0
 40
1.0
 40
1.0
 10
256.3449180832321
 20
341.5327510380964
 30
0.0
 10
256.3131545542834
 20
341.2575702727408
 30
0.0
 10
256.2558670231722
 20
340.7612643779525
 30
0.0
 10
255.8360712252517
 20
340.1457172943819
 30
0.0
 10
255.2950462214567
 20
339.7315346739978
 30
0.0
 10
254.6718974962783
 20
339.5241126795669
 30
0.0
 10
254.0445927546652
 20
339.5266729478546
 30
0.0
 10
253.4884543183507
 20
339.6966421630176
 30
0.0
 10
253.0051692798748
 20
340.0103936947919
 30
0.0
 10
252.6128182442573
 20
340.4720372820972
 30
0.0
 10
252.3819321968315
 20
341.0034557672905
 30
0.0
 10
252.3561022710673
 20
341.3728191323078
 30
0.0
 10
252.344918083232
 20
341.5327510380963
 30
0.0
  0
SPLINE
  5
A4
330
1F
100
AcDbEntity
  8
0
  6
Continuous
 62
     7
370
    25
100
AcDbSpline
210
0.0
220
0.0
230
1.0
 70
     8
 71
     3
 72
    17
 73
    13
 74
     0
 42
0.00000001
 43
0.00000001
 40
0.0
 40
0.0
 40
0.0
 40
0.0
 40
0.1455223921506039
 40
0.2624588275804844
 40
0.3598828361520287
 40
0.4578119450662563
 40
0.5434089571656419
 40
0.6239661829573366
 40
0.7083342836251747
 40
0.8033999298610515
 40
0.9148734637123824
 40
1.0
 40
1.0
 40
1.0
 40
1.0
 10
279.8286736434587
 20
328.2972719307813
 30
0.0
 10
279.5937244213637
 20
328.1505332568408
 30
0.0
 10
279.1699786564633
 20
327.885880788214
 30
0.0
 10
278.4269861687173
 20
327.8303030300654
 30
0.0
 10
277.7658415841947
 20
327.9950547709179
 30
0.0
 10
277.2151456636022
 20
328.352926564313
 30
0.0
 10
276.8260292529001
 20
328.8449694615752
 30
0.0
 10
276.612169892901
 20
329.3857500719803
 30
0.0
 10
276.5561474252335
 20
329.9592184104457
 30
0.0
 10
276.6724480460121
 20
330.5538008710488
 30
0.0
 10
276.9439726521404
 20
331.0656488578263
 30
0.0
 10
277.2166478640845
 20
331.316137798247
 30
0.0
 10
277.3347144360237
 20
331.4245978606534
 30
0.0
  0
SPLINE
  5
A5
330
1F
100
AcDbEntity
  8
0
  6
Continuous
 62
     7
370
    25
100
AcDbSpline
210
0.0
220
0.0
230
1.0
 70
     8
 71
     3
 72
    17
 73
    13
 74
     0
 42
0.00000001
 43
0.00000001
 40
0.0
 40
0.0
 40
0.0
 40
0.0
 40
0.1455223921505503
 40
0.2624588275806992
 40
0.359882836152199
 40
0.4578119450664111
 40
0.5434089571657847
 40
0.6239661829574408
 40
0.7083342836252762
 40
0.8033999298610744
 40
0.9148734637123926
 40
0.9999999999999999
 40
0.9999999999999999
 40
0.9999999999999999
 40
0.9999999999999999
 10
284.1226414929564
 20
301.6847462610871
 30
0.0
 10
283.8614281340431
 20
301.7769468929624
 30
0.0
 10
283.3903133391606
 20
301.943236557299
 30
0.0
 10
282.8836126591496
 20
302.4894793100385
 30
0.0
 10
282.6002038509349
 20
303.1091039909427
 30
0.0
 10
282.5366459952838
 20
303.7627848124832
 30
0.0
 10
282.6787305092791
 20
304.3737920012352
 30
0.0
 10
282.9681906856113
 20
304.8781651773334
 30
0.0
 10
283.3816168495564
 20
305.2795169670033
 30
0.0
 10
283.9189923871842
 20
305.5593055807985
 30
0.0
 10
284.4884640803595
 20
305.6661510953201
 30
0.0
 10
284.8543144338574
 20
305.6091423299642
 30
0.0
 10
285.0127252287817
 20
305.5844579098145
 30
0.0
  0
SPLINE
  5
A6
330
1F
100
AcDbEntity
  8
0
  6
Continuous
 62
     7
370
    25
100
AcDbSpline
210
0.0
220
0.0
230
1.0
 70
     8
 71
     3
 72
    17
 73
    13
 74
     0
 42
0.00000001
 43
0.00000001
 40
0.0
 40
0.0
 40
0.0
 40
0.0
 40
0.1455223921505484
 40
0.2624588275807027
 40
0.3598828361522134
 40
0.4578119450664151
 40
0.5434089571657832
 40
0.6239661829574344
 40
0.7083342836252652
 40
0.8033999298611092
 40
0.914873463712409
 40
1.0
 40
1.0
 40
1.0
 40
1.0
 10
265.9933762600721
 20
281.7349486548862
 30
0.0
 10
265.9025977513838
 20
281.996659636225
 30
0.0
 10
265.7388729760573
 20
282.468671924589
 30
0.0
 10
265.8500200506372
 20
283.2054032540819
 30
0.0
 10
266.1577596318035
 20
283.8133108522768
 30
0.0
 10
266.629200202743
 20
284.270565710684
 30
0.0
 10
267.1954931044018
 20
284.5404363155204
 30
0.0
 10
267.7703034003749
 20
284.6285987683718
 30
0.0
 10
268.3418598621252
 20
284.5556079255404
 30
0.0
 10
268.8956555763057
 20
284.3099161596919
 30
0.0
 10
269.3342505564614
 20
283.9313023502718
 30
0.0
 10
269.5177832733418
 20
283.6097246422192
 30
0.0
 10
269.5972517316819
 20
283.4704836113565
 30
0.0
  0
SPLINE
  5
A7
330
1F
100
AcDbEntity
  8
0
  6
Continuous
 62
     7
370
    25
100
AcDbSpline
210
0.0
220
0.0
230
1.0
 70
     8
 71
     3
 72
    17
 73
    13
 74
     0
 42
0.00000001
 43
0.00000001
 40
0.0
 40
0.0
 40
0.0
 40
0.0
 40
0.1455223921505426
 40
0.2624588275807018
 40
0.3598828361522057
 40
0.4578119450664347
 40
0.5434089571657903
 40
0.6239661829574433
 40
0.7083342836252703
 40
0.8033999298611099
 40
0.9148734637123969
 40
1.0
 40
1.0
 40
1.0
 40
1.0
 10
239.0925844347833
 20
283.4704836113564
 30
0.0
 10
239.2405988449066
 20
283.7046312352795
 30
0.0
 10
239.5075521843336
 20
284.1269312672368
 30
0.0
 10
240.1528509993586
 20
284.4993774557946
 30
0.0
 10
240.8200047885444
 20
284.6378011507841
 30
0.0
 10
241.4714394205219
 20
284.5543078113782
 30
0.0
 10
242.0355106046249
 20
284.2798237625001
 30
0.0
 10
242.4628271433783
 20
283.8853873669212
 30
0.0
 10
242.7621202296087
 20
283.3930174849825
 30
0.0
 10
242.9153166521897
 20
282.8068562503731
 30
0.0
 10
242.8927639535614
 20
282.2278870378188
 30
0.0
 10
242.7557751546283
 20
281.8838949602228
 30
0.0
 10
242.696459906393
 20
281.7349486548861
 30
0.0
  0
SPLINE
  5
A8
330
1F
100
AcDbEntity
  8
0
  6
Continuous
 62
     7
370
    25
100
AcDbSpline
210
0.0
220
0.0
230
1.0
 70
     8
 71
     3
 72
    17
 73
    13
 74
     0
 42
0.00000001
 43
0.00000001
 40
0.0
 40
0.0
 40
0.0
 40
0.0
 40
0.1455223921505464
 40
0.2624588275806979
 40
0.3598828361522062
 40
0.4578119450664272
 40
0.5434089571657919
 40
0.6239661829574518
 40
0.7083342836252867
 40
0.8033999298611213
 40
0.914873463712417
 40
1.0
 40
1.0
 40
1.0
 40
1.0
 10
223.6771109376833
 20
305.5844579098141
 30
0.0
 10
223.9524603968514
 20
305.6147242397663
 30
0.0
 10
224.4490705415877
 20
305.6693114779024
 30
0.0
 10
225.142597927647
 20
305.3970129490233
 30
0.0
 10
225.6667855141382
 20
304.9617168751518
 30
0.0
 10
226.0076706424297
 20
304.400347525459
 30
0.0
 10
226.1447630023922
 20
303.7882009101259
 30
0.0
 10
226.1028077145758
 20
303.2081843170238
 30
0.0
 10
225.9044636268883
 20
302.6671999595928
 30
0.0
 10
225.541700727029
 20
302.1819606213935
 30
0.0
 10
225.0749829916752
 20
301.838611631578
 30
0.0
 10
224.7206280365875
 20
301.731238235028
 30
0.0
 10
224.5671946735086
 20
301.6847462610869
 30
0.0
  0
SPLINE
  5
A9
330
1F
100
AcDbEntity
  8
0
  6
Continuous
 62
     7
370
    25
100
AcDbSpline
210
0.0
220
0.0
230
1.0
 70
    11
 71
     3
 72
    26
 73
    22
 74
     0
 42
0.00000001
 43
0.00000001
 40
0.0
 40
0.0
 40
0.0
 40
0.0
 40
0.053597216420006
 40
0.1071921782484024
 40
0.1608597534174754
 40
0.2147094977664095
 40
0.2686478624799135
 40
0.3224381663529065
 40
0.375932988174163
 40
0.4292427722145565
 40
0.4826449979174873
 40
0.5363313024995326
 40
0.5902427041024056
 40
0.6441475424480664
 40
0.6978798079300921
 40
0.7514722617449119
 40
0.8050492353698474
 40
0.8586625397260927
 40
0.9122900741654438
 40
0.9659177767677222
 40
1.0
 40
1.0
 40
1.0
 40
1.0
 10
238.9438907998435
 20
305.8146604580508
 30
0.0
 10
238.8258707619497
 20
305.6932316282566
 30
0.0
 10
238.5898356507295
 20
305.450379076628
 30
0.0
 10
238.1086152505745
 20
305.2606551194374
 30
0.0
 10
237.5987997229935
 20
305.2306570652289
 30
0.0
 10
237.1049722410992
 20
305.3738587832616
 30
0.0
 10
236.6863829567003
 20
305.6724924559043
 30
0.0
 10
236.3907005932637
 20
306.0930584195677
 30
0.0
 10
236.2514444565628
 20
306.5862173418819
 30
0.0
 10
236.2825088198518
 20
307.0961306410795
 30
0.0
 10
236.4795673818621
 20
307.5672609458727
 30
0.0
 10
236.821832554149
 20
307.9481470923142
 30
0.0
 10
237.2723918726851
 20
308.1951464988724
 30
0.0
 10
237.7801403303107
 20
308.2787355666349
 30
0.0
 10
238.2863906845969
 20
308.1892009415417
 30
0.0
 10
238.733746651157
 20
307.9374316917351
 30
0.0
 10
239.072301966261
 20
307.5522584308541
 30
0.0
 10
239.264887978303
 20
307.0761549813345
 30
0.0
 10
239.2873255286964
 20
306.5648584063675
 30
0.0
 10
239.1629136677506
 20
306.128267460683
 30
0.0
 10
239.0051819941789
 20
305.9024200053846
 30
0.0
 10
238.9438907998435
 20
305.8146604580508
 30
0.0
  0
SPLINE
  5
AA
330
1F
100
AcDbEntity
  8
0
  6
Continuous
 62
     7
370
    25
100
AcDbSpline
210
0.0
220
0.0
230
1.0
 70
    11
 71
     3
 72
    26
 73
    22
 74
     0
 42
0.00000001
 43
0.00000001
 40
0.0
 40
0.0
 40
0.0
 40
0.0
 40
0.0535972164200022
 40
0.1071921782483979
 40
0.1608597534174696
 40
0.2147094977664167
 40
0.2686478624799081
 40
0.3224381663529219
 40
0.3759329881741673
 40
0.4292427722145561
 40
0.4826449979174803
 40
0.5363313024995076
 40
0.5902427041024096
 40
0.6441475424480692
 40
0.6978798079300971
 40
0.7514722617449178
 40
0.8050492353698602
 40
0.8586625397261016
 40
0.9122900741654537
 40
0.9659177767677211
 40
1.0
 40
1.0
 40
1.0
 40
1.0
 10
262.3717672569073
 20
296.5677335856089
 30
0.0
 10
262.5164135414749
 20
296.4796930130845
 30
0.0
 10
262.8057000259975
 20
296.303615571503
 30
0.0
 10
263.0977488203536
 20
295.8766779236287
 30
0.0
 10
263.2404393880552
 20
295.3863197307656
 30
0.0
 10
263.2107149885571
 20
294.8730081548235
 30
0.0
 10
263.012713564089
 20
294.3984615339755
 30
0.0
 10
262.6684875828663
 20
294.0166078136966
 30
0.0
 10
262.2186805899585
 20
293.7711049351022
 30
0.0
 10
261.7146394106462
 20
293.6879240663725
 30
0.0
 10
261.2114716709659
 20
293.775205603373
 30
0.0
 10
260.763973969639
 20
294.0241343321663
 30
0.0
 10
260.4229084735295
 20
294.4084346492666
 30
0.0
 10
260.2284304972088
 20
294.8848524755462
 30
0.0
 10
260.2030690006674
 20
295.3983334048888
 30
0.0
 10
260.3489798022432
 20
295.8904971519778
 30
0.0
 10
260.6491603203892
 20
296.3062732922365
 30
0.0
 10
261.0704724431455
 20
296.5999737551188
 30
0.0
 10
261.5639569208145
 20
296.7356229406687
 30
0.0
 10
262.017285863461
 20
296.7114809698166
 30
0.0
 10
262.2725694508443
 20
296.6079597453012
 30
0.0
 10
262.3717672569073
 20
296.5677335856089
 30
0.0
  0
SPLINE
  5
AB
330
1F
100
AcDbEntity
  8
0
  6
Continuous
 62
     7
370
    25
100
AcDbSpline
210
0.0
220
0.0
230
1.0
 70
    11
 71
     3
 72
    26
 73
    22
 74
     0
 42
0.00000001
 43
0.00000001
 40
0.0
 40
0.0
 40
0.0
 40
0.0
 40
0.0535972164200122
 40
0.1071921782484008
 40
0.1608597534174765
 40
0.2147094977664261
 40
0.2686478624799056
 40
0.3224381663529229
 40
0.3759329881741636
 40
0.4292427722145633
 40
0.4826449979174888
 40
0.5363313024995331
 40
0.5902427041024135
 40
0.6441475424480729
 40
0.6978798079301041
 40
0.751472261744916
 40
0.8050492353698633
 40
0.8586625397261021
 40
0.9122900741654514
 40
0.9659177767677302
 40
1.0
 40
1.0
 40
1.0
 40
1.0
 10
266.173661416916
 20
321.4658590706293
 30
0.0
 10
266.2273078021392
 20
321.6264696412719
 30
0.0
 10
266.3345983159256
 20
321.9476840263991
 30
0.0
 10
266.6858447751188
 20
322.3274131118821
 30
0.0
 10
267.1321570259162
 20
322.5756410921887
 30
0.0
 10
267.6392131100858
 20
322.6608845167343
 30
0.0
 10
268.1459213182794
 20
322.5734439586454
 30
0.0
 10
268.5947986553836
 20
322.3228188879246
 30
0.0
 10
268.9342377364081
 20
321.9389190252778
 30
0.0
 10
269.127492801065
 20
321.4660246952743
 30
0.0
 10
269.1543649497956
 20
320.95605045222
 30
0.0
 10
269.0112549903939
 20
320.4643805993393
 30
0.0
 10
268.7124840973269
 20
320.0463514618195
 30
0.0
 10
268.2912864815508
 20
319.7507365147426
 30
0.0
 10
267.7963230550585
 20
319.6117506279036
 30
0.0
 10
267.2840306728165
 20
319.6444864043868
 30
0.0
 10
266.8118824592058
 20
319.8446218751736
 30
0.0
 10
266.4317949130781
 20
320.1900163220852
 30
0.0
 10
266.189736108957
 20
320.6409433301343
 30
0.0
 10
266.1123976104886
 20
321.0882784636217
 30
0.0
 10
266.1565173994837
 20
321.3601971980472
 30
0.0
 10
266.173661416916
 20
321.4658590706293
 30
0.0
  0
SPLINE
  5
AC
330
1F
100
AcDbEntity
  8
0
  6
Continuous
 62
     7
370
    25
100
AcDbSpline
210
0.0
220
0.0
230
1.0
 70
    11
 71
     3
 72
    26
 73
    22
 74
     0
 42
0.00000001
 43
0.00000001
 40
0.0
 40
0.0
 40
0.0
 40
0.0
 40
0.0564885541921545
 40
0.1128994301864228
 40
0.1712256558509883
 40
0.2300375349560456
 40
0.2867064896556229
 40
0.3395363008405528
 40
0.3890615100952419
 40
0.4374690463182292
 40
0.4871682267512712
 40
0.5398630249433024
 40
0.596030584783478
 40
0.6545948261962924
 40
0.7132408736153678
 40
0.7696720731030094
 40
0.8229238449447209
 40
0.8735646339154319
 40
0.9230009993634473
 40
0.9728027922198573
 40
1.0
 40
1.0
 40
1.0
 40
1.0
 10
231.7284796733367
 20
304.5687588212861
 30
0.0
 10
231.6459148345208
 20
304.4847235376539
 30
0.0
 10
231.4808986929493
 20
304.316768528479
 30
0.0
 10
231.1466604927998
 20
304.192885377191
 30
0.0
 10
230.7908219956576
 20
304.1824037737384
 30
0.0
 10
230.4471006825431
 20
304.300849201414
 30
0.0
 10
230.1696097477261
 20
304.5304070347086
 30
0.0
 10
229.9944001490637
 20
304.8305369993657
 30
0.0
 10
229.9303691564018
 20
305.1553958812379
 30
0.0
 10
229.9699183735786
 20
305.4736246016245
 30
0.0
 10
230.1057148655062
 20
305.7644509246902
 30
0.0
 10
230.3324993609083
 20
306.0049640651158
 30
0.0
 10
230.6379237172416
 20
306.1648691914949
 30
0.0
 10
230.9922975001768
 20
306.2129283216363
 30
0.0
 10
231.3469941535603
 20
306.1323488410574
 30
0.0
 10
231.6478483651714
 20
305.9339532244405
 30
0.0
 10
231.8555680124054
 20
305.6530903144097
 30
0.0
 10
231.9550324863092
 20
305.3311740803824
 30
0.0
 10
231.9456369866956
 20
305.004431651691
 30
0.0
 10
231.8553638771627
 20
304.7455608678329
 30
0.0
 10
231.7615988828349
 20
304.6149075446317
 30
0.0
 10
231.7284796733367
 20
304.5687588212861
 30
0.0
  0
SPLINE
  5
AD
330
1F
100
AcDbEntity
  8
0
  6
Continuous
 62
     7
370
    25
100
AcDbSpline
210
0.0
220
0.0
230
1.0
 70
    11
 71
     3
 72
    26
 73
    22
 74
     0
 42
0.00000001
 43
0.00000001
 40
0.0
 40
0.0
 40
0.0
 40
0.0
 40
0.0564885541921689
 40
0.1128994301866663
 40
0.1712256558512583
 40
0.2300375349561455
 40
0.2867064896555685
 40
0.3395363008405291
 40
0.3890615100952562
 40
0.4374690463182553
 40
0.4871682267513183
 40
0.5398630249433521
 40
0.5960305847835494
 40
0.6545948261961616
 40
0.7132408736152553
 40
0.7696720731029311
 40
0.8229238449446606
 40
0.8735646339154018
 40
0.9230009993634228
 40
0.9728027922198397
 40
1.0
 40
1.0
 40
1.0
 40
1.0
 10
265.1920115611715
 20
289.8104670763407
 30
0.0
 10
265.2923123098378
 20
289.7486719202134
 30
0.0
 10
265.4927758822141
 20
289.6251665833384
 30
0.0
 10
265.6879280207138
 20
289.3268750272227
 30
0.0
 10
265.7773283432065
 20
288.9822905203195
 30
0.0
 10
265.7383377773101
 20
288.6208304309624
 30
0.0
 10
265.5762829801509
 20
288.2992153497698
 30
0.0
 10
265.3226657038573
 20
288.0616134215084
 30
0.0
 10
265.020199948689
 20
287.9268999177194
 30
0.0
 10
264.7011493579829
 20
287.8946450013777
 30
0.0
 10
264.3873970958173
 20
287.9623218467069
 30
0.0
 10
264.1024498242461
 20
288.1299011726881
 30
0.0
 10
263.8785905402144
 20
288.3920856646706
 30
0.0
 10
263.7528807676552
 20
288.7268803944769
 30
0.0
 10
263.7525125218389
 20
289.0906146834932
 30
0.0
 10
263.878987585981
 20
289.4280730297928
 30
0.0
 10
264.1065867065628
 20
289.6930825888437
 30
0.0
 10
264.3982989008721
 20
289.8616863817742
 30
0.0
 10
264.7189399100463
 20
289.9252334773477
 30
0.0
 10
264.9914079195224
 20
289.8948278717426
 30
0.0
 10
265.1396501652408
 20
289.8324868610902
 30
0.0
 10
265.1920115611715
 20
289.8104670763408
 30
0.0
  0
SPLINE
  5
AE
330
1F
100
AcDbEntity
  8
0
  6
Continuous
 62
     7
370
    25
100
AcDbSpline
210
0.0
220
0.0
230
1.0
 70
    11
 71
     3
 72
    26
 73
    22
 74
     0
 42
0.00000001
 43
0.00000001
 40
0.0
 40
0.0
 40
0.0
 40
0.0
 40
0.056488554192179
 40
0.112899430186437
 40
0.1712256558510602
 40
0.2300375349559717
 40
0.286706489655541
 40
0.3395363008404897
 40
0.3890615100952178
 40
0.4374690463182183
 40
0.4871682267512825
 40
0.5398630249433398
 40
0.5960305847835591
 40
0.6545948261961185
 40
0.7132408736152436
 40
0.769672073102922
 40
0.8229238449446299
 40
0.8735646339154014
 40
0.9230009993634156
 40
0.9728027922198387
 40
1.0
 40
1.0
 40
1.0
 40
1.0
 10
272.1339457502832
 20
325.7190272166624
 30
0.0
 10
272.1718725565595
 20
325.8305639320053
 30
0.0
 10
272.2476740154326
 20
326.0534839869999
 30
0.0
 10
272.4950613433363
 20
326.310119369605
 30
0.0
 10
272.8111129539639
 20
326.4739555056633
 30
0.0
 10
273.1721867013576
 20
326.5163749513309
 30
0.0
 10
273.5217988058055
 20
326.4299492945189
 30
0.0
 10
273.8098787108447
 20
326.2355621358352
 30
0.0
 10
274.0085196281663
 20
325.9706564033223
 30
0.0
 10
274.1109612818361
 20
325.6667824711537
 30
0.0
 10
274.1147976827243
 20
325.3458371184284
 30
0.0
 10
274.0148266533189
 20
325.0307441617444
 30
0.0
 10
273.8090290509012
 20
324.7541559593163
 30
0.0
 10
273.5106013799593
 20
324.5570991572538
 30
0.0
 10
273.1560686113826
 20
324.4758016504253
 30
0.0
 10
272.7989277009814
 20
324.5240141742624
 30
0.0
 10
272.4899169159882
 20
324.6869367351184
 30
0.0
 10
272.2606283022363
 20
324.9338172222028
 30
0.0
 10
272.1273251281975
 20
325.2322785327797
 30
0.0
 10
272.0963385658467
 20
325.5046810841513
 30
0.0
 10
272.1241295542364
 20
325.6630787671808
 30
0.0
 10
272.1339457502832
 20
325.7190272166624
 30
0.0
  0
SPLINE
  5
AF
330
1F
100
AcDbEntity
  8
0
  6
Continuous
 62
     7
370
    25
100
AcDbSpline
210
0.0
220
0.0
230
1.0
 70
     8
 71
     3
 72
    22
 73
    18
 74
     0
 42
0.00000001
 43
0.00000001
 40
0.0
 40
0.0
 40
0.0
 40
0.0
 40
0.040087043706263
 40
0.1145405048297186
 40
0.1899458988790723
 40
0.2645230718435744
 40
0.3378039402279016
 40
0.4101189344195369
 40
0.4819138698798583
 40
0.553489553990909
 40
0.6250159168352235
 40
0.6966240954355702
 40
0.768504048046597
 40
0.8409815102084728
 40
0.9144884530018441
 40
0.9892623637057752
 40
1.0
 40
1.0
 40
1.0
 40
1.0
 10
259.3459843249606
 20
303.3821715874105
 30
0.0
 10
259.4630207867726
 20
303.3443501688561
 30
0.0
 10
259.7974284701544
 20
303.236283223178
 30
0.0
 10
260.2383200505394
 20
302.8342612599604
 30
0.0
 10
260.5950512730956
 20
302.2404477505406
 30
0.0
 10
260.7231165104701
 20
301.5507704489692
 30
0.0
 10
260.6138986407238
 20
300.8659935452405
 30
0.0
 10
260.2849927407216
 20
300.2617578040371
 30
0.0
 10
259.7777216638915
 20
299.8035311431322
 30
0.0
 10
259.1496808986027
 20
299.5391809157711
 30
0.0
 10
258.4709559879404
 20
299.4964296594147
 30
0.0
 10
257.8163029918474
 20
299.6792124814089
 30
0.0
 10
257.2596340988209
 20
300.0662362479968
 30
0.0
 10
256.8548469610556
 20
300.6180115114835
 30
0.0
 10
256.6737910219045
 20
301.2680814430611
 30
0.0
 10
256.650743521672
 20
301.7746147396688
 30
0.0
 10
256.7550724726541
 20
302.0147046658861
 30
0.0
 10
256.7681729996581
 20
302.0448526212924
 30
0.0
  0
SPLINE
  5
B0
330
1F
100
AcDbEntity
  8
0
  6
Continuous
 62
     7
370
    25
100
AcDbSpline
210
0.0
220
0.0
230
1.0
 70
     8
 71
     3
 72
    22
 73
    18
 74
     0
 42
0.00000001
 43
0.00000001
 40
0.0
 40
0.0
 40
0.0
 40
0.0
 40
0.0269170724873085
 40
0.1027079059254583
 40
0.1794677714105302
 40
0.2553845388670358
 40
0.3299817168371585
 40
0.4035956710732289
 40
0.4766802250089287
 40
0.5495415892870544
 40
0.6223527463638237
 40
0.6952471888144108
 40
0.7684182870236645
 40
0.8421976275653347
 40
0.9170249408122061
 40
0.9931419799152476
 40
1.0
 40
1.0
 40
1.0
 40
1.0
 10
263.1608874644574
 20
310.0480597614064
 30
0.0
 10
263.2289304672137
 20
310.0919687672053
 30
0.0
 10
263.4885632459741
 20
310.2595130660513
 30
0.0
 10
264.0393893550709
 20
310.3381017263859
 30
0.0
 10
264.7247103107501
 20
310.249765549884
 30
0.0
 10
265.3441297445686
 20
309.9190891815502
 30
0.0
 10
265.8113192931164
 20
309.4069559282634
 30
0.0
 10
266.0786849979917
 20
308.7730173756612
 30
0.0
 10
266.1206566186053
 20
308.0907320543149
 30
0.0
 10
265.9357568404461
 20
307.434885147596
 30
0.0
 10
265.5460094692211
 20
306.8775876941678
 30
0.0
 10
264.9949090340497
 20
306.4797036529503
 30
0.0
 10
264.345340923887
 20
306.2858579682577
 30
0.0
 10
263.6611993293802
 20
306.3131435567115
 30
0.0
 10
263.0414614908676
 20
306.577911577121
 30
0.0
 10
262.6377067607831
 20
306.8655442553473
 30
0.0
 10
262.5194639252451
 20
307.085028559945
 30
0.0
 10
262.5096909675764
 20
307.1031692854106
 30
0.0
  0
SPLINE
  5
B1
330
1F
100
AcDbEntity
  8
0
  6
Continuous
 62
     7
370
    25
100
AcDbSpline
210
0.0
220
0.0
230
1.0
 70
     8
 71
     3
 72
    22
 73
    18
 74
     0
 42
0.00000001
 43
0.00000001
 40
0.0
 40
0.0
 40
0.0
 40
0.0
 40
0.0149179722308104
 40
0.0907526252646092
 40
0.1675568706055689
 40
0.2435175304683711
 40
0.3181578379045351
 40
0.3918143531412635
 40
0.4649411619969377
 40
0.5378446521546201
 40
0.6106979060829288
 40
0.6836344935376855
 40
0.7568478967037944
 40
0.8306698938665965
 40
0.9055404696356196
 40
0.9817015169349539
 40
1.0
 40
1.0
 40
1.0
 40
1.0
 10
260.2353633733492
 20
317.229977429167
 30
0.0
 10
260.2404486718353
 20
317.2744559459665
 30
0.0
 10
260.2713847924241
 20
317.5450384423655
 30
0.0
 10
260.5443831090911
 20
317.9901052990477
 30
0.0
 10
261.0370933194082
 20
318.4717543097353
 30
0.0
 10
261.6827950606041
 20
318.7496184816242
 30
0.0
 10
262.3742317965891
 20
318.7956359052604
 30
0.0
 10
263.0366311790537
 20
318.6094002532607
 30
0.0
 10
263.5962145364665
 20
318.2168199204714
 30
0.0
 10
263.9936981234529
 20
317.6633502420846
 30
0.0
 10
264.1864050612715
 20
317.0111427721808
 30
0.0
 10
264.1538818727939
 20
316.332279703581
 30
0.0
 10
263.900423424183
 20
315.7032605624811
 30
0.0
 10
263.4525880848516
 20
315.1865452966104
 30
0.0
 10
262.8589831031076
 20
314.8626890747444
 30
0.0
 10
262.3484130948477
 20
314.7289772247807
 30
0.0
 10
262.0695129831079
 20
314.7842397908755
 30
0.0
 10
262.0154850946373
 20
314.7949451281337
 30
0.0
  0
SPLINE
  5
B2
330
1F
100
AcDbEntity
  8
0
  6
Continuous
 62
     7
370
    25
100
AcDbSpline
210
0.0
220
0.0
230
1.0
 70
     8
 71
     3
 72
    22
 73
    18
 74
     0
 42
0.00000001
 43
0.00000001
 40
0.0
 40
0.0
 40
0.0
 40
0.0
 40
0.036793102953416
 40
0.1104093009909731
 40
0.1849667270350731
 40
0.2587052457176737
 40
0.3311620373556212
 40
0.4026638164961532
 40
0.4736513852027136
 40
0.5444221681412654
 40
0.6151441844532137
 40
0.6859470964657538
 40
0.757018726266411
 40
0.8286811463508489
 40
0.9013614700881053
 40
0.9752945141046575
 40
1.0
 40
1.0
 40
1.0
 40
1.0
 10
252.9235281016776
 20
319.1641445433644
 30
0.0
 10
252.8410856397084
 20
319.243071329096
 30
0.0
 10
252.5936910503061
 20
319.4799160239598
 30
0.0
 10
252.3757856648477
 20
320.0261983948168
 30
0.0
 10
252.3115344450408
 20
320.7156103624724
 30
0.0
 10
252.4955223229253
 20
321.3926531757486
 30
0.0
 10
252.8910036118223
 20
321.9622018370709
 30
0.0
 10
253.4495142954427
 20
322.3638996623944
 30
0.0
 10
254.1053657676014
 20
322.5566479888125
 30
0.0
 10
254.7859039790437
 20
322.5223273779735
 30
0.0
 10
255.4159810424126
 20
322.2663412247941
 30
0.0
 10
255.9264286954393
 20
321.8176757101626
 30
0.0
 10
256.2603016882949
 20
321.2272266875515
 30
0.0
 10
256.3846314190857
 20
320.5553076386351
 30
0.0
 10
256.2693789849551
 20
319.8878412332662
 30
0.0
 10
256.0416678896525
 20
319.3891885249343
 30
0.0
 10
255.8062183528685
 20
319.1933671380444
 30
0.0
 10
255.74724651686
 20
319.1443207611758
 30
0.0
  0
SPLINE
  5
B3
330
1F
100
AcDbEntity
  8
0
  6
Continuous
 62
     7
370
    25
100
AcDbSpline
210
0.0
220
0.0
230
1.0
 70
     8
 71
     3
 72
    22
 73
    18
 74
     0
 42
0.00000001
 43
0.00000001
 40
0.0
 40
0.0
 40
0.0
 40
0.0
 40
0.027389333354271
 40
0.1029273870782083
 40
0.1794312409061682
 40
0.255094808629771
 40
0.3294431879989036
 40
0.4028116229093455
 40
0.475652423190137
 40
0.5482707782017617
 40
0.6208390934645335
 40
0.6934904163253544
 40
0.7664174722347755
 40
0.839950741849741
 40
0.9145284889419673
 40
0.9903916603603823
 40
1.0
 40
1.0
 40
1.0
 40
1.0
 10
246.6173497613123
 20
314.7949858211724
 30
0.0
 10
246.5353091954887
 20
314.7846911753425
 30
0.0
 10
246.2270059240865
 20
314.7460045456803
 30
0.0
 10
245.6949536817945
 20
314.9142768879154
 30
0.0
 10
245.115831970842
 20
315.2913673179882
 30
0.0
 10
244.701228506418
 20
315.8580119482611
 30
0.0
 10
244.5025118328217
 20
316.5221446210376
 30
0.0
 10
244.5366791084975
 20
317.2093063485039
 30
0.0
 10
244.7948969277714
 20
317.8422357985615
 30
0.0
 10
245.2460456167646
 20
318.3529079583748
 30
0.0
 10
245.8390039800641
 20
318.685911670528
 30
0.0
 10
246.5081419930343
 20
318.8052753432098
 30
0.0
 10
247.1775707976094
 20
318.6981019987627
 30
0.0
 10
247.781813357084
 20
318.3766247641065
 30
0.0
 10
248.2264769024874
 20
317.8693957479426
 30
0.0
 10
248.4664928905104
 20
317.4268337188504
 30
0.0
 10
248.4770220034091
 20
317.1692215384593
 30
0.0
 10
248.4782056409929
 20
317.1402618851917
 30
0.0
  0
SPLINE
  5
B4
330
1F
100
AcDbEntity
  8
0
  6
Continuous
 62
     7
370
    25
100
AcDbSpline
210
0.0
220
0.0
230
1.0
 70
     8
 71
     3
 72
    22
 73
    18
 74
     0
 42
0.00000001
 43
0.00000001
 40
0.0
 40
0.0
 40
0.0
 40
0.0
 40
0.0208967945216132
 40
0.0975191016138826
 40
0.1751210716510444
 40
0.2518706943379484
 40
0.3272862508024395
 40
0.4017077969430514
 40
0.4755941349252407
 40
0.5492548347173278
 40
0.6228647765031503
 40
0.6965589173562814
 40
0.7705327490577754
 40
0.84512149589693
 40
0.9207697123685451
 40
0.9977218038092409
 40
1.0
 40
1.0
 40
1.0
 40
1.0
 10
246.1606392603924
 20
307.0976131686087
 30
0.0
 10
246.1278718327308
 20
307.0448308382636
 30
0.0
 10
245.9749560300485
 20
306.7985114599006
 30
0.0
 10
245.5249401417134
 20
306.5027748157891
 30
0.0
 10
244.8705601036489
 20
306.2838429942831
 30
0.0
 10
244.1686358570009
 20
306.3133265871907
 30
0.0
 10
243.5256035504183
 20
306.571955433659
 30
0.0
 10
243.0096343084875
 20
307.0271302290946
 30
0.0
 10
242.6757930679382
 20
307.6236309209643
 30
0.0
 10
242.5578202804925
 20
308.2947576359889
 30
0.0
 10
242.667163567639
 20
308.9659603994544
 30
0.0
 10
242.9910715831473
 20
309.5635908291962
 30
0.0
 10
243.4921335417266
 20
310.0199427525592
 30
0.0
 10
244.1206358236416
 20
310.2927041716486
 30
0.0
 10
244.7928373722933
 20
310.3211182374426
 30
0.0
 10
245.2698247245654
 20
310.2445637781992
 30
0.0
 10
245.4613233827141
 20
310.1079736389061
 30
0.0
 10
245.4668297556753
 20
310.1040461113868
 30
0.0
  0
SPLINE
  5
B5
330
1F
100
AcDbEntity
  8
0
  6
Continuous
 62
     7
370
    25
100
AcDbSpline
210
0.0
220
0.0
230
1.0
 70
     8
 71
     3
 72
    22
 73
    18
 74
     0
 42
0.00000001
 43
0.00000001
 40
0.0
 40
0.0
 40
0.0
 40
0.0
 40
0.0247942514909462
 40
0.0997154160290151
 40
0.175594493366533
 40
0.250640146881461
 40
0.3243813526611649
 40
0.3971506167980975
 40
0.4693965552871791
 40
0.5414218651289671
 40
0.6133975438765698
 40
0.6854555523322629
 40
0.7577870420346664
 40
0.8307197947367717
 40
0.9046884950847778
 40
0.9799321222106797
 40
1.0
 40
1.0
 40
1.0
 40
1.0
 10
251.9156822860621
 20
302.0299788212045
 30
0.0
 10
251.9413244692077
 20
301.9590312607266
 30
0.0
 10
252.0444500247903
 20
301.6737003842579
 30
0.0
 10
251.9975315854041
 20
301.1245733438889
 30
0.0
 10
251.7594116484424
 20
300.4761935364882
 30
0.0
 10
251.2990596748518
 20
299.9458595448838
 30
0.0
 10
250.6958418670439
 20
299.6043509938606
 30
0.0
 10
250.0182940905788
 20
299.484750993602
 30
0.0
 10
249.3437772266637
 20
299.5956566087033
 30
0.0
 10
248.7455198306513
 20
299.9218539316121
 30
0.0
 10
248.2889122984262
 20
300.4258629023178
 30
0.0
 10
248.0236720744247
 20
301.0515976059746
 30
0.0
 10
247.9790911502537
 20
301.7283375666084
 30
0.0
 10
248.1584500037671
 20
302.3880322330975
 30
0.0
 10
248.5524964300247
 20
302.9379750690177
 30
0.0
 10
248.9600083431116
 20
303.2823109461905
 30
0.0
 10
249.241418269439
 20
303.3543865539376
 30
0.0
 10
249.3006692487962
 20
303.3695621037218
 30
0.0
  0
SPLINE
  5
B6
330
1F
100
AcDbEntity
  8
0
  6
Continuous
 62
     7
370
    25
100
AcDbSpline
210
0.0
220
0.0
230
1.0
 70
    11
 71
     3
 72
    26
 73
    22
 74
     0
 42
0.00000001
 43
0.00000001
 40
0.0
 40
0.0
 40
0.0
 40
0.0
 40
0.0535972164200082
 40
0.1071921782483939
 40
0.1608597534174768
 40
0.2147094977664112
 40
0.2686478624799053
 40
0.3224381663529094
 40
0.3759329881741602
 40
0.4292427722145578
 40
0.4826449979174982
 40
0.5363313024995271
 40
0.5902427041024042
 40
0.6441475424480776
 40
0.6978798079300914
 40
0.7514722617449201
 40
0.8050492353698577
 40
0.8586625397261012
 40
0.9122900741654475
 40
0.9659177767677138
 40
1.0
 40
1.0
 40
1.0
 40
1.0
 10
241.0537828812759
 20
319.6320776696948
 30
0.0
 10
240.8852617092219
 20
319.6486398138539
 30
0.0
 10
240.5482264540345
 20
319.681763405478
 30
0.0
 10
240.0998582793814
 20
319.9397057118483
 30
0.0
 10
239.7585400739124
 20
320.3195920606876
 30
0.0
 10
239.5626032865752
 20
320.7949667437423
 30
0.0
 10
239.5350983435825
 20
321.3084280738937
 30
0.0
 10
239.6795551162365
 20
321.8018204437919
 30
0.0
 10
239.9782975064826
 20
322.2181748343502
 30
0.0
 10
240.3963320908364
 20
322.5118134790297
 30
0.0
 10
240.8875405992509
 20
322.6514918317456
 30
0.0
 10
241.3987282242271
 20
322.6213767726746
 30
0.0
 10
241.8727592766647
 20
322.4231169237781
 30
0.0
 10
242.2546878266707
 20
322.0782601257285
 30
0.0
 10
242.5003287710868
 20
321.6266337350781
 30
0.0
 10
242.5824095282215
 20
321.1199011968755
 30
0.0
 10
242.4923547329923
 20
320.6150563928623
 30
0.0
 10
242.240197481735
 20
320.1676409401597
 30
0.0
 10
241.8544393063967
 20
319.8313103566556
 30
0.0
 10
241.4355292335702
 20
319.6563694641172
 30
0.0
 10
241.1606104928805
 20
319.6388754671436
 30
0.0
 10
241.0537828812759
 20
319.6320776696948
 30
0.0
  0
SPLINE
  5
B7
330
1F
100
AcDbEntity
  8
0
  6
Continuous
 62
     7
370
    25
100
AcDbSpline
210
0.0
220
0.0
230
1.0
 70
    11
 71
     3
 72
    26
 73
    22
 74
     0
 42
0.00000001
 43
0.00000001
 40
0.0
 40
0.0
 40
0.0
 40
0.0
 40
0.0564885541921682
 40
0.1128994301864561
 40
0.1712256558510543
 40
0.2300375349559234
 40
0.2867064896555203
 40
0.3395363008404564
 40
0.3890615100952083
 40
0.4374690463182019
 40
0.4871682267512645
 40
0.5398630249433221
 40
0.5960305847835176
 40
0.6545948261961264
 40
0.7132408736152261
 40
0.7696720731029041
 40
0.8229238449446284
 40
0.8735646339153891
 40
0.9230009993634081
 40
0.9728027922198107
 40
1.0
 40
1.0
 40
1.0
 40
1.0
 10
235.5809625039996
 20
324.496506282706
 30
0.0
 10
235.4637827386241
 20
324.5086629306961
 30
0.0
 10
235.229584343401
 20
324.5329595099005
 30
0.0
 10
234.924334486392
 20
324.7170375759708
 30
0.0
 10
234.6942779647494
 20
324.9887081428499
 30
0.0
 10
234.5725755956518
 20
325.3312898028723
 30
0.0
 10
234.5790383688023
 20
325.6913679198066
 30
0.0
 10
234.7044480260492
 20
326.0154802722676
 30
0.0
 10
234.9185102563288
 20
326.2680879180749
 30
0.0
 10
235.1919700221336
 20
326.4355794567989
 30
0.0
 10
235.504014925282
 20
326.5107367307443
 30
0.0
 10
235.8334534905169
 20
326.483386962772
 30
0.0
 10
236.1489013239404
 20
326.3442958010407
 30
0.0
 10
236.4074239046126
 20
326.097199598509
 30
0.0
 10
236.5655740759922
 20
325.7696461037884
 30
0.0
 10
236.5980416697233
 20
325.4107311658235
 30
0.0
 10
236.5079652861
 20
325.0732142459643
 30
0.0
 10
236.318296124746
 20
324.7947382999104
 30
0.0
 10
236.0569806091445
 20
324.5983634251784
 30
0.0
 10
235.7983029172572
 20
324.5075384904968
 30
0.0
 10
235.6376925181548
 20
324.4993859004206
 30
0.0
 10
235.5809625039996
 20
324.496506282706
 30
0.0
  0
SPLINE
  5
B8
330
1F
100
AcDbEntity
  8
0
  6
Continuous
 62
     7
370
    25
100
AcDbSpline
210
0.0
220
0.0
230
1.0
 70
    11
 71
     3
 72
    26
 73
    22
 74
     0
 42
0.00000001
 43
0.00000001
 40
0.0
 40
0.0
 40
0.0
 40
0.0
 40
0.0564885541921845
 40
0.1128994301864661
 40
0.1712256558510658
 40
0.2300375349559448
 40
0.2867064896555511
 40
0.3395363008404953
 40
0.3890615100952453
 40
0.4374690463182247
 40
0.4871682267512918
 40
0.5398630249433474
 40
0.5960305847835472
 40
0.6545948261961632
 40
0.7132408736152511
 40
0.769672073102923
 40
0.8229238449446244
 40
0.873564633915411
 40
0.9230009993634225
 40
0.9728027922198395
 40
1.0
 40
1.0
 40
1.0
 40
1.0
 10
253.5630866007641
 20
333.9092612362376
 30
0.0
 10
253.4995306621882
 20
334.008455611963
 30
0.0
 10
253.3725061816931
 20
334.2067079598459
 30
0.0
 10
253.3261040361149
 20
334.5601327050152
 30
0.0
 10
253.3950667430657
 20
334.9093819642968
 30
0.0
 10
253.5870276841927
 20
335.2181288792762
 30
0.0
 10
253.8725775653108
 20
335.4375811135443
 30
0.0
 10
254.2041704486698
 20
335.5416126417185
 30
0.0
 10
254.5351326764166
 20
335.5317503419115
 30
0.0
 10
254.8365822096358
 20
335.4223801541085
 30
0.0
 10
255.089899347378
 20
335.2252734187242
 30
0.0
 10
255.2739180235018
 20
334.9506556754703
 30
0.0
 10
255.3618506814856
 20
334.6173067073554
 30
0.0
 10
255.3298492837468
 20
334.2611236525005
 30
0.0
 10
255.1723626683996
 20
333.9332506060366
 30
0.0
 10
254.9119948839528
 20
333.6840866155419
 30
0.0
 10
254.5919518235637
 20
333.5440728105985
 30
0.0
 10
254.2559737739974
 20
333.5187352197707
 30
0.0
 10
253.9395141555211
 20
333.6006021849884
 30
0.0
 10
253.707221459334
 20
333.7462161277899
 30
0.0
 10
253.600708561836
 20
333.8667033374486
 30
0.0
 10
253.5630866007641
 20
333.9092612362376
 30
0.0
  0
SPLINE
  5
B9
330
1F
100
AcDbEntity
  8
0
  6
Continuous
 62
     7
370
    25
100
AcDbSpline
210
0.0
220
0.0
230
1.0
 70
    11
 71
     3
 72
    26
 73
    22
 74
     0
 42
0.00000001
 43
0.00000001
 40
0.0
 40
0.0
 40
0.0
 40
0.0
 40
0.056488554192192
 40
0.1128994301865079
 40
0.1712256558511166
 40
0.2300375349558073
 40
0.2867064896554505
 40
0.3395363008404182
 40
0.3890615100951569
 40
0.4374690463181777
 40
0.4871682267511083
 40
0.539863024943166
 40
0.5960305847833776
 40
0.6545948261960015
 40
0.713240873615146
 40
0.7696720731028265
 40
0.8229238449445724
 40
0.8735646339153459
 40
0.9230009993633835
 40
0.9728027922198341
 40
1.0
 40
1.0
 40
1.0
 40
1.0
 10
277.3093042364786
 20
306.0932174910474
 30
0.0
 10
277.4201541289152
 20
306.1331071244202
 30
0.0
 10
277.6417014825568
 20
306.2128315383754
 30
0.0
 10
277.99659058025
 20
306.1794258809064
 30
0.0
 10
278.3217377854727
 20
306.0344769416421
 30
0.0
 10
278.5800284427845
 20
305.7786262102101
 30
0.0
 10
278.7304377251253
 20
305.4514029446605
 30
0.0
 10
278.7580746075911
 20
305.1049745943826
 30
0.0
 10
278.6748135522079
 20
304.7845048488385
 30
0.0
 10
278.5011066716865
 20
304.5149504411261
 30
0.0
 10
278.2525734476025
 20
304.3118448677534
 30
0.0
 10
277.9438929368483
 20
304.1935481207476
 30
0.0
 10
277.5993348661562
 20
304.1819972418055
 30
0.0
 10
277.2592030450447
 20
304.2924544837152
 30
0.0
 10
276.9745945291276
 20
304.5189511973306
 30
0.0
 10
276.7896148826508
 20
304.8282352216939
 30
0.0
 10
276.7243277968249
 20
305.1714101370102
 30
0.0
 10
276.7743876216776
 20
305.504602659788
 30
0.0
 10
276.9246209010169
 20
305.7949108613584
 30
0.0
 10
277.1182739859635
 20
305.9889773441182
 30
0.0
 10
277.2594416791504
 20
306.0660088144732
 30
0.0
 10
277.3093042364786
 20
306.0932174910474
 30
0.0
  0
SPLINE
  5
BA
330
1F
100
AcDbEntity
  8
0
  6
Continuous
 62
     7
370
    25
100
AcDbSpline
210
0.0
220
0.0
230
1.0
 70
    11
 71
     3
 72
    26
 73
    22
 74
     0
 42
0.00000001
 43
0.00000001
 40
0.0
 40
0.0
 40
0.0
 40
0.0
 40
0.0564885541921632
 40
0.1128994301864652
 40
0.1712256558510446
 40
0.230037534955932
 40
0.2867064896554962
 40
0.3395363008404842
 40
0.389061510095203
 40
0.437469046318189
 40
0.4871682267512591
 40
0.5398630249433259
 40
0.5960305847835168
 40
0.6545948261961361
 40
0.7132408736152503
 40
0.7696720731028968
 40
0.8229238449446225
 40
0.873564633915377
 40
0.9230009993634133
 40
0.9728027922198286
 40
1.0
 40
1.0
 40
1.0
 40
1.0
 10
244.9066362565929
 20
289.1320191423945
 30
0.0
 10
244.9208593519809
 20
289.0150722097225
 30
0.0
 10
244.9492859843804
 20
288.7813391597348
 30
0.0
 10
244.8377476230193
 20
288.4427813307644
 30
0.0
 10
244.6240807965093
 20
288.1580404181652
 30
0.0
 10
244.3171696987883
 20
287.9631577906088
 30
0.0
 10
243.9646813897057
 20
287.8893336096656
 30
0.0
 10
243.6207889365509
 20
287.9394772015965
 30
0.0
 10
243.3268813644162
 20
288.0919619555704
 30
0.0
 10
243.1027386657737
 20
288.3212951404856
 30
0.0
 10
242.9600292183156
 20
288.608792359627
 30
0.0
 10
242.9133862932864
 20
288.9360571081365
 30
0.0
 10
242.978796402688
 20
289.2745467009918
 30
0.0
 10
243.1621707014305
 20
289.5815716585828
 30
0.0
 10
243.4463200223256
 20
289.808644184543
 30
0.0
 10
243.7890114941661
 20
289.9201638351198
 30
0.0
 10
244.1381100411817
 20
289.90745043473
 30
0.0
 10
244.4518093727881
 20
289.7845034028461
 30
0.0
 10
244.7014088920048
 20
289.5734371333313
 30
0.0
 10
244.8475178575402
 20
289.3414554805432
 30
0.0
 10
244.8912052211733
 20
289.1866860414295
 30
0.0
 10
244.9066362565929
 20
289.1320191423945
 30
0.0
  0
SPLINE
  5
BB
330
1F
100
AcDbEntity
  8
0
  6
Continuous
 62
     7
370
    25
100
AcDbSpline
210
0.0
220
0.0
230
1.0
 70
    11
 71
     3
 72
    26
 73
    22
 74
     0
 42
0.00000001
 43
0.00000001
 40
0.0
 40
0.0
 40
0.0
 40
0.0
 40
0.0535972164200075
 40
0.1071921782483894
 40
0.1608597534174692
 40
0.2147094977664303
 40
0.2686478624799302
 40
0.3224381663529469
 40
0.3759329881741781
 40
0.4292427722145829
 40
0.4826449979175033
 40
0.5363313024995481
 40
0.5902427041024229
 40
0.6441475424480805
 40
0.6978798079301016
 40
0.751472261744922
 40
0.8050492353698504
 40
0.8586625397261035
 40
0.9122900741654499
 40
0.9659177767677292
 40
1.0
 40
1.0
 40
1.0
 40
1.0
 10
253.1721708595297
 20
326.5975163353083
 30
0.0
 10
253.0800484330774
 20
326.7395978210627
 30
0.0
 10
252.8958074553452
 20
327.0237548158482
 30
0.0
 10
252.8179218867518
 20
327.5351275680185
 30
0.0
 10
252.9021205737354
 20
328.0388361509604
 30
0.0
 10
253.151618878203
 20
328.4884169668206
 30
0.0
 10
253.5359100596883
 20
328.8300591001741
 30
0.0
 10
254.0117270722437
 20
329.0247433584041
 30
0.0
 10
254.5235088763472
 20
329.050769869034
 30
0.0
 10
255.0137251133957
 20
328.9070179706152
 30
0.0
 10
255.4291935425508
 20
328.6100637227392
 30
0.0
 10
255.724368912282
 20
328.1916247118718
 30
0.0
 10
255.8649166476641
 20
327.6973993175033
 30
0.0
 10
255.8334253019732
 20
327.1837808563697
 30
0.0
 10
255.6334841952116
 20
326.7101465838214
 30
0.0
 10
255.2884812586563
 20
326.3300306939492
 30
0.0
 10
254.8376294506844
 20
326.0856727811832
 30
0.0
 10
254.3306084893952
 20
326.0038582867945
 30
0.0
 10
253.8271383623877
 20
326.0957574840254
 30
0.0
 10
253.4291779067269
 20
326.3142007048585
 30
0.0
 10
253.244091517979
 20
326.5182335027434
 30
0.0
 10
253.1721708595297
 20
326.5975163353083
 30
0.0
  0
SPLINE
  5
BC
330
1F
100
AcDbEntity
  8
0
  6
Continuous
 62
     7
370
    25
100
AcDbSpline
210
0.0
220
0.0
230
1.0
 70
    11
 71
     3
 72
    26
 73
    22
 74
     0
 42
0.00000001
 43
0.00000001
 40
0.0
 40
0.0
 40
0.0
 40
0.0
 40
0.0535972164199978
 40
0.1071921782483934
 40
0.1608597534174648
 40
0.2147094977664175
 40
0.2686478624799094
 40
0.3224381663529123
 40
0.3759329881741676
 40
0.4292427722145607
 40
0.4826449979174933
 40
0.5363313024995311
 40
0.5902427041024085
 40
0.6441475424480769
 40
0.6978798079300966
 40
0.7514722617449165
 40
0.8050492353698613
 40
0.858662539726094
 40
0.9122900741654528
 40
0.9659177767677216
 40
1.0
 40
1.0
 40
1.0
 40
1.0
 10
270.2678669816471
 20
308.1013484626928
 30
0.0
 10
270.4268853562858
 20
308.1595450826709
 30
0.0
 10
270.7449154163819
 20
308.2759358745597
 30
0.0
 10
271.2607981554672
 20
308.238077546925
 30
0.0
 10
271.733141742117
 20
308.0439041924974
 30
0.0
 10
272.1159320325505
 20
307.7006201883966
 30
0.0
 10
272.3634956517187
 20
307.2499414625684
 30
0.0
 10
272.4474195231033
 20
306.7427328529694
 30
0.0
 10
272.3589113297422
 20
306.2379910437492
 30
0.0
 10
272.109680216636
 20
305.7920533579398
 30
0.0
 10
271.7277208088558
 20
305.4530801263059
 30
0.0
 10
271.2540902386619
 20
305.2584168588684
 30
0.0
 10
270.7409812934404
 20
305.23136844499
 30
0.0
 10
270.247247803124
 20
305.3763610965646
 30
0.0
 10
269.8299796124635
 20
305.6766828030202
 30
0.0
 10
269.5361643972232
 20
306.0976195384787
 30
0.0
 10
269.3982570128909
 20
306.5915423012964
 30
0.0
 10
269.4313165565318
 20
307.1040566262211
 30
0.0
 10
269.6329442919003
 20
307.5744542107926
 30
0.0
 10
269.9344652173886
 20
307.9138287774447
 30
0.0
 10
270.1745680831339
 20
308.048873095257
 30
0.0
 10
270.2678669816471
 20
308.1013484626928
 30
0.0
  0
SPLINE
  5
BD
330
1F
100
AcDbEntity
  8
0
  6
Continuous
 62
     7
370
    25
100
AcDbSpline
210
0.0
220
0.0
230
1.0
 70
    11
 71
     3
 72
    26
 73
    22
 74
     0
 42
0.00000001
 43
0.00000001
 40
0.0
 40
0.0
 40
0.0
 40
0.0
 40
0.053597216420007
 40
0.1071921782484012
 40
0.1608597534174782
 40
0.2147094977664195
 40
0.2686478624799102
 40
0.3224381663529339
 40
0.3759329881741797
 40
0.4292427722145624
 40
0.4826449979174984
 40
0.5363313024995411
 40
0.5902427041024196
 40
0.6441475424480827
 40
0.6978798079301205
 40
0.7514722617448851
 40
0.8050492353698273
 40
0.8586625397260725
 40
0.9122900741654161
 40
0.9659177767676996
 40
1.0
 40
1.0
 40
1.0
 40
1.0
 10
248.4312863865068
 20
295.5500616846897
 30
0.0
 10
248.4526389784774
 20
295.382080266474
 30
0.0
 10
248.4953432642118
 20
295.0461244962584
 30
0.0
 10
248.343639414979
 20
294.5516002849346
 30
0.0
 10
248.0492280558961
 20
294.134306974346
 30
0.0
 10
247.6293720455557
 20
293.8375019128955
 30
0.0
 10
247.1349046885686
 20
293.6964306815129
 30
0.0
 10
246.6217380395298
 20
293.7274754903203
 30
0.0
 10
246.1493460871254
 20
293.9260802172795
 30
0.0
 10
245.7700481301954
 20
294.2682930563635
 30
0.0
 10
245.5245676293457
 20
294.7161045844182
 30
0.0
 10
245.4401776932743
 20
295.22117689944
 30
0.0
 10
245.5279849213157
 20
295.727439970445
 30
0.0
 10
245.7792083417881
 20
296.176530631088
 30
0.0
 10
246.1648512635415
 20
296.5165091704207
 30
0.0
 10
246.6406142723082
 20
296.7092905892714
 30
0.0
 10
247.1528406402022
 20
296.7338321930686
 30
0.0
 10
247.645148720437
 20
296.5875563549607
 30
0.0
 10
248.0588860634733
 20
296.2863105380305
 30
0.0
 10
248.3226570832396
 20
295.9168314261323
 30
0.0
 10
248.4008876441257
 20
295.6526982527975
 30
0.0
 10
248.4312863865068
 20
295.5500616846897
 30
0.0
  0
LINE
  5
BE
330
1F
100
AcDbEntity
  8
0
  6
Continuous
 62
     7
370
    25
100
AcDbLine
 10
228.861162523
 20
328.2972719308
 30
0.0
 11
227.9011583663
 21
329.062849699
 31
0.0
  0
LINE
  5
BF
330
1F
100
AcDbEntity
  8
0
  6
Continuous
 62
     7
370
    25
100
AcDbLine
 10
224.5671946735
 20
301.6847462611
 30
0.0
 11
223.3700890706
 21
301.4115147191
 31
0.0
  0
LINE
  5
C0
330
1F
100
AcDbEntity
  8
0
  6
Continuous
 62
     7
370
    25
100
AcDbLine
 10
242.6964599064
 20
281.7349486549
 30
0.0
 11
242.1636977928
 21
280.6286567267
 31
0.0
  0
LINE
  5
C1
330
1F
100
AcDbEntity
  8
0
  6
Continuous
 62
     7
370
    25
100
AcDbLine
 10
269.5972517317
 20
283.4704836114
 30
0.0
 11
270.1300138453
 21
282.3641916831
 31
0.0
  0
LINE
  5
C2
330
1F
100
AcDbEntity
  8
0
  6
Continuous
 62
     7
370
    25
100
AcDbLine
 10
277.334714436
 20
331.4245978607
 30
0.0
 11
278.2947185928
 21
332.1901756289
 31
0.0
  0
LINE
  5
C3
330
1F
100
AcDbEntity
  8
0
  6
Continuous
 62
     7
370
    25
100
AcDbLine
 10
252.3449180832
 20
341.5327510381
 30
0.0
 11
252.3449180832
 21
342.7606424422
 31
0.0
  0
LINE
  5
C4
330
1F
100
AcDbEntity
  8
0
  6
Continuous
 62
     7
370
    25
100
AcDbLine
 10
285.0127252288
 20
305.5844579098
 30
0.0
 11
286.2098308317
 21
305.3112263678
 31
0.0
  0
LINE
  5
C5
330
1F
100
AcDbEntity
  8
0
  6
Continuous
 62
     7
370
    25
100
AcDbLine
 10
285.3197470959
 20
301.4115147191
 30
0.0
 11
284.122641493
 21
301.6847462611
 31
0.0
  0
LINE
  5
C6
330
1F
100
AcDbEntity
  8
0
  6
Continuous
 62
     7
370
    25
100
AcDbLine
 10
238.5598223212
 20
282.3641916831
 30
0.0
 11
239.0925844348
 21
283.4704836114
 31
0.0
  0
LINE
  5
C7
330
1F
100
AcDbEntity
  8
0
  6
Continuous
 62
     7
370
    25
100
AcDbLine
 10
266.5261383737
 20
280.6286567267
 30
0.0
 11
265.9933762601
 21
281.7349486549
 31
0.0
  0
LINE
  5
C8
330
1F
100
AcDbEntity
  8
0
  6
Continuous
 62
     7
370
    25
100
AcDbLine
 10
222.4800053347
 20
305.3112263678
 30
0.0
 11
223.6771109377
 21
305.5844579098
 31
0.0
  0
LINE
  5
C9
330
1F
100
AcDbEntity
  8
0
  6
Continuous
 62
     7
370
    25
100
AcDbLine
 10
230.3951175737
 20
332.1901756289
 30
0.0
 11
231.3551217304
 21
331.4245978607
 31
0.0
  0
LINE
  5
CA
330
1F
100
AcDbEntity
  8
0
  6
Continuous
 62
     7
370
    25
100
AcDbLine
 10
256.3449180832
 20
342.7606424422
 30
0.0
 11
256.3449180832
 21
341.5327510381
 31
0.0
  0
LINE
  5
CB
330
1F
100
AcDbEntity
  8
0
  6
Continuous
 62
     7
370
    25
100
AcDbLine
 10
280.7886778002
 20
329.062849699
 30
0.0
 11
279.8286736435
 21
328.2972719308
 31
0.0
  0
LWPOLYLINE
  5
CC
330
1F
100
AcDbEntity
  8
0
  6
Continuous
 62
     7
370
    25
100
AcDbPolyline
 90
        3
 70
   128
 43
0.0
 10
286.4385407089
 20
333.5598956019
 10
285.8738146769
 20
334.3272604801
 10
283.9407986995
 20
336.6925264681
  0
LWPOLYLINE
  5
CD
330
1F
100
AcDbEntity
  8
0
  6
Continuous
 62
     7
370
    25
100
AcDbPolyline
 90
        3
 70
   128
 43
0.0
 10
256.345953117
 20
349.9820331456
 10
253.2510372213
 20
350.0176016097
 10
252.3415467105
 20
349.9819145672
  0
LWPOLYLINE
  5
CE
330
1F
100
AcDbEntity
  8
0
  6
Continuous
 62
     7
370
    25
100
AcDbPolyline
 90
        3
 70
   128
 43
0.0
 10
224.7518253604
 20
336.6956802146
 10
223.7879194462
 20
335.5631292673
 10
222.2497920726
 20
333.5578001447
  0
LWPOLYLINE
  5
CF
330
1F
100
AcDbEntity
  8
0
  6
Continuous
 62
     7
370
    25
100
AcDbPolyline
 90
        3
 70
   128
 43
0.0
 10
215.4396473062
 20
303.7041416802
 10
216.2309757118
 20
300.1607986226
 10
216.3316846339
 20
299.7975713599
  0
LWPOLYLINE
  5
D0
330
1F
100
AcDbEntity
  8
0
  6
Continuous
 62
     7
370
    25
100
AcDbPolyline
 90
        3
 70
   128
 43
0.0
 10
235.4177092783
 20
275.8627241149
 10
237.2241924316
 20
274.9359709427
 10
239.0407388721
 20
274.1180273858
  0
LWPOLYLINE
  5
D1
330
1F
100
AcDbEntity
  8
0
  6
Continuous
 62
     7
370
    25
100
AcDbPolyline
 90
        3
 70
   128
 43
0.0
 10
269.6501232696
 20
274.118458594
 10
270.0354785228
 20
274.2828363749
 10
273.2688233428
 20
275.8609208336
  0
LWPOLYLINE
  5
D2
330
1F
100
AcDbEntity
  8
0
  6
Continuous
 62
     7
370
    25
100
AcDbPolyline
 90
        3
 70
   128
 43
0.0
 10
292.3589260351
 20
299.8003142487
 10
292.9746448298
 20
302.2868907746
 10
293.2502875133
 20
303.7047037691
  0
ARC
  5
D3
330
1F
100
AcDbEntity
  8
0
  6
Continuous
 62
     7
370
    25
100
AcDbCircle
 10
79.3449180832
 20
395.5327510381
 30
0.0
 40
39.99999999999994
100
AcDbArc
 50
90.0
 51
180.0
  0
LINE
  5
D4
330
1F
100
AcDbEntity
  8
0
  6
Continuous
 62
     7
370
    25
100
AcDbLine
 10
79.3449180832
 20
435.5327510381
 30
0.0
 11
79.3449180832
 21
434.4907154122
 31
0.0
  0
ARC
  5
D5
330
1F
100
AcDbEntity
  8
0
  6
Continuous
 62
     7
370
    25
100
AcDbCircle
 10
79.3449180832
 20
395.5327510381
 30
0.0
 40
38.95796437412236
100
AcDbArc
 50
90.0
 51
180.0
  0
LINE
  5
D6
330
1F
100
AcDbEntity
  8
0
  6
Continuous
 62
     7
370
    25
100
AcDbLine
 10
39.3449180832
 20
395.5327510381
 30
0.0
 11
40.3869537091
 21
395.5327510381
 31
0.0
  0
LINE
  5
D7
330
1F
100
AcDbEntity
  8
0
  6
Continuous
 62
     7
370
    25
100
AcDbLine
 10
79.3449180832
 20
435.5327510381
 30
0.0
 11
429.3449180832
 21
435.5327510381
 31
0.0
  0
LINE
  5
D8
330
1F
100
AcDbEntity
  8
0
  6
Continuous
 62
     7
370
    25
100
AcDbLine
 10
429.3449180832
 20
435.5327510381
 30
0.0
 11
429.3449180832
 21
434.4907154122
 31
0.0
  0
LINE
  5
D9
330
1F
100
AcDbEntity
  8
0
  6
Continuous
 62
     7
370
    25
100
AcDbLine
 10
429.3449180832
 20
434.4907154122
 30
0.0
 11
79.3449180832
 21
434.4907154122
 31
0.0
  0
ARC
  5
DA
330
1F
100
AcDbEntity
  8
0
  6
Continuous
 62
     7
370
    25
100
AcDbCircle
 10
429.3449180832
 20
395.5327510381
 30
0.0
 40
39.99999999999994
100
AcDbArc
 50
0.0
 51
90.0
  0
LINE
  5
DB
330
1F
100
AcDbEntity
  8
0
  6
Continuous
 62
     7
370
    25
100
AcDbLine
 10
469.3449180832
 20
395.5327510381
 30
0.0
 11
468.3028824574
 21
395.5327510381
 31
0.0
  0
ARC
  5
DC
330
1F
100
AcDbEntity
  8
0
  6
Continuous
 62
     7
370
    25
100
AcDbCircle
 10
429.3449180832
 20
395.5327510381
 30
0.0
 40
38.95796437412235
100
AcDbArc
 50
0.0
 51
90.0
  0
ARC
  5
DD
330
1F
100
AcDbEntity
  8
0
  6
Continuous
 62
     7
370
    25
100
AcDbCircle
 10
429.3449180832
 20
395.5327510381
 30
0.0
 40
26.42344685007225
100
AcDbArc
 50
0.0
 51
90.0
  0
LINE
  5
DE
330
1F
100
AcDbEntity
  8
0
  6
Continuous
 62
     7
370
    25
100
AcDbLine
 10
79.3449180832
 20
421.9561978882
 30
0.0
 11
429.3449180832
 21
421.9561978882
 31
0.0
  0
ARC
  5
DF
330
1F
100
AcDbEntity
  8
0
  6
Continuous
 62
     7
370
    25
100
AcDbCircle
 10
79.3449180832
 20
395.5327510381
 30
0.0
 40
26.42344685007226
100
AcDbArc
 50
90.0
 51
180.0
  0
LINE
  5
E0
330
1F
100
AcDbEntity
  8
0
  6
Continuous
 62
     7
370
    25
100
AcDbLine
 10
52.9214712332
 20
60.5327510381
 30
0.0
 11
52.9214712332
 21
395.5327510381
 31
0.0
  0
ARC
  5
E1
330
1F
100
AcDbEntity
  8
0
  6
Continuous
 62
     7
370
    25
100
AcDbCircle
 10
79.3449180832
 20
60.5327510381
 30
0.0
 40
26.42344685007236
100
AcDbArc
 50
180.0
 51
270.0
  0
LINE
  5
E2
330
1F
100
AcDbEntity
  8
0
  6
Continuous
 62
     7
370
    25
100
AcDbLine
 10
429.3449180832
 20
34.109304188
 30
0.0
 11
79.3449180832
 21
34.109304188
 31
0.0
  0
ARC
  5
E3
330
1F
100
AcDbEntity
  8
0
  6
Continuous
 62
     7
370
    25
100
AcDbCircle
 10
429.3449180832
 20
60.5327510381
 30
0.0
 40
26.42344685007231
100
AcDbArc
 50
270.0
 51
0.0
  0
LINE
  5
E4
330
1F
100
AcDbEntity
  8
0
  6
Continuous
 62
     7
370
    25
100
AcDbLine
 10
455.7683649333
 20
395.5327510381
 30
0.0
 11
455.7683649333
 21
60.5327510381
 31
0.0
  0
LINE
  5
E5
330
1F
100
AcDbEntity
  8
0
  6
Continuous
 62
     7
370
    25
100
AcDbLine
 10
79.3449180832
 20
21.574786664
 30
0.0
 11
429.3449180832
 21
21.574786664
 31
0.0
  0
ARC
  5
E6
330
1F
100
AcDbEntity
  8
0
  6
Continuous
 62
     7
370
    25
100
AcDbCircle
 10
79.3449180832
 20
60.5327510381
 30
0.0
 40
38.95796437412248
100
AcDbArc
 50
180.0
 51
270.0
  0
LINE
  5
E7
330
1F
100
AcDbEntity
  8
0
  6
Continuous
 62
     7
370
    25
100
AcDbLine
 10
40.3869537091
 20
395.5327510381
 30
0.0
 11
40.3869537091
 21
60.5327510381
 31
0.0
  0
LINE
  5
E8
330
1F
100
AcDbEntity
  8
0
  6
Continuous
 62
     7
370
    25
100
AcDbLine
 10
468.3028824574
 20
60.5327510381
 30
0.0
 11
468.3028824574
 21
395.5327510381
 31
0.0
  0
ARC
  5
E9
330
1F
100
AcDbEntity
  8
0
  6
Continuous
 62
     7
370
    25
100
AcDbCircle
 10
429.3449180832
 20
60.5327510381
 30
0.0
 40
38.95796437412241
100
AcDbArc
 50
270.0
 51
0.0
  0
LINE
  5
EA
330
1F
100
AcDbEntity
  8
0
  6
Continuous
 62
     7
370
    25
100
AcDbLine
 10
429.3449180832
 20
421.9561978882
 30
0.0
 11
429.3449180832
 21
420.458253586
 31
0.0
  0
LINE
  5
EB
330
1F
100
AcDbEntity
  8
0
  6
Continuous
 62
     7
370
    25
100
AcDbLine
 10
429.3449180832
 20
420.458253586
 30
0.0
 11
79.3449180832
 21
420.458253586
 31
0.0
  0
LINE
  5
EC
330
1F
100
AcDbEntity
  8
0
  6
Continuous
 62
     7
370
    25
100
AcDbLine
 10
79.3449180832
 20
421.9561978882
 30
0.0
 11
79.3449180832
 21
420.458253586
 31
0.0
  0
LINE
  5
ED
330
1F
100
AcDbEntity
  8
0
  6
Continuous
 62
     7
370
    25
100
AcDbLine
 10
455.7683649333
 20
395.5327510381
 30
0.0
 11
454.2704206312
 21
395.5327510381
 31
0.0
  0
ARC
  5
EE
330
1F
100
AcDbEntity
  8
0
  6
Continuous
 62
     7
370
    25
100
AcDbCircle
 10
429.3449180832
 20
395.5327510381
 30
0.0
 40
24.92550254794048
100
AcDbArc
 50
0.0
 51
90.0
  0
ARC
  5
EF
330
1F
100
AcDbEntity
  8
0
  6
Continuous
 62
     7
370
    25
100
AcDbCircle
 10
79.3449180832
 20
395.5327510381
 30
0.0
 40
24.92550254794041
100
AcDbArc
 50
90.0
 51
180.0
  0
LINE
  5
F0
330
1F
100
AcDbEntity
  8
0
  6
Continuous
 62
     7
370
    25
100
AcDbLine
 10
54.4194155353
 20
395.5327510381
 30
0.0
 11
52.9214712332
 21
395.5327510381
 31
0.0
  0
LINE
  5
F1
330
1F
100
AcDbEntity
  8
0
  6
Continuous
 62
     7
370
    25
100
AcDbLine
 10
455.7683649333
 20
60.5327510381
 30
0.0
 11
454.2704206312
 21
60.5327510381
 31
0.0
  0
LINE
  5
F2
330
1F
100
AcDbEntity
  8
0
  6
Continuous
 62
     7
370
    25
100
AcDbLine
 10
454.2704206312
 20
60.5327510381
 30
0.0
 11
454.2704206312
 21
395.5327510381
 31
0.0
  0
LINE
  5
F3
330
1F
100
AcDbEntity
  8
0
  6
Continuous
 62
     7
370
    25
100
AcDbLine
 10
40.3869537091
 20
60.5327510381
 30
0.0
 11
39.3449180832
 21
60.5327510381
 31
0.0
  0
LINE
  5
F4
330
1F
100
AcDbEntity
  8
0
  6
Continuous
 62
     7
370
    25
100
AcDbLine
 10
39.3449180832
 20
60.5327510381
 30
0.0
 11
39.3449180832
 21
395.5327510381
 31
0.0
  0
LINE
  5
F5
330
1F
100
AcDbEntity
  8
0
  6
Continuous
 62
     7
370
    25
100
AcDbLine
 10
469.3449180832
 20
395.5327510381
 30
0.0
 11
469.3449180832
 21
60.5327510381
 31
0.0
  0
LINE
  5
F6
330
1F
100
AcDbEntity
  8
0
  6
Continuous
 62
     7
370
    25
100
AcDbLine
 10
468.3028824574
 20
60.5327510381
 30
0.0
 11
469.3449180832
 21
60.5327510381
 31
0.0
  0
LINE
  5
F7
330
1F
100
AcDbEntity
  8
0
  6
Continuous
 62
     7
370
    25
100
AcDbLine
 10
54.4194155353
 20
395.5327510381
 30
0.0
 11
54.4194155353
 21
60.5327510381
 31
0.0
  0
LINE
  5
F8
330
1F
100
AcDbEntity
  8
0
  6
Continuous
 62
     7
370
    25
100
AcDbLine
 10
54.4194155353
 20
60.5327510381
 30
0.0
 11
52.9214712332
 21
60.5327510381
 31
0.0
  0
LINE
  5
F9
330
1F
100
AcDbEntity
  8
0
  6
Continuous
 62
     7
370
    25
100
AcDbLine
 10
79.3449180832
 20
21.574786664
 30
0.0
 11
79.3449180832
 21
20.5327510381
 31
0.0
  0
ARC
  5
FA
330
1F
100
AcDbEntity
  8
0
  6
Continuous
 62
     7
370
    25
100
AcDbCircle
 10
79.3449180832
 20
60.5327510381
 30
0.0
 40
40.00000000000004
100
AcDbArc
 50
180.0
 51
270.0
  0
ARC
  5
FB
330
1F
100
AcDbEntity
  8
0
  6
Continuous
 62
     7
370
    25
100
AcDbCircle
 10
429.3449180832
 20
60.5327510381
 30
0.0
 40
39.99999999999998
100
AcDbArc
 50
270.0
 51
0.0
  0
LINE
  5
FC
330
1F
100
AcDbEntity
  8
0
  6
Continuous
 62
     7
370
    25
100
AcDbLine
 10
429.3449180832
 20
21.574786664
 30
0.0
 11
429.3449180832
 21
20.5327510381
 31
0.0
  0
ARC
  5
FD
330
1F
100
AcDbEntity
  8
0
  6
Continuous
 62
     7
370
    25
100
AcDbCircle
 10
429.3449180832
 20
60.5327510381
 30
0.0
 40
24.92550254794048
100
AcDbArc
 50
270.0
 51
0.0
  0
LINE
  5
FE
330
1F
100
AcDbEntity
  8
0
  6
Continuous
 62
     7
370
    25
100
AcDbLine
 10
429.3449180832
 20
35.6072484902
 30
0.0
 11
429.3449180832
 21
34.109304188
 31
0.0
  0
ARC
  5
FF
330
1F
100
AcDbEntity
  8
0
  6
Continuous
 62
     7
370
    25
100
AcDbCircle
 10
79.3449180832
 20
60.5327510381
 30
0.0
 40
24.92550254794047
100
AcDbArc
 50
180.0
 51
270.0
  0
LINE
  5
100
330
1F
100
AcDbEntity
  8
0
  6
Continuous
 62
     7
370
    25
100
AcDbLine
 10
79.3449180832
 20
35.6072484902
 30
0.0
 11
79.3449180832
 21
34.109304188
 31
0.0
  0
LINE
  5
101
330
1F
100
AcDbEntity
  8
0
  6
Continuous
 62
     7
370
    25
100
AcDbLine
 10
79.3449180832
 20
35.6072484902
 30
0.0
 11
429.3449180832
 21
35.6072484902
 31
0.0
  0
LINE
  5
102
330
1F
100
AcDbEntity
  8
0
  6
Continuous
 62
     7
370
    25
100
AcDbLine
 10
429.3449180832
 20
20.5327510381
 30
0.0
 11
79.3449180832
 21
20.5327510381
 31
0.0
  0
SPLINE
  5
103
330
1F
100
AcDbEntity
  8
0
  6
Continuous
 62
     7
370
    25
100
AcDbSpline
210
0.0
220
0.0
230
1.0
 70
     8
 71
     3
 72
    41
 73
    37
 74
     0
 42
0.00000001
 43
0.00000001
 40
0.0
 40
0.0
 40
0.0
 40
0.0
 40
0.0153160299357752
 40
0.0305558402555857
 40
0.0457194961289627
 40
0.0608070626957182
 40
0.0758186050734729
 40
0.090754188365376
 40
0.1056138776679983
 40
0.1203977380794333
 40
0.1351058347075826
 40
0.1497382326786536
 40
0.164294997145861
 40
0.1787761932983469
 40
0.1931818863703237
 40
0.2075121416504421
 40
0.2217670244913975
 40
0.235946600319777
 40
0.2500509346461514
 40
0.3131564761643175
 40
0.3758473635273679
 40
0.4381290760070496
 40
0.5000071111280718
 40
0.5618837828675497
 40
0.6241650407396853
 40
0.6868563824647773
 40
0.7499632874748836
 40
0.7766661778480869
 40
0.8036377854637161
 40
0.8308785502958594
 40
0.8583889114655039
 40
0.8861693074704362
 40
0.9142201764046592
 40
0.9425419561678695
 40
0.9711350846655249
 40
1.0
 40
1.0
 40
1.0
 40
1.0
 10
429.3449180832324
 20
412.7035591285066
 30
0.0
 10
429.4823681917001
 20
412.7022327793185
 30
0.0
 10
429.7565843936181
 20
412.6995866814665
 30
0.0
 10
430.1666489715826
 20
412.6831943058453
 30
0.0
 10
430.5742007766529
 20
412.6578882181691
 30
0.0
 10
430.9790206860846
 20
412.6229362439879
 30
0.0
 10
431.3808966026223
 20
412.5787368938566
 30
0.0
 10
431.7796235552134
 20
412.525392907035
 30
0.0
 10
432.1750036844647
 20
412.4630902651475
 30
0.0
 10
432.5668462488143
 20
412.3919970743498
 30
0.0
 10
432.9549676136928
 20
412.3122901331087
 30
0.0
 10
433.3391912411549
 20
412.2241475486242
 30
0.0
 10
433.7193476494188
 20
412.1277503985933
 30
0.0
 10
434.0952744480664
 20
412.0232819509204
 30
0.0
 10
434.466816060928
 20
411.9109276977022
 30
0.0
 10
434.8338245739968
 20
411.7908745910135
 30
0.0
 10
435.1961563876176
 20
411.6633126746605
 30
0.0
 10
435.5536843752722
 20
411.5284280237602
 30
0.0
 10
436.3151752795509
 20
411.2217303914915
 30
0.0
 10
437.4526191634912
 20
410.6816416173397
 30
0.0
 10
438.9026797982353
 20
409.8088054233289
 30
0.0
 10
440.2518792453025
 20
408.8049091553253
 30
0.0
 10
441.4918195490869
 20
407.6796703389796
 30
0.0
 10
442.6170580864165
 20
406.4397324191182
 30
0.0
 10
443.6209472562349
 20
405.0905518989794
 30
0.0
 10
444.493804804709
 20
403.6404584669003
 30
0.0
 10
445.0825044014017
 20
402.4006436686129
 30
0.0
 10
445.4648633945392
 20
401.4235938294393
 30
0.0
 10
445.7011446232132
 20
400.73608678964
 30
0.0
 10
445.9100924280377
 20
400.0323026911511
 30
0.0
 10
446.0904737821684
 20
399.3132321116971
 30
0.0
 10
446.2409937794072
 20
398.5799806339222
 30
0.0
 10
446.3606690158672
 20
397.8337366261059
 30
0.0
 10
446.4475060942219
 20
397.0757808319896
 30
0.0
 10
446.5035157099111
 20
396.3074839527008
 30
0.0
 10
446.511643204231
 20
395.7918084221664
 30
0.0
 10
446.5157261736427
 20
395.5327510380963
 30
0.0
  0
LINE
  5
104
330
1F
100
AcDbEntity
  8
0
  6
Continuous
 62
     7
370
    25
100
AcDbLine
 10
429.3449180832
 20
420.458253586
 30
0.0
 11
429.3449180832
 21
412.7035591285
 31
0.0
  0
LINE
  5
105
330
1F
100
AcDbEntity
  8
0
  6
Continuous
 62
     7
370
    25
100
AcDbLine
 10
454.2704206312
 20
395.5327510381
 30
0.0
 11
446.5157261736
 21
395.5327510381
 31
0.0
  0
SPLINE
  5
106
330
1F
100
AcDbEntity
  8
0
  6
Continuous
 62
     7
370
    25
100
AcDbSpline
210
0.0
220
0.0
230
1.0
 70
     8
 71
     3
 72
    41
 73
    37
 74
     0
 42
0.00000001
 43
0.00000001
 40
0.0
 40
0.0
 40
0.0
 40
0.0
 40
0.0153160297865807
 40
0.0305558399758628
 40
0.045719495737377
 40
0.0608070622109287
 40
0.0758186045141374
 40
0.090754187750146
 40
0.1056138770155236
 40
0.1203977374083599
 40
0.1351058340365522
 40
0.1497382320263038
 40
0.1642949965308271
 40
0.1787761927392591
 40
0.193181885885811
 40
0.2075121412591283
 40
0.2217670242119025
 40
0.2359466001707176
 40
0.2500509346461409
 40
0.3131564757110471
 40
0.3758473629230035
 40
0.4381290755537869
 40
0.500007111128129
 40
0.5618837824015652
 40
0.6241650401183576
 40
0.6868563819987865
 40
0.7499632874748757
 40
0.7766661775747419
 40
0.8036377849853102
 40
0.8308785496806956
 40
0.8583889107819084
 40
0.8861693067867591
 40
0.9142201757892775
 40
0.9425419556891812
 40
0.9711350843919563
 40
0.9999999999999999
 40
0.9999999999999999
 40
0.9999999999999999
 40
0.9999999999999999
 10
62.174109992822
 20
395.5327510380963
 30
0.0
 10
62.17543634198794
 20
395.670201145225
 30
0.0
 10
62.17808243979739
 20
395.9444173446327
 30
0.0
 10
62.19447481513474
 20
396.3544819190901
 30
0.0
 10
62.21978090241051
 20
396.7620337211671
 30
0.0
 10
62.25473287609662
 20
397.1668536281222
 30
0.0
 10
62.2989322256787
 20
397.5687295427008
 30
0.0
 10
62.35227621193292
 20
397.9674564938488
 30
0.0
 10
62.41457885327062
 20
398.3628366221715
 30
0.0
 10
62.48567204357189
 20
398.7546791861021
 30
0.0
 10
62.56537898440434
 20
399.1428005510656
 30
0.0
 10
62.6535215686029
 20
399.5270241791095
 30
0.0
 10
62.74991871850338
 20
399.9071805884432
 30
0.0
 10
62.85438716623484
 20
400.2831073886384
 30
0.0
 10
62.96674141973174
 20
400.6546490035142
 30
0.0
 10
63.08679452695095
 20
401.0216575190504
 30
0.0
 10
63.21435644411638
 20
401.3839893355781
 30
0.0
 10
63.34924109614032
 20
401.7415173265638
 30
0.0
 10
63.65593872774541
 20
402.5030082294221
 30
0.0
 10
64.19602749972664
 20
403.6404521098088
 30
0.0
 10
65.06886369042222
 20
405.0905127417753
 30
0.0
 10
66.0727599597408
 20
406.4397121929633
 30
0.0
 10
67.19799877651342
 20
407.6796524981071
 30
0.0
 10
68.43793669480519
 20
408.804891034842
 30
0.0
 10
69.78711721070752
 20
409.8087802033086
 30
0.0
 10
71.23721064564195
 20
410.6816377551909
 30
0.0
 10
72.4770254465929
 20
411.2703373536892
 30
0.0
 10
73.45407528558675
 20
411.6526963469822
 30
0.0
 10
74.14158232002168
 20
411.8889775742608
 30
0.0
 10
74.84536641479903
 20
412.0979253786373
 30
0.0
 10
75.56443699228072
 20
412.2783067330508
 30
0.0
 10
76.29768846989226
 20
412.4288267310757
 30
0.0
 10
77.04393247940378
 20
412.5485019685896
 30
0.0
 10
77.80188827710471
 20
412.6353390480115
 30
0.0
 10
78.57018516187573
 20
412.691348664574
 30
0.0
 10
79.08586069670676
 20
412.6994761590246
 30
0.0
 10
79.34491808323236
 20
412.7035591285066
 30
0.0
  0
LINE
  5
107
330
1F
100
AcDbEntity
  8
0
  6
Continuous
 62
     7
370
    25
100
AcDbLine
 10
54.4194155353
 20
395.5327510381
 30
0.0
 11
62.1741099928
 21
395.5327510381
 31
0.0
  0
LINE
  5
108
330
1F
100
AcDbEntity
  8
0
  6
Continuous
 62
     7
370
    25
100
AcDbLine
 10
79.3449180832
 20
420.458253586
 30
0.0
 11
79.3449180832
 21
412.7035591285
 31
0.0
  0
LINE
  5
109
330
1F
100
AcDbEntity
  8
0
  6
Continuous
 62
     7
370
    25
100
AcDbLine
 10
230.0949180832
 20
418.8095633775
 30
0.0
 11
230.0949180832
 21
417.6581723401
 31
0.0
  0
ARC
  5
10A
330
1F
100
AcDbEntity
  8
0
  6
Continuous
 62
     7
370
    25
100
AcDbCircle
 10
230.8456028463
 20
422.4219190034
 30
0.0
 40
4.82253148100014
100
AcDbArc
 50
261.0448095014
 51
272.9633983003
  0
LINE
  5
10B
330
1F
100
AcDbEntity
  8
0
  6
Continuous
 62
     7
370
    25
100
AcDbLine
 10
231.0949180832
 20
417.6058363839
 30
0.0
 11
277.5949180832
 21
417.6058363839
 31
0.0
  0
ARC
  5
10C
330
1F
100
AcDbEntity
  8
0
  6
Continuous
 62
     7
370
    25
100
AcDbCircle
 10
277.8442333202
 20
422.4219190034
 30
0.0
 40
4.822531480993331
100
AcDbArc
 50
267.0366016997
 51
278.9551904986
  0
LINE
  5
10D
330
1F
100
AcDbEntity
  8
0
  6
Continuous
 62
     7
370
    25
100
AcDbLine
 10
278.5949180832
 20
417.6581723401
 30
0.0
 11
278.5949180832
 21
418.8095633775
 31
0.0
  0
ARC
  5
10E
330
1F
100
AcDbEntity
  8
0
  6
Continuous
 62
     7
370
    25
100
AcDbCircle
 10
277.8442333202
 20
414.0458167142
 30
0.0
 40
4.822531481016482
100
AcDbArc
 50
81.0448095014
 51
92.9633983002
  0
LINE
  5
10F
330
1F
100
AcDbEntity
  8
0
  6
Continuous
 62
     7
370
    25
100
AcDbLine
 10
277.5949180832
 20
418.8618993337
 30
0.0
 11
231.0949180832
 21
418.8618993337
 31
0.0
  0
ARC
  5
110
330
1F
100
AcDbEntity
  8
0
  6
Continuous
 62
     7
370
    25
100
AcDbCircle
 10
230.8456028463
 20
414.0458167142
 30
0.0
 40
4.822531481009141
100
AcDbArc
 50
87.0366016998
 51
98.9551904986
  0
SPLINE
  5
111
330
1F
100
AcDbEntity
  8
0
  6
Continuous
 62
     7
370
    25
100
AcDbSpline
210
0.0
220
0.0
230
1.0
 70
     8
 71
     3
 72
    20
 73
    16
 74
     0
 42
0.00000001
 43
0.00000001
 40
0.0
 40
0.0
 40
0.0
 40
0.0
 40
0.1249999999999999
 40
0.1249999999999999
 40
0.2499999999999999
 40
0.2499999999999999
 40
0.5
 40
0.5
 40
0.625
 40
0.625
 40
0.75
 40
0.75
 40
0.875
 40
0.875
 40
1.0
 40
1.0
 40
1.0
 40
1.0
 10
79.34491808323233
 20
412.7035591285066
 30
0.0
 10
93.91432001255681
 20
412.657549150964
 30
0.0
 10
108.4863031929614
 20
412.6159896887104
 30
0.0
 10
137.6357066517099
 20
412.5422452445458
 30
0.0
 10
152.2131135270821
 20
412.5100371536348
 30
0.0
 10
195.9544814972279
 20
412.4291844556909
 30
0.0
 10
225.1274046144978
 20
412.3959918976473
 30
0.0
 10
268.9156500684675
 20
412.3959639439885
 30
0.0
 10
283.5170042481143
 20
412.4042051498045
 30
0.0
 10
312.7033987381676
 20
412.4343688287648
 30
0.0
 10
327.2919405324016
 20
412.4560959623498
 30
0.0
 10
356.4617001263071
 20
412.5100046624109
 30
0.0
 10
371.0428952824457
 20
412.5422185507703
 30
0.0
 10
400.198749663656
 20
412.6159758610019
 30
0.0
 10
414.7733926621831
 20
412.6575424450053
 30
0.0
 10
429.3449180832324
 20
412.7035591285066
 30
0.0
  0
SPLINE
  5
112
330
1F
100
AcDbEntity
  8
0
  6
Continuous
 62
     7
370
    25
100
AcDbSpline
210
0.0
220
0.0
230
1.0
 70
     8
 71
     3
 72
    16
 73
    12
 74
     0
 42
0.00000001
 43
0.00000001
 40
0.0
 40
0.0
 40
0.0
 40
0.0
 40
0.25
 40
0.25
 40
0.5
 40
0.5
 40
0.625
 40
0.625
 40
0.75
 40
0.75
 40
1.0
 40
1.0
 40
1.0
 40
1.0
 10
446.5030069035728
 20
395.5288740264967
 30
0.0
 10
446.4598641690648
 20
367.5931315430569
 30
0.0
 10
446.4369976475742
 20
339.6585824337687
 30
0.0
 10
446.4357473070746
 20
283.792102283334
 30
0.0
 10
446.4573752068724
 20
255.860171931908
 30
0.0
 10
446.5203535283202
 20
213.9640736553719
 30
0.0
 10
446.5463868937535
 20
199.9978767389353
 30
0.0
 10
446.6078406406767
 20
172.0785157619529
 30
0.0
 10
446.6432600773913
 20
158.1239670903556
 30
0.0
 10
446.762815240839
 20
116.2748625985516
 30
0.0
 10
446.860188894122
 20
88.3947838586625
 30
0.0
 10
446.9740638411254
 20
60.53275103809624
 30
0.0
  0
SPLINE
  5
113
330
1F
100
AcDbEntity
  8
0
  6
Continuous
 62
     7
370
    25
100
AcDbSpline
210
0.0
220
0.0
230
1.0
 70
     8
 71
     3
 72
     9
 73
     5
 74
     0
 42
0.00000001
 43
0.00000001
 40
0.0
 40
0.0
 40
0.0
 40
0.0
 40
0.5008336753273104
 40
1.0
 40
1.0
 40
1.0
 40
1.0
 10
446.5157261736427
 20
395.5327510380963
 30
0.0
 10
446.5136023539612
 20
395.5325905751594
 30
0.0
 10
446.5093617851136
 20
395.5322701834909
 30
0.0
 10
446.5051228414845
 20
395.5300048197763
 30
0.0
 10
446.5030069035728
 20
395.5288740264968
 30
0.0
  0
LINE
  5
114
330
1F
100
AcDbEntity
  8
0
  6
Continuous
 62
     7
370
    25
100
AcDbLine
 10
454.2704206312
 20
60.5327510381
 30
0.0
 11
446.9740638411
 21
60.5327510381
 31
0.0
  0
SPLINE
  5
115
330
1F
100
AcDbEntity
  8
0
  6
Continuous
 62
     7
370
    25
100
AcDbSpline
210
0.0
220
0.0
230
1.0
 70
     8
 71
     3
 72
     9
 73
     5
 74
     0
 42
0.00000001
 43
0.00000001
 40
0.0
 40
0.0
 40
0.0
 40
0.0
 40
0.4991663278832177
 40
0.9999999999999999
 40
0.9999999999999999
 40
0.9999999999999999
 40
0.9999999999999999
 10
62.18682926285135
 20
395.5288740527124
 30
0.0
 10
62.18471332492994
 20
395.5300048416615
 30
0.0
 10
62.18047438130903
 20
395.5322701966865
 30
0.0
 10
62.17623381248031
 20
395.5325905795634
 30
0.0
 10
62.17410999282188
 20
395.5327510380963
 30
0.0
  0
SPLINE
  5
116
330
1F
100
AcDbEntity
  8
0
  6
Continuous
 62
     7
370
    25
100
AcDbSpline
210
0.0
220
0.0
230
1.0
 70
     8
 71
     3
 72
    14
 73
    10
 74
     0
 42
0.00000001
 43
0.00000001
 40
0.0
 40
0.0
 40
0.0
 40
0.0
 40
0.25
 40
0.25
 40
0.5
 40
0.5
 40
0.75
 40
0.75
 40
1.0
 40
1.0
 40
1.0
 40
1.0
 10
61.71577232533926
 20
60.53275103809624
 30
0.0
 10
61.82971254402375
 20
88.41075402391785
 30
0.0
 10
61.92709281162107
 20
116.2972582403874
 30
0.0
 10
62.08646208454841
 20
172.0884351619819
 30
0.0
 10
62.14847113638999
 20
199.9930975760124
 30
0.0
 10
62.23241536188407
 20
255.8229947644417
 30
0.0
 10
62.25406876685371
 20
283.7483741878524
 30
0.0
 10
62.25286037890254
 20
339.6219853947209
 30
0.0
 10
62.23000739233358
 20
367.5702126573424
 30
0.0
 10
62.18682926285133
 20
395.5288740527069
 30
0.0
  0
LINE
  5
117
330
1F
100
AcDbEntity
  8
0
  6
Continuous
 62
     7
370
    25
100
AcDbLine
 10
54.4194155353
 20
60.5327510381
 30
0.0
 11
61.7157723253
 21
60.5327510381
 31
0.0
  0
SPLINE
  5
118
330
1F
100
AcDbEntity
  8
0
  6
Continuous
 62
     7
370
    25
100
AcDbSpline
210
0.0
220
0.0
230
1.0
 70
     8
 71
     3
 72
    41
 73
    37
 74
     0
 42
0.00000001
 43
0.00000001
 40
0.0
 40
0.0
 40
0.0
 40
0.0
 40
0.0153160327170559
 40
0.0305558454701472
 40
0.0457195034288764
 40
0.0608070717331225
 40
0.0758186155005761
 40
0.0907541998344534
 40
0.1056138898313947
 40
0.1203977505895599
 40
0.1351058472169176
 40
0.1497382448397418
 40
0.1642950086113139
 40
0.1787762037208435
 40
0.1931818954026108
 40
0.2075121489453317
 40
0.2217670297017713
 40
0.2359466030985821
 40
0.2500509346464077
 40
0.3131564932762413
 40
0.375847386341647
 40
0.4381290931163359
 40
0.5000071111274366
 40
0.5618837994902294
 40
0.624165062905141
 40
0.6868563990900394
 40
0.7499632874749783
 40
0.776666182518865
 40
0.8036377936384836
 40
0.8308785608075027
 40
0.8583889231464872
 40
0.8861693191528077
 40
0.914220186920048
 40
0.9425419643474864
 40
0.971135089340156
 40
1.0
 40
1.0
 40
1.0
 40
1.0
 10
79.34491808323236
 20
42.90360528020315
 30
0.0
 10
79.2037990151091
 20
42.90496703384439
 30
0.0
 10
78.92226315539119
 20
42.90768376438414
 30
0.0
 10
78.50125272130978
 20
42.92451370453126
 30
0.0
 10
78.08282214300857
 20
42.95049529127242
 30
0.0
 10
77.66719639229122
 20
42.98638024245349
 30
0.0
 10
77.2545932279075
 20
43.03175940936433
 30
0.0
 10
76.84522309215366
 20
43.08652730966028
 30
0.0
 10
76.43928912580292
 20
43.15049299664581
 30
0.0
 10
76.03698716177193
 20
43.22348387625608
 30
0.0
 10
75.63850573624859
 20
43.3053184301031
 30
0.0
 10
75.2440260993385
 20
43.3958137961451
 30
0.0
 10
74.85372225660653
 20
43.4947840625648
 30
0.0
 10
74.46776093293805
 20
43.60204106889027
 30
0.0
 10
74.08630185705233
 20
43.71739437110123
 30
0.0
 10
73.70949689095596
 20
43.84065202624571
 30
0.0
 10
73.3374934671171
 20
43.97161891712825
 30
0.0
 10
72.97042210513247
 20
44.11010400120146
 30
0.0
 10
72.1886047431653
 20
44.42498830744496
 30
0.0
 10
71.0207990881134
 20
44.9794936815256
 30
0.0
 10
69.53203210636616
 20
45.87562848269378
 30
0.0
 10
68.14681885124455
 20
46.90632154413177
 30
0.0
 10
66.87378107584598
 20
48.06159615959177
 30
0.0
 10
65.71850670777937
 20
49.3346315972118
 30
0.0
 10
64.6878208333696
 20
50.7198257348892
 30
0.0
 10
63.7916643611485
 20
52.20862617733047
 30
0.0
 10
63.18725078560439
 20
53.48153501649283
 30
0.0
 10
62.79468557610479
 20
54.48466502141075
 30
0.0
 10
62.55209730544578
 20
55.19052367211019
 30
0.0
 10
62.33757208201715
 20
55.91309383346172
 30
0.0
 10
62.15237584186445
 20
56.6513584848849
 30
0.0
 10
61.99783805191139
 20
57.4041825313768
 30
0.0
 10
61.87496836175954
 20
58.17034588284792
 30
0.0
 10
61.78581337371458
 20
58.94853360833751
 30
0.0
 10
61.72830871752574
 20
59.73733841866125
 30
0.0
 10
61.71996427957524
 20
60.26677871928049
 30
0.0
 10
61.71577232533926
 20
60.53275103809624
 30
0.0
  0
LINE
  5
119
330
1F
100
AcDbEntity
  8
0
  6
Continuous
 62
     7
370
    25
100
AcDbLine
 10
79.3449180832
 20
35.6072484902
 30
0.0
 11
79.3449180832
 21
42.9036052802
 31
0.0
  0
SPLINE
  5
11A
330
1F
100
AcDbEntity
  8
0
  6
Continuous
 62
     7
370
    25
100
AcDbSpline
210
0.0
220
0.0
230
1.0
 70
     8
 71
     3
 72
    41
 73
    37
 74
     0
 42
0.00000001
 43
0.00000001
 40
0.0
 40
0.0
 40
0.0
 40
0.0
 40
0.0153160328648957
 40
0.0305558457473298
 40
0.0457195038169064
 40
0.0608070722135095
 40
0.0758186160548335
 40
0.090754200444098
 40
0.1056138904779475
 40
0.1203977512545432
 40
0.1351058478818594
 40
0.149738245486173
 40
0.164295009220769
 40
0.1787762042748599
 40
0.1931818958827302
 40
0.2075121493331013
 40
0.2217670299787379
 40
0.2359466032462998
 40
0.2500509346464303
 40
0.3131564937253988
 40
0.3758473869405262
 40
0.4381290935654964
 40
0.5000071111274131
 40
0.5618837994916066
 40
0.6241650629069867
 40
0.686856399091422
 40
0.749963287474966
 40
0.7766661825196759
 40
0.8036377936399143
 40
0.8308785608093462
 40
0.8583889231485389
 40
0.8861693191548599
 40
0.9142201869218963
 40
0.9425419643489245
 40
0.9711350893409778
 40
1.0
 40
1.0
 40
1.0
 40
1.0
 10
446.9740638411255
 20
60.53275103809624
 30
0.0
 10
446.9727020874616
 20
60.39163196861086
 30
0.0
 10
446.9699853568786
 20
60.11009610633899
 30
0.0
 10
446.9531554164427
 20
59.68908566868952
 30
0.0
 10
446.927173829294
 20
59.27065508734319
 30
0.0
 10
446.8912888776093
 20
58.85502933410613
 30
0.0
 10
446.8459097101398
 20
58.44242616772921
 30
0.0
 10
446.7911418092666
 20
58.03305603050746
 30
0.0
 10
446.7271761217216
 20
57.6271220632118
 30
0.0
 10
446.6541852416064
 20
57.22482009875451
 30
0.0
 10
446.5723506873438
 20
56.82633867331776
 30
0.0
 10
446.4818553210108
 20
56.43185903699943
 30
0.0
 10
446.3828850544585
 20
56.04155519535586
 30
0.0
 10
446.2756280481924
 20
55.65559387326208
 30
0.0
 10
446.1602747462651
 20
55.27413479942523
 30
0.0
 10
446.0370170916603
 20
54.89732983583939
 30
0.0
 10
445.9060502016044
 20
54.52532641495772
 30
0.0
 10
445.7675651186741
 20
54.15825505636224
 30
0.0
 10
445.4526808117561
 20
53.37643769294953
 30
0.0
 10
444.8981754354668
 20
52.20863203428311
 30
0.0
 10
444.0020406309258
 20
50.71986504970982
 30
0.0
 10
442.9713475708267
 20
49.33465179878077
 30
0.0
 10
441.8160729586554
 20
48.06161402791431
 30
0.0
 10
440.5430375240937
 20
46.90633966262259
 30
0.0
 10
439.1578433864036
 20
45.87565378820974
 30
0.0
 10
437.6690429439711
 20
44.97949731599882
 30
0.0
 10
436.396134104817
 20
44.37508374046045
 30
0.0
 10
435.3930040998983
 20
43.98251853096124
 30
0.0
 10
434.6871454491823
 20
43.73993026029793
 30
0.0
 10
433.9645752878194
 20
43.52540503686792
 30
0.0
 10
433.2263106363902
 20
43.34020879671596
 30
0.0
 10
432.4734865898976
 20
43.1856710067654
 30
0.0
 10
431.7073232384318
 20
43.06280131661688
 30
0.0
 10
430.9291355129533
 20
42.97364632857514
 30
0.0
 10
430.1403307026466
 20
42.916141672389
 30
0.0
 10
429.6108904020405
 20
42.90779723443894
 30
0.0
 10
429.3449180832324
 20
42.90360528020315
 30
0.0
  0
LINE
  5
11B
330
1F
100
AcDbEntity
  8
0
  6
Continuous
 62
     7
370
    25
100
AcDbLine
 10
429.3449180832
 20
35.6072484902
 30
0.0
 11
429.3449180832
 21
42.9036052802
 31
0.0
  0
LINE
  5
11C
330
1F
100
AcDbEntity
  8
0
  6
Continuous
 62
     7
370
    25
100
AcDbLine
 10
79.3469850159
 20
42.9126228807
 30
0.0
 11
79.3449180832
 21
42.9036052802
 31
0.0
  0
SPLINE
  5
11D
330
1F
100
AcDbEntity
  8
0
  6
Continuous
 62
     7
370
    25
100
AcDbSpline
210
0.0
220
0.0
230
1.0
 70
     8
 71
     3
 72
    16
 73
    12
 74
     0
 42
0.00000001
 43
0.00000001
 40
0.0
 40
0.0
 40
0.0
 40
0.0
 40
0.25
 40
0.25
 40
0.5
 40
0.5
 40
0.75
 40
0.75
 40
0.875
 40
0.875
 40
1.0
 40
1.0
 40
1.0
 40
1.0
 10
429.3428511505743
 20
42.91262288068248
 30
0.0
 10
400.1873823410468
 20
42.99623052657531
 30
0.0
 10
371.0289723596341
 20
43.0602813797537
 30
0.0
 10
312.7058377356165
 20
43.14639488385358
 30
0.0
 10
283.5410970597728
 20
43.16835092464116
 30
0.0
 10
225.2050159317833
 20
43.16837898238723
 30
0.0
 10
196.0336754165597
 20
43.146450579921
 30
0.0
 10
152.2718980289072
 20
43.08186322951507
 30
0.0
 10
137.6826650829196
 20
43.05507403942887
 30
0.0
 10
108.5080315762391
 20
42.99135207962984
 30
0.0
 10
93.92529841872668
 20
42.9544283639921
 30
0.0
 10
79.34698501588655
 20
42.91262288068248
 30
0.0
  0
LINE
  5
11E
330
1F
100
AcDbEntity
  8
0
  6
Continuous
 62
     7
370
    25
100
AcDbLine
 10
429.3449180832
 20
42.9036052802
 30
0.0
 11
429.3428511506
 21
42.9126228807
 31
0.0
  0
LINE
  5
11F
330
1F
100
AcDbEntity
  8
0
  6
Continuous
 62
     7
370
    25
100
AcDbLine
 10
277.5949180832
 20
417.6058363839
 30
0.0
 11
277.5949180832
 21
418.4047400117
 31
0.0
  0
ARC
  5
120
330
1F
100
AcDbEntity
  8
0
  6
Continuous
 62
     7
370
    25
100
AcDbCircle
 10
277.8442333202
 20
423.2208226312
 30
0.0
 40
4.822531480993331
100
AcDbArc
 50
267.0366016997
 51
278.9551904986
  0
LINE
  5
121
330
1F
100
AcDbEntity
  8
0
  6
Continuous
 62
     7
370
    25
100
AcDbLine
 10
231.0949180832
 20
417.6058363839
 30
0.0
 11
231.0949180832
 21
418.4047400117
 31
0.0
  0
ARC
  5
122
330
1F
100
AcDbEntity
  8
0
  6
Continuous
 62
     7
370
    25
100
AcDbCircle
 10
230.8456028463
 20
423.2208226312
 30
0.0
 40
4.82253148100014
100
AcDbArc
 50
261.0448095014
 51
272.9633983003
  0
LINE
  5
123
330
1F
100
AcDbEntity
  8
0
  6
Continuous
 62
     7
370
    25
100
AcDbLine
 10
231.0949180832
 20
418.4047400117
 30
0.0
 11
277.5949180832
 21
418.4047400117
 31
0.0
  0
SPLINE
  5
124
330
1F
100
AcDbEntity
  8
0
  6
Continuous
 62
     7
370
    25
100
AcDbSpline
210
0.0
220
0.0
230
1.0
 70
     8
 71
     3
 72
     8
 73
     4
 74
     0
 42
0.00000001
 43
0.00000001
 40
0.0
 40
0.0
 40
0.0
 40
0.0
 40
1.0
 40
1.0
 40
1.0
 40
1.0
 10
61.75312476785971
 20
60.50070822650944
 30
0.0
 10
61.73840373123493
 20
60.5113856914783
 30
0.0
 10
61.72595178432547
 20
60.52206800848447
 30
0.0
 10
61.71577232533901
 20
60.53275103809624
 30
0.0
  0
SPLINE
  5
125
330
1F
100
AcDbEntity
  8
0
  6
Continuous
 62
     7
370
    25
100
AcDbSpline
210
0.0
220
0.0
230
1.0
 70
     8
 71
     3
 72
    96
 73
    92
 74
     0
 42
0.00000001
 43
0.00000001
 40
0.0
 40
0.0
 40
0.0
 40
0.0
 40
0.0182854206147946
 40
0.0182854206147946
 40
0.0365708412295892
 40
0.0365708412295892
 40
0.0731416824591785
 40
0.0731416824591785
 40
0.1097125236887677
 40
0.1097125236887677
 40
0.146283364918357
 40
0.146283364918357
 40
0.1828542061479462
 40
0.1828542061479462
 40
0.2194250473775355
 40
0.2194250473775355
 40
0.2377104679923301
 40
0.2377104679923301
 40
0.2559958886071247
 40
0.2559958886071247
 40
0.2742813092219193
 40
0.2742813092219193
 40
0.2834240195293166
 40
0.2834240195293166
 40
0.2925667298367139
 40
0.2925667298367139
 40
0.3006066057126269
 40
0.3006066057126269
 40
0.3247262333403657
 40
0.3247262333403657
 40
0.3568857368440175
 40
0.3568857368440175
 40
0.3890452403476693
 40
0.3890452403476693
 40
0.4212047438513211
 40
0.4212047438513211
 40
0.437284495603147
 40
0.437284495603147
 40
0.4533642473549728
 40
0.4533642473549728
 40
0.4855237508586246
 40
0.4855237508586246
 40
0.5016035026104506
 40
0.5016035026104506
 40
0.5176832543622765
 40
0.5176832543622765
 40
0.5337630061141023
 40
0.5337630061141023
 40
0.5498427578659282
 40
0.5498427578659282
 40
0.5787473862506409
 40
0.5787473862506409
 40
0.6076520146353538
 40
0.6076520146353538
 40
0.6365566430200666
 40
0.6365566430200666
 40
0.6654612714047794
 40
0.6654612714047794
 40
0.6799135855971358
 40
0.6799135855971358
 40
0.6943658997894921
 40
0.6943658997894921
 40
0.723270528174205
 40
0.723270528174205
 40
0.7377228423665614
 40
0.7377228423665614
 40
0.7521751565589179
 40
0.7521751565589179
 40
0.7666274707512742
 40
0.7666274707512742
 40
0.7810797849436306
 40
0.7810797849436306
 40
0.7947622983846537
 40
0.7947622983846537
 40
0.8084448118256768
 40
0.8084448118256768
 40
0.835809838707723
 40
0.835809838707723
 40
0.8905398924718153
 40
0.8905398924718153
 40
0.9179049193538615
 40
0.9179049193538615
 40
0.9452699462359077
 40
0.9452699462359077
 40
0.9726349731179538
 40
0.9726349731179538
 40
0.9863174865589769
 40
0.9863174865589769
 40
0.9931587432794884
 40
0.9931587432794884
 40
1.0
 40
1.0
 40
1.0
 40
1.0
 10
62.18682926285133
 20
395.5288740527124
 30
0.0
 10
62.19931068318849
 20
395.5313125115264
 30
0.0
 10
62.21515519531354
 20
395.5326251585807
 30
0.0
 10
62.25336196628908
 20
395.5330606513018
 30
0.0
 10
62.27572422513952
 20
395.5321834969686
 30
0.0
 10
62.35227496650261
 20
395.5263600650853
 30
0.0
 10
62.41592741382709
 20
395.5182218186519
 30
0.0
 10
62.56680205316862
 20
395.4939279858183
 30
0.0
 10
62.65380822002803
 20
395.4778381413826
 30
0.0
 10
62.850569072115
 20
395.4379142539105
 30
0.0
 10
62.96032375734262
 20
395.4140802108745
 30
0.0
 10
63.20219247015751
 20
395.3588095836403
 30
0.0
 10
63.33433839401103
 20
395.3273643015057
 30
0.0
 10
63.62200945491431
 20
395.2565489897412
 30
0.0
 10
63.777534591964
 20
395.2171789601111
 30
0.0
 10
64.0290737661634
 20
395.1519517471991
 30
0.0
 10
64.11579731475636
 20
395.1292271995047
 30
0.0
 10
64.29487712433007
 20
395.0818469110146
 30
0.0
 10
64.38723338531076
 20
395.0571911702187
 30
0.0
 10
64.5774570176611
 20
395.0059815892059
 30
0.0
 10
64.67536132349966
 20
394.9794170258833
 30
0.0
 10
64.82640428435249
 20
394.9381270402462
 30
0.0
 10
64.87744968831926
 20
394.9241231882582
 30
0.0
 10
64.98093562488444
 20
394.8956338571597
 30
0.0
 10
65.03337615748286
 20
394.881148378049
 30
0.0
 10
65.13324224780112
 20
394.8534715984634
 30
0.0
 10
65.18047725433915
 20
394.8403433919046
 30
0.0
 10
65.37143541695076
 20
394.7871205185197
 30
0.0
 10
65.51919484594268
 20
394.7456057573941
 30
0.0
 10
65.87441760522064
 20
394.6450416064371
 30
0.0
 10
66.08536452160548
 20
394.5847600916069
 30
0.0
 10
66.52288981719754
 20
394.4586282315551
 30
0.0
 10
66.74946819640479
 20
394.3927778863335
 30
0.0
 10
67.2179629154411
 20
394.2555721065312
 30
0.0
 10
67.45987925527005
 20
394.1842166719506
 30
0.0
 10
67.83403710882926
 20
394.0731025088348
 30
0.0
 10
67.96048641918492
 20
394.0354314477928
 30
0.0
 10
68.21650315963021
 20
393.9589296959675
 30
0.0
 10
68.34607058971989
 20
393.9200990051843
 30
0.0
 10
68.73893716168381
 20
393.8020270636226
 30
0.0
 10
69.00662180762798
 20
393.7211374601955
 30
0.0
 10
69.41571762705742
 20
393.5968855558611
 30
0.0
 10
69.55340836393061
 20
393.5549619449991
 30
0.0
 10
69.83139286602739
 20
393.4701185884118
 30
0.0
 10
69.97168663125078
 20
393.4271988426864
 30
0.0
 10
70.25482929093788
 20
393.3403797003433
 30
0.0
 10
70.39767818540152
 20
393.2964803037256
 30
0.0
 10
70.68588320445899
 20
393.2077183435687
 30
0.0
 10
70.8312393290528
 20
393.1628557800295
 30
0.0
 10
71.24132469644032
 20
393.0360249920627
 30
0.0
 10
71.51018296447134
 20
392.9525672545065
 30
0.0
 10
72.05802109864729
 20
392.7819191105876
 30
0.0
 10
72.33700096479207
 20
392.6947287042249
 30
0.0
 10
72.90448651181424
 20
392.5168082630937
 30
0.0
 10
73.19299219269165
 20
392.426078228325
 30
0.0
 10
73.77893358579773
 20
392.241271570783
 30
0.0
 10
74.07636929802635
 20
392.1471949480094
 30
0.0
 10
74.52877355234722
 20
392.0037148531458
 30
0.0
 10
74.68046402967855
 20
391.9555437000304
 30
0.0
 10
74.98535689736107
 20
391.858601472558
 30
0.0
 10
75.13855928771235
 20
391.8098303982009
 30
0.0
 10
75.60003502015361
 20
391.6627507758876
 30
0.0
 10
75.910176923631
 20
391.5636758286888
 30
0.0
 10
76.37752966905099
 20
391.4140645398867
 30
0.0
 10
76.53376656870809
 20
391.3639968996112
 30
0.0
 10
76.84705973028933
 20
391.2634993620829
 30
0.0
 10
77.00411599221346
 20
391.2130694648301
 30
0.0
 10
77.3189619382283
 20
391.1118795777202
 30
0.0
 10
77.47675162231893
 20
391.0611195878632
 30
0.0
 10
77.79297847256645
 20
390.959301679917
 30
0.0
 10
77.95141563872326
 20
390.9082437618279
 30
0.0
 10
78.26039742145468
 20
390.8085888335049
 30
0.0
 10
78.41141136285474
 20
390.7598448022625
 30
0.0
 10
78.7148508017434
 20
390.6618286240904
 30
0.0
 10
78.86727629923207
 20
390.6125564771606
 30
0.0
 10
79.32653717253845
 20
390.4639953981233
 30
0.0
 10
79.63535692919687
 20
390.3639618277681
 30
0.0
 10
80.56869009619733
 20
390.0612628459777
 30
0.0
 10
81.20007823717273
 20
389.8559997281807
 30
0.0
 10
82.15643277343764
 20
389.5445525714848
 30
0.0
 10
82.47682663928785
 20
389.4401272377509
 30
0.0
 10
83.12006616286033
 20
389.2303442855066
 30
0.0
 10
83.44291182058261
 20
389.1249866669964
 30
0.0
 10
84.09028867891399
 20
388.9136260900931
 30
0.0
 10
84.41484128675769
 20
388.8076082491302
 30
0.0
 10
84.90233634090816
 20
388.6482824591559
 30
0.0
 10
85.06490512593152
 20
388.5951373462648
 30
0.0
 10
85.30898945324105
 20
388.5153241576515
 30
0.0
 10
85.39077034131503
 20
388.4885792885391
 30
0.0
 10
85.55377420537397
 20
388.4352654093518
 30
0.0
 10
85.63499718135887
 20
388.4086963992768
 30
0.0
 10
85.715242799617
 20
388.3824437211473
 30
0.0
  0
SPLINE
  5
126
330
1F
100
AcDbEntity
  8
0
  6
Continuous
 62
     7
370
    25
100
AcDbSpline
210
0.0
220
0.0
230
1.0
 70
     8
 71
     3
 72
    14
 73
    10
 74
     0
 42
0.00000001
 43
0.00000001
 40
0.0
 40
0.0
 40
0.0
 40
0.0
 40
0.2500000000000001
 40
0.2500000000000001
 40
0.5000000000000001
 40
0.5000000000000001
 40
0.7500000000000001
 40
0.7500000000000001
 40
1.0
 40
1.0
 40
1.0
 40
1.0
 10
85.71524279961676
 20
388.3824437211472
 30
0.0
 10
85.72895218067916
 20
361.4989591587261
 30
0.0
 10
85.73061381713495
 20
334.6034376715073
 30
0.0
 10
85.73013551762581
 20
280.8360893716506
 30
0.0
 10
85.72773358391444
 20
253.960813476644
 30
0.0
 10
85.69667445835705
 20
200.2256631454403
 30
0.0
 10
85.66659483916989
 20
173.3656988957455
 30
0.0
 10
85.56616081206467
 20
119.6593029034344
 30
0.0
 10
85.49644629291983
 20
92.82646399143756
 30
0.0
 10
85.40811750380384
 20
66.01293298910194
 30
0.0
  0
SPLINE
  5
127
330
1F
100
AcDbEntity
  8
0
  6
Continuous
 62
     7
370
    25
100
AcDbSpline
210
0.0
220
0.0
230
1.0
 70
     8
 71
     3
 72
    35
 73
    31
 74
     0
 42
0.00000001
 43
0.00000001
 40
0.0
 40
0.0
 40
0.0
 40
0.0
 40
0.0138475617427636
 40
0.0270791840425147
 40
0.0396948555414773
 40
0.0516945661460439
 40
0.063078306955544
 40
0.0738460702010894
 40
0.0839978491965475
 40
0.09353363830457
 40
0.1024534329220336
 40
0.1107572294914396
 40
0.1184450255484403
 40
0.1255168198219707
 40
0.1911824905138921
 40
0.2497628024750647
 40
0.3146408941989892
 40
0.3753844498973749
 40
0.4994301264515124
 40
0.5630853811200789
 40
0.6248176108375985
 40
0.6878829207679956
 40
0.7497708492448122
 40
0.8119376539047797
 40
0.8732863049500273
 40
0.8987375845672498
 40
0.9241313421648977
 40
0.9494708214988571
 40
0.9747592824864661
 40
1.0
 40
1.0
 40
1.0
 40
1.0
 10
85.40811750380404
 20
66.0129329891021
 30
0.0
 10
85.24533049483452
 20
65.96373759151558
 30
0.0
 10
84.92699724184
 20
65.86753500726012
 30
0.0
 10
84.46108922003515
 20
65.72749176505349
 30
0.0
 10
84.01754235249656
 20
65.59462892317747
 30
0.0
 10
83.59642179808353
 20
65.4689252694507
 30
0.0
 10
83.19771069525846
 20
65.35027973016277
 30
0.0
 10
82.82137590494101
 20
65.23861658021617
 30
0.0
 10
82.4673574410894
 20
65.13385923735015
 30
0.0
 10
82.13557662963503
 20
65.03593705008481
 30
0.0
 10
81.82593905760737
 20
64.94478270674453
 30
0.0
 10
81.53833935220663
 20
64.86033597203456
 30
0.0
 10
81.27266228885807
 20
64.78253233195885
 30
0.0
 10
80.34818403000476
 20
64.51265087842734
 30
0.0
 10
78.85440943264247
 20
64.08252883591354
 30
0.0
 10
76.76176964908979
 20
63.49360505142171
 30
0.0
 10
74.79244178697833
 20
62.95546029311522
 30
0.0
 10
72.24226556306718
 20
62.28110688801569
 30
0.0
 10
69.90091534847635
 20
61.6994680859444
 30
0.0
 10
67.82240739596571
 20
61.22601389544402
 30
0.0
 10
66.40084436642918
 20
60.92653050594271
 30
0.0
 10
65.15379063742333
 20
60.69112128838994
 30
0.0
 10
64.0784259857712
 20
60.51850969550065
 30
0.0
 10
63.19588485253047
 20
60.41180946519731
 30
0.0
 10
62.64071469750884
 20
60.37842405428945
 30
0.0
 10
62.3075655863796
 20
60.38135493707997
 30
0.0
 10
62.11523820808701
 20
60.39435882003153
 30
0.0
 10
61.95831656952072
 20
60.41853819742982
 30
0.0
 10
61.83368659135805
 20
60.45279715509638
 30
0.0
 10
61.77996178805179
 20
60.4847479324756
 30
0.0
 10
61.75312476785971
 20
60.5007082265095
 30
0.0
  0
SPLINE
  5
128
330
1F
100
AcDbEntity
  8
0
  6
Continuous
 62
     7
370
    25
100
AcDbSpline
210
0.0
220
0.0
230
1.0
 70
     8
 71
     3
 72
    84
 73
    80
 74
     0
 42
0.00000001
 43
0.00000001
 40
0.0
 40
0.0
 40
0.0
 40
0.0
 40
0.0183141236183778
 40
0.0183141236183778
 40
0.0366282472367555
 40
0.0366282472367555
 40
0.0732564944735111
 40
0.0732564944735111
 40
0.1098847417102666
 40
0.1098847417102666
 40
0.1465129889470221
 40
0.1465129889470221
 40
0.2197694834205332
 40
0.2197694834205332
 40
0.238083607038911
 40
0.238083607038911
 40
0.2563977306572888
 40
0.2563977306572888
 40
0.2747118542756665
 40
0.2747118542756665
 40
0.2838689160848554
 40
0.2838689160848554
 40
0.2930259778940443
 40
0.2930259778940443
 40
0.3251755316611257
 40
0.3251755316611257
 40
0.3573250854282072
 40
0.3573250854282072
 40
0.3894746391952886
 40
0.3894746391952886
 40
0.4216241929623701
 40
0.4216241929623701
 40
0.4537737467294515
 40
0.4537737467294515
 40
0.485923300496533
 40
0.485923300496533
 40
0.5180728542636144
 40
0.5180728542636144
 40
0.5341476311471551
 40
0.5341476311471551
 40
0.5502224080306959
 40
0.5502224080306959
 40
0.5791063997834663
 40
0.5791063997834663
 40
0.6079903915362368
 40
0.6079903915362368
 40
0.6368743832890073
 40
0.6368743832890073
 40
0.6657583750417777
 40
0.6657583750417777
 40
0.6946423667945482
 40
0.6946423667945482
 40
0.7235263585473186
 40
0.7235263585473186
 40
0.7524103503000891
 40
0.7524103503000891
 40
0.7668523461764742
 40
0.7668523461764742
 40
0.7812943420528595
 40
0.7812943420528595
 40
0.7949634456745558
 40
0.7949634456745558
 40
0.8086325492962521
 40
0.8086325492962521
 40
0.8359707565396446
 40
0.8359707565396446
 40
0.8906471710264298
 40
0.8906471710264298
 40
0.9179853782698224
 40
0.9179853782698224
 40
0.9453235855132149
 40
0.9453235855132149
 40
0.9726617927566075
 40
0.9726617927566075
 40
0.9863308963783037
 40
0.9863308963783037
 40
0.9931654481891519
 40
0.9931654481891519
 40
1.0
 40
1.0
 40
1.0
 40
1.0
 10
79.34698501588655
 20
42.91262288068248
 30
0.0
 10
79.3395468195331
 20
42.92497946194385
 30
0.0
 10
79.33317639563259
 20
42.94063628078209
 30
0.0
 10
79.32251182045091
 20
42.97831653932693
 30
0.0
 10
79.31821766916968
 20
43.00033997903341
 30
0.0
 10
79.30836071582415
 20
43.07560944802636
 30
0.0
 10
79.30582341425801
 20
43.13805462718629
 30
0.0
 10
79.30834263415815
 20
43.28560521754887
 30
0.0
 10
79.3133564920506
 20
43.37064242532907
 30
0.0
 10
79.3307264285277
 20
43.56295775624902
 30
0.0
 10
79.34308250711238
 20
43.67023587938873
 30
0.0
 10
79.39091466111579
 20
44.02500725709086
 30
0.0
 10
79.43729256282859
 20
44.30605366916085
 30
0.0
 10
79.51422116215664
 20
44.71609032076984
 30
0.0
 10
79.53050444226164
 20
44.80079884680715
 30
0.0
 10
79.56485866857358
 20
44.97557672323871
 30
0.0
 10
79.58292961478067
 20
45.065646073633
 30
0.0
 10
79.62085171892005
 20
45.25110403170507
 30
0.0
 10
79.64071310188523
 20
45.34653846752568
 30
0.0
 10
79.67188177049758
 20
45.4938414583625
 30
0.0
 10
79.68250075906244
 20
45.54363434482578
 30
0.0
 10
79.70420195055064
 20
45.64461942210918
 30
0.0
 10
79.71528415347393
 20
45.69581161292929
 30
0.0
 10
79.76632946131798
 20
45.92992568840476
 30
0.0
 10
79.80880930680337
 20
46.12021451533838
 30
0.0
 10
79.89920622394614
 20
46.51658977953888
 30
0.0
 10
79.94712329560355
 20
46.72267621680582
 30
0.0
 10
80.0483308461385
 20
47.15029559777162
 30
0.0
 10
80.10162132501603
 20
47.37182854147043
 30
0.0
 10
80.21351187103876
 20
47.82998983139852
 30
0.0
 10
80.27211193818401
 20
48.06661817762764
 30
0.0
 10
80.39455784179017
 20
48.55461916871495
 30
0.0
 10
80.45817104535641
 20
48.80512168000717
 30
0.0
 10
80.58953585447642
 20
49.3167650533492
 30
0.0
 10
80.6573641007205
 20
49.5781958092345
 30
0.0
 10
80.79713387852738
 20
50.11170050486135
 30
0.0
 10
80.86907373331448
 20
50.38376604560079
 30
0.0
 10
80.97996751273917
 20
50.79953114259789
 30
0.0
 10
81.01742943875485
 20
50.93939730591157
 30
0.0
 10
81.09333154793724
 20
51.22163472725128
 30
0.0
 10
81.13177173110392
 20
51.36400598527735
 30
0.0
 10
81.24062830045592
 20
51.76562986233618
 30
0.0
 10
81.31250773675552
 20
52.02903754803012
 30
0.0
 10
81.45998705596574
 20
52.56601792729626
 30
0.0
 10
81.53558693887625
 20
52.83959062086841
 30
0.0
 10
81.6903396491361
 20
53.39630129631811
 30
0.0
 10
81.76949247648544
 20
53.67943927819563
 30
0.0
 10
81.93118357345028
 20
54.2546808106828
 30
0.0
 10
82.01372184306591
 20
54.54678436129245
 30
0.0
 10
82.18201632239116
 20
55.13935731167108
 30
0.0
 10
82.26744846114894
 20
55.43871361441239
 30
0.0
 10
82.44050619057661
 20
56.04237562941417
 30
0.0
 10
82.52813178124643
 20
56.3466813416747
 30
0.0
 10
82.7052000682195
 20
56.95905193013073
 30
0.0
 10
82.79467150202588
 20
57.26721793775524
 30
0.0
 10
82.93006166306691
 20
57.73178126676892
 30
0.0
 10
82.97538888513576
 20
57.88702142936963
 30
0.0
 10
83.06640051185929
 20
58.19816373501041
 30
0.0
 10
83.11208491651387
 20
58.35406587805036
 30
0.0
 10
83.20132029857626
 20
58.65806448659389
 30
0.0
 10
83.24500712220953
 20
58.80665219605624
 30
0.0
 10
83.33294444898362
 20
59.10527488698742
 30
0.0
 10
83.37719495212446
 20
59.25530986845629
 30
0.0
 10
83.51074991880256
 20
59.70745411447697
 30
0.0
 10
83.60085783959512
 20
60.0116026806427
 30
0.0
 10
83.87405893494574
 20
60.93115273442889
 30
0.0
 10
84.06002882012217
 20
61.55365925232331
 30
0.0
 10
84.3432342418108
 20
62.49716776592462
 30
0.0
 10
84.43836172134314
 20
62.81335988790038
 30
0.0
 10
84.6298056188565
 20
63.44836425930866
 30
0.0
 10
84.72612203683747
 20
63.76717650874114
 30
0.0
 10
84.91968140509113
 20
64.40666269430207
 30
0.0
 10
85.01693749052589
 20
64.7273564157354
 30
0.0
 10
85.1633450983493
 20
65.20919753987103
 30
0.0
 10
85.21222281882154
 20
65.36990524524249
 30
0.0
 10
85.28568827186075
 20
65.6112274345822
 30
0.0
 10
85.3103154552081
 20
65.69208448602475
 30
0.0
 10
85.35942782545456
 20
65.85325774365225
 30
0.0
 10
85.38391301235379
 20
65.93357394983724
 30
0.0
 10
85.40811750380409
 20
66.01293298910194
 30
0.0
  0
SPLINE
  5
129
330
1F
100
AcDbEntity
  8
0
  6
Continuous
 62
     7
370
    25
100
AcDbSpline
210
0.0
220
0.0
230
1.0
 70
     8
 71
     3
 72
    14
 73
    10
 74
     0
 42
0.00000001
 43
0.00000001
 40
0.0
 40
0.0
 40
0.0
 40
0.0
 40
0.25
 40
0.25
 40
0.5
 40
0.5
 40
0.75
 40
0.75
 40
1.0
 40
1.0
 40
1.0
 40
1.0
 10
85.40811750380406
 20
66.01293298910194
 30
0.0
 10
113.5573722170427
 20
66.07102418487854
 30
0.0
 10
141.7283052268534
 20
66.1107949753268
 30
0.0
 10
198.0550204094482
 20
66.16094271326584
 30
0.0
 10
226.2154440674262
 20
66.17186788285373
 30
0.0
 10
282.5302239644994
 20
66.17185279916826
 30
0.0
 10
310.6845802527009
 20
66.16091135711655
 30
0.0
 10
366.987432669388
 20
66.11075894833645
 30
0.0
 10
395.135941334721
 20
66.07101700865047
 30
0.0
 10
423.2817186626605
 20
66.01293298910194
 30
0.0
  0
SPLINE
  5
12A
330
1F
100
AcDbEntity
  8
0
  6
Continuous
 62
     7
370
    25
100
AcDbSpline
210
0.0
220
0.0
230
1.0
 70
     8
 71
     3
 72
    35
 73
    31
 74
     0
 42
0.00000001
 43
0.00000001
 40
0.0
 40
0.0
 40
0.0
 40
0.0
 40
0.0138502654225774
 40
0.0270840928246575
 40
0.0397014714877361
 40
0.0517023919611997
 40
0.0630868459856824
 40
0.0738548264268481
 40
0.0840063272216727
 40
0.0935413433401386
 40
0.1024598707667187
 40
0.1107619065081342
 40
0.1184474486376755
 40
0.125516496392419
 40
0.191182933834485
 40
0.2497617899614694
 40
0.3146399568382864
 40
0.375382417097945
 40
0.4994269959257927
 40
0.563082125094985
 40
0.6248136608946444
 40
0.6878792127633597
 40
0.7497668575124218
 40
0.8119344218505552
 40
0.8732834912065527
 40
0.8987354108516661
 40
0.9241297695975595
 40
0.9494698116496684
 40
0.9747587969548722
 40
1.0
 40
1.0
 40
1.0
 40
1.0
 10
423.2817186626604
 20
66.01293298910188
 30
0.0
 10
423.3312395903959
 20
65.85045263221178
 30
0.0
 10
423.4280774027142
 20
65.53272348161931
 30
0.0
 10
423.5693129099598
 20
65.06797244123507
 30
0.0
 10
423.7034817777322
 20
64.62571702426689
 30
0.0
 10
423.8305964758228
 20
64.20601346454951
 30
0.0
 10
423.9507277612385
 20
63.80881426855939
 30
0.0
 10
424.0639281248895
 20
63.4340627681626
 30
0.0
 10
424.1702508759155
 20
63.0816754032909
 30
0.0
 10
424.2697451188933
 20
62.75155166099988
 30
0.0
 10
424.3624579118753
 20
62.44357659523175
 30
0.0
 10
424.4484306141189
 20
62.15762569860361
 30
0.0
 10
424.5277102652833
 20
61.89356603249202
 30
0.0
 10
424.803028527135
 20
60.97472919354053
 30
0.0
 10
425.2438412928518
 20
59.49193254114804
 30
0.0
 10
425.85249019246
 20
57.41938071270297
 30
0.0
 10
426.4139295484853
 20
55.47373869532257
 30
0.0
 10
427.1252680016116
 20
52.96107551324242
 30
0.0
 10
427.7514688802164
 20
50.66483527669674
 30
0.0
 10
428.276504985312
 20
48.63846258263477
 30
0.0
 10
428.618187561027
 20
47.25950876724372
 30
0.0
 10
428.8982664465614
 20
46.05752715640948
 30
0.0
 10
429.1181799385663
 20
45.02984543454958
 30
0.0
 10
429.2738568593146
 20
44.19663868755664
 30
0.0
 10
429.3479634088466
 20
43.68245046746494
 30
0.0
 10
429.3762231150442
 20
43.38067187471856
 30
0.0
 10
429.3845827250887
 20
43.20982228140069
 30
0.0
 10
429.3818716673475
 20
43.07447621140992
 30
0.0
 10
429.3691517171321
 20
42.97148534757728
 30
0.0
 10
429.3516124776195
 20
42.93223132987767
 30
0.0
 10
429.3428511505743
 20
42.91262288068248
 30
0.0
  0
SPLINE
  5
12B
330
1F
100
AcDbEntity
  8
0
  6
Continuous
 62
     7
370
    25
100
AcDbSpline
210
0.0
220
0.0
230
1.0
 70
     8
 71
     3
 72
    34
 73
    30
 74
     0
 42
0.00000001
 43
0.00000001
 40
0.0
 40
0.0
 40
0.0
 40
0.0
 40
0.0126153790624132
 40
0.0252422365934438
 40
0.0378809832459918
 40
0.0505320288195664
 40
0.0631957822222387
 40
0.0758726514329244
 40
0.0885630434636095
 40
0.1012673643218302
 40
0.113986018973232
 40
0.1267194113043435
 40
0.1880691142481878
 40
0.2502345547850741
 40
0.3121235083684051
 40
0.3751874773360676
 40
0.4369206419640119
 40
0.5005746447632657
 40
0.6246200077469066
 40
0.6853643022496426
 40
0.7502413376849819
 40
0.8088218398982258
 40
0.8744870063057045
 40
0.8892176085028453
 40
0.9064236036664495
 40
0.9261049326744194
 40
0.9482615143733659
 40
0.972893245624256
 40
1.0
 40
1.0
 40
1.0
 40
1.0
 10
446.936711398605
 20
60.50070822651088
 30
0.0
 10
446.9241341029927
 20
60.49247308506578
 30
0.0
 10
446.8989680679511
 20
60.47599530919312
 30
0.0
 10
446.8502139983402
 20
60.45468083485628
 30
0.0
 10
446.793382460182
 20
60.43585925463385
 30
0.0
 10
446.7276833280524
 20
60.41978903082529
 30
0.0
 10
446.6533324147007
 20
60.40641828532611
 30
0.0
 10
446.570279625395
 20
60.39577842452876
 30
0.0
 10
446.4785499139315
 20
60.387878635207
 30
0.0
 10
446.3781530922719
 20
60.38273371332131
 30
0.0
 10
446.2691032298615
 20
60.38035836754219
 30
0.0
 10
446.0017221004329
 20
60.38127573047097
 30
0.0
 10
445.4939455957047
 20
60.41180940604068
 30
0.0
 10
444.6113977772745
 20
60.51851162325217
 30
0.0
 10
443.5360380775483
 20
60.69112259535853
 30
0.0
 10
442.2889756179354
 20
60.92653372988155
 30
0.0
 10
440.8674200509574
 20
61.22601591880345
 30
0.0
 10
438.7889104973924
 20
61.69947070137999
 30
0.0
 10
436.4475625345115
 20
62.28110814269067
 30
0.0
 10
433.8973844265143
 20
62.95546426776239
 30
0.0
 10
431.9280552798068
 20
63.49360344505705
 30
0.0
 10
429.8354150486654
 20
64.08254864414187
 30
0.0
 10
428.2545493173915
 20
64.53768520326719
 30
0.0
 10
427.131357451692
 20
64.86612465717906
 30
0.0
 10
426.5346858321012
 20
65.04159712422403
 30
0.0
 10
425.8490428831157
 20
65.24422436520788
 30
0.0
 10
425.0736943648595
 20
65.47464239457784
 30
0.0
 10
424.208394771342
 20
65.7332360082647
 30
0.0
 10
423.6003070982229
 20
65.9167740154093
 30
0.0
 10
423.2817186626606
 20
66.01293298910221
 30
0.0
  0
SPLINE
  5
12C
330
1F
100
AcDbEntity
  8
0
  6
Continuous
 62
     7
370
    25
100
AcDbSpline
210
0.0
220
0.0
230
1.0
 70
     8
 71
     3
 72
    16
 73
    12
 74
     0
 42
0.00000001
 43
0.00000001
 40
0.0
 40
0.0
 40
0.0
 40
0.0
 40
0.2500000000000001
 40
0.2500000000000001
 40
0.375
 40
0.375
 40
0.5
 40
0.5
 40
0.75
 40
0.75
 40
1.0
 40
1.0
 40
1.0
 40
1.0
 10
423.2817186626608
 20
66.01293298910204
 30
0.0
 10
423.1933874608995
 20
92.82719638620895
 30
0.0
 10
423.1236802592398
 20
119.6581200188408
 30
0.0
 10
423.0483631495918
 20
159.9312597696452
 30
0.0
 10
423.0281150487202
 20
173.3601128209949
 30
0.0
 10
422.9966209007226
 20
200.2272654170126
 30
0.0
 10
422.9853906689903
 20
213.66674329016
 30
0.0
 10
422.96209408634
 20
253.9825852547239
 30
0.0
 10
422.9596986667375
 20
280.860906623867
 30
0.0
 10
422.9592239652997
 20
334.6199307541985
 30
0.0
 10
422.960884840278
 20
361.5006347804968
 30
0.0
 10
422.9745933668478
 20
388.3824437211472
 30
0.0
  0
SPLINE
  5
12D
330
1F
100
AcDbEntity
  8
0
  6
Continuous
 62
     7
370
    25
100
AcDbSpline
210
0.0
220
0.0
230
1.0
 70
     8
 71
     3
 72
    96
 73
    92
 74
     0
 42
0.00000001
 43
0.00000001
 40
0.0
 40
0.0
 40
0.0
 40
0.0
 40
0.0068412569590877
 40
0.0068412569590877
 40
0.0136825139181753
 40
0.0136825139181753
 40
0.0273650278363508
 40
0.0273650278363508
 40
0.0547300556727015
 40
0.0547300556727015
 40
0.0820950835090523
 40
0.0820950835090523
 40
0.109460111345403
 40
0.109460111345403
 40
0.1641901670181045
 40
0.1641901670181045
 40
0.1915551948544553
 40
0.1915551948544553
 40
0.2052377087726307
 40
0.2052377087726307
 40
0.218920222690806
 40
0.218920222690806
 40
0.2333725371713438
 40
0.2333725371713438
 40
0.2478248516518816
 40
0.2478248516518816
 40
0.2622771661324195
 40
0.2622771661324195
 40
0.2767294806129572
 40
0.2767294806129572
 40
0.3056341095740328
 40
0.3056341095740328
 40
0.3200864240545707
 40
0.3200864240545707
 40
0.3345387385351084
 40
0.3345387385351084
 40
0.363443367496184
 40
0.363443367496184
 40
0.3923479964572596
 40
0.3923479964572596
 40
0.4212526254183353
 40
0.4212526254183353
 40
0.4501572543794109
 40
0.4501572543794109
 40
0.4662370059320997
 40
0.4662370059320997
 40
0.4823167574847885
 40
0.4823167574847885
 40
0.4983965090374773
 40
0.4983965090374773
 40
0.514476260590166
 40
0.514476260590166
 40
0.5466357636955437
 40
0.5466357636955437
 40
0.5627155152482325
 40
0.5627155152482325
 40
0.5787952668009213
 40
0.5787952668009213
 40
0.6109547699062989
 40
0.6109547699062989
 40
0.6431142730116765
 40
0.6431142730116765
 40
0.6752737761170541
 40
0.6752737761170541
 40
0.6993934034460872
 40
0.6993934034460872
 40
0.7074332792224316
 40
0.7074332792224316
 40
0.7165759892467307
 40
0.7165759892467307
 40
0.7257186992710297
 40
0.7257186992710297
 40
0.7440041193196277
 40
0.7440041193196277
 40
0.7622895393682257
 40
0.7622895393682257
 40
0.7805749594168238
 40
0.7805749594168238
 40
0.8171457995140198
 40
0.8171457995140198
 40
0.8537166396112158
 40
0.8537166396112158
 40
0.8902874797084119
 40
0.8902874797084119
 40
0.926858319805608
 40
0.926858319805608
 40
0.963429159902804
 40
0.963429159902804
 40
0.981714579951402
 40
0.981714579951402
 40
1.0
 40
1.0
 40
1.0
 40
1.0
 10
422.9745933668476
 20
388.3824437211432
 30
0.0
 10
423.0548390013456
 20
388.408696358523
 30
0.0
 10
423.1360619808519
 20
388.4352653673828
 30
0.0
 10
423.299065845487
 20
388.4885792638935
 30
0.0
 10
423.3808467306156
 20
388.5153241515443
 30
0.0
 10
423.624931067844
 20
388.595137336429
 30
0.0
 10
423.7874998592977
 20
388.6482824470168
 30
0.0
 10
424.2749949354935
 20
388.8076082287799
 30
0.0
 10
424.5995475548002
 20
388.9136260652133
 30
0.0
 10
425.246924440012
 20
389.124986631391
 30
0.0
 10
425.5697701102358
 20
389.2303442449352
 30
0.0
 10
426.213009658634
 20
389.440127187018
 30
0.0
 10
426.5334035368084
 20
389.5445525155566
 30
0.0
 10
427.4897581123295
 20
389.855999654789
 30
0.0
 10
428.1211462775358
 20
390.0612627621501
 30
0.0
 10
429.05447947965
 20
390.3639617296479
 30
0.0
 10
429.363299247808
 20
390.4639952954648
 30
0.0
 10
429.8225601382676
 20
390.6125563679818
 30
0.0
 10
429.9749856414579
 20
390.661828512786
 30
0.0
 10
430.278425091753
 20
390.7598446867941
 30
0.0
 10
430.4294390388579
 20
390.808588715998
 30
0.0
 10
430.7384208309891
 20
390.9082436394454
 30
0.0
 10
430.8968580007217
 20
390.9593015546197
 30
0.0
 10
431.2130848578834
 20
391.0611194567078
 30
0.0
 10
431.3708745453125
 20
391.1118794436217
 30
0.0
 10
431.6857204977292
 20
391.2130693248652
 30
0.0
 10
431.8427767627169
 20
391.2634992191948
 30
0.0
 10
432.156069930113
 20
391.3639967509459
 30
0.0
 10
432.3123068325213
 20
391.4140643883674
 30
0.0
 10
432.779659585671
 20
391.5636756687835
 30
0.0
 10
433.0898014939199
 20
391.6627506104643
 30
0.0
 10
433.5512772329318
 20
391.8098302247977
 30
0.0
 10
433.7044796253754
 20
391.858601296544
 30
0.0
 10
434.0093724970448
 20
391.9555435189255
 30
0.0
 10
434.1610629762705
 20
392.0037146695606
 30
0.0
 10
434.6134672359743
 20
392.1471947572255
 30
0.0
 10
434.9109029512912
 20
392.241271375451
 30
0.0
 10
435.4968443498339
 20
392.4260780244848
 30
0.0
 10
435.7853500330596
 20
392.516808055293
 30
0.0
 10
436.3528355843004
 20
392.6947284891775
 30
0.0
 10
436.6318154523152
 20
392.7819188922538
 30
0.0
 10
437.1796535900144
 20
392.9525670303593
 30
0.0
 10
437.4485118596989
 20
393.0360247653884
 30
0.0
 10
437.8585972249557
 20
393.162855548615
 30
0.0
 10
438.0039533456914
 20
393.2077181096641
 30
0.0
 10
438.2921583569478
 20
393.2964800651204
 30
0.0
 10
438.4350072474684
 20
393.3403794595274
 30
0.0
 10
438.7181498992035
 20
393.427198597716
 30
0.0
 10
438.8584436604181
 20
393.4701183414974
 30
0.0
 10
439.1364281544497
 20
393.5549616944508
 30
0.0
 10
439.2741188872669
 20
393.5968853036227
 30
0.0
 10
439.6832146944857
 20
393.721137203249
 30
0.0
 10
439.950899331986
 20
393.8020268040233
 30
0.0
 10
440.3437658910643
 20
393.9200987424082
 30
0.0
 10
440.4733333168273
 20
393.9589294322662
 30
0.0
 10
440.7293500485758
 20
394.0354311825192
 30
0.0
 10
440.8557993545614
 20
394.073102242914
 30
0.0
 10
441.2299571949757
 20
394.1842164045191
 30
0.0
 10
441.4718735257289
 20
394.2555718385961
 30
0.0
 10
441.94036822616
 20
394.3927776184173
 30
0.0
 10
442.1669465958379
 20
394.4586279641615
 30
0.0
 10
442.6044718720891
 20
394.5847598263032
 30
0.0
 10
442.8154187786624
 20
394.6450413427009
 30
0.0
 10
443.1706415206734
 20
394.7456054973317
 30
0.0
 10
443.3184009422343
 20
394.7871202603312
 30
0.0
 10
443.5093590949443
 20
394.8403431366186
 30
0.0
 10
443.5565940990075
 20
394.8534713439367
 30
0.0
 10
443.6564601830534
 20
394.8811481249438
 30
0.0
 10
443.708900711905
 20
394.8956336047385
 30
0.0
 10
443.812386641086
 20
394.924122937317
 30
0.0
 10
443.8634320414151
 20
394.9381267901005
 30
0.0
 10
444.0144749915252
 20
394.9794167782924
 30
0.0
 10
444.1123792904284
 20
395.0059813435416
 30
0.0
 10
444.3026029093915
 20
395.0571909288547
 30
0.0
 10
444.394959163917
 20
395.081846672023
 30
0.0
 10
444.5740389610887
 20
395.129226965709
 30
0.0
 10
444.660762503735
 20
395.1519515162267
 30
0.0
 10
444.9123016609038
 20
395.2171787382925
 30
0.0
 10
445.0678267876008
 20
395.2565487749102
 30
0.0
 10
445.3554978298604
 20
395.3273641024193
 30
0.0
 10
445.4876437454229
 20
395.3588093933105
 30
0.0
 10
445.7295124437769
 20
395.4140800398255
 30
0.0
 10
445.8392671227871
 20
395.437914093409
 30
0.0
 10
446.0360279643747
 20
395.4778380035223
 30
0.0
 10
446.123034126952
 20
395.4939278600521
 30
0.0
 10
446.2739087595753
 20
395.5182217183517
 30
0.0
 10
446.3375612044954
 20
395.5263599785223
 30
0.0
 10
446.4141119433767
 20
395.5321834322119
 30
0.0
 10
446.4364742015873
 20
395.533060594014
 30
0.0
 10
446.4746809716067
 20
395.5326251165799
 30
0.0
 10
446.4905254834157
 20
395.5313124773436
 30
0.0
 10
446.5030069035728
 20
395.5288740264967
 30
0.0
  0
SPLINE
  5
12E
330
1F
100
AcDbEntity
  8
0
  6
Continuous
 62
     7
370
    25
100
AcDbSpline
210
0.0
220
0.0
230
1.0
 70
     8
 71
     3
 72
     8
 73
     4
 74
     0
 42
0.00000001
 43
0.00000001
 40
0.0
 40
0.0
 40
0.0
 40
0.0
 40
1.0
 40
1.0
 40
1.0
 40
1.0
 10
446.9740638411256
 20
60.53275103809624
 30
0.0
 10
446.9638843821402
 20
60.52206800823689
 30
0.0
 10
446.9514324352307
 20
60.51138569123115
 30
0.0
 10
446.936711398605
 20
60.50070822651088
 30
0.0
  0
SPLINE
  5
12F
330
1F
100
AcDbEntity
  8
0
  6
Continuous
 62
     7
370
    25
100
AcDbSpline
210
0.0
220
0.0
230
1.0
 70
     8
 71
     3
 72
    22
 73
    18
 74
     0
 42
0.00000001
 43
0.00000001
 40
0.0
 40
0.0
 40
0.0
 40
0.0
 40
0.125
 40
0.125
 40
0.25
 40
0.25
 40
0.375
 40
0.375
 40
0.5
 40
0.5
 40
0.625
 40
0.625
 40
0.75
 40
0.75
 40
0.875
 40
0.875
 40
1.0
 40
1.0
 40
1.0
 40
1.0
 10
79.34698501588655
 20
42.91262288068254
 30
0.0
 10
78.19906368994512
 20
42.91716495561776
 30
0.0
 10
77.05135605939873
 20
43.03426452510107
 30
0.0
 10
74.79978666533843
 20
43.48931257986622
 30
0.0
 10
73.6959915371882
 20
43.82725304321372
 30
0.0
 10
71.5743252126162
 20
44.71129453540429
 30
0.0
 10
70.556507845835
 20
45.25737585179906
 30
0.0
 10
68.64566065579587
 20
46.53699703866587
 30
0.0
 10
67.7526799745563
 20
47.27050566768942
 30
0.0
 10
66.12561834002506
 20
48.89703324750388
 30
0.0
 10
65.391578800643
 20
49.79001079792727
 30
0.0
 10
64.11038832927835
 20
51.70137954150162
 30
0.0
 10
63.56326868224082
 20
52.71972157503985
 30
0.0
 10
62.67668288251927
 20
54.84294480041446
 30
0.0
 10
62.33723651277751
 20
55.94777211219698
 30
0.0
 10
61.87876661253833
 20
58.20187382740566
 30
0.0
 10
61.75975114087851
 20
59.3510945663408
 30
0.0
 10
61.75312476785999
 20
60.50070822650944
 30
0.0
  0
SPLINE
  5
130
330
1F
100
AcDbEntity
  8
0
  6
Continuous
 62
     7
370
    25
100
AcDbSpline
210
0.0
220
0.0
230
1.0
 70
     8
 71
     3
 72
    30
 73
    26
 74
     0
 42
0.00000001
 43
0.00000001
 40
0.0
 40
0.0
 40
0.0
 40
0.0
 40
0.00390625
 40
0.00390625
 40
0.0625
 40
0.0625
 40
0.125
 40
0.125
 40
0.25
 40
0.25
 40
0.375
 40
0.375
 40
0.5
 40
0.5
 40
0.625
 40
0.625
 40
0.75
 40
0.75
 40
0.875
 40
0.875
 40
0.9375
 40
0.96875
 40
0.998046875
 40
0.998046875
 40
1.0
 40
1.0
 40
1.0
 40
1.0
 10
446.9367113986047
 20
60.50070822651088
 30
0.0
 10
446.9365043243536
 20
60.46478278327299
 30
0.0
 10
446.9361874951331
 20
60.42885772479717
 30
0.0
 10
446.9293632074698
 20
59.85407357786687
 30
0.0
 10
446.8982854671519
 20
59.31544953095253
 30
0.0
 10
446.7835146869157
 20
58.20741618804387
 30
0.0
 10
446.6964520836475
 20
57.63834842676413
 30
0.0
 10
446.3525996611952
 20
55.94777213980812
 30
0.0
 10
446.0131532767987
 20
54.84294477959628
 30
0.0
 10
445.126567474442
 20
52.71972155531896
 30
0.0
 10
444.5794478254157
 20
51.70137952120951
 30
0.0
 10
443.2982573515236
 20
49.79001077933015
 30
0.0
 10
442.5642178106543
 20
48.89703322952948
 30
0.0
 10
440.9371561739313
 20
47.27050565191387
 30
0.0
 10
440.0441754920724
 20
46.53699702438085
 30
0.0
 10
438.1333283003451
 20
45.25737584004813
 30
0.0
 10
437.1155109341378
 20
44.7112945256441
 30
0.0
 10
434.9938446084745
 20
43.82725303609447
 30
0.0
 10
433.8900495287079
 20
43.48931258733518
 30
0.0
 10
432.2013724837061
 20
43.14802654352906
 30
0.0
 10
431.3488126543846
 20
43.01879269181102
 30
0.0
 10
430.2216565421735
 20
42.93148496015714
 30
0.0
 10
429.6657008383543
 20
42.91480704383294
 30
0.0
 10
429.3787236237694
 20
42.91279230031869
 30
0.0
 10
429.3607874131278
 20
42.91269385057106
 30
0.0
 10
429.3428511505767
 20
42.91262288068254
 30
0.0
  0
SPLINE
  5
131
330
1F
100
AcDbEntity
  8
0
  6
Continuous
 62
     7
370
    25
100
AcDbSpline
210
0.0
220
0.0
230
1.0
 70
     8
 71
     3
 72
    12
 73
     8
 74
     0
 42
0.00000001
 43
0.00000001
 40
0.0
 40
0.0
 40
0.0
 40
0.0
 40
0.0625
 40
0.0625
 40
0.96875
 40
0.96875
 40
1.0
 40
1.0
 40
1.0
 40
1.0
 10
79.31288546934259
 20
412.6509165203274
 30
0.0
 10
79.3135482216645
 20
412.6522613697819
 30
0.0
 10
79.31421129221492
 20
412.6535907666027
 30
0.0
 10
79.32449372785752
 20
412.6739567405173
 30
0.0
 10
79.33417846145011
 20
412.6897576806768
 30
0.0
 10
79.3442466973844
 20
412.7027075175639
 30
0.0
 10
79.34458236219824
 20
412.7031352753875
 30
0.0
 10
79.34491808323233
 20
412.7035591285066
 30
0.0
  0
SPLINE
  5
132
330
1F
100
AcDbEntity
  8
0
  6
Continuous
 62
     7
370
    25
100
AcDbSpline
210
0.0
220
0.0
230
1.0
 70
     8
 71
     3
 72
     8
 73
     4
 74
     0
 42
0.00000001
 43
0.00000001
 40
0.0
 40
0.0
 40
0.0
 40
0.0
 40
1.0
 40
1.0
 40
1.0
 40
1.0
 10
429.3449180832324
 20
412.7035591285066
 30
0.0
 10
429.3555991415265
 20
412.6900227687354
 30
0.0
 10
429.3662791762547
 20
412.672472411362
 30
0.0
 10
429.3769506709421
 20
412.650916520243
 30
0.0
  0
SPLINE
  5
133
330
1F
100
AcDbEntity
  8
0
  6
Continuous
 62
     7
370
    25
100
AcDbSpline
210
0.0
220
0.0
230
1.0
 70
     8
 71
     3
 72
    42
 73
    38
 74
     0
 42
0.00000001
 43
0.00000001
 40
0.0
 40
0.0
 40
0.0
 40
0.0
 40
0.012969512526463
 40
0.0259577712503274
 40
0.0389652988749607
 40
0.0519926161757882
 40
0.0650402419478253
 40
0.0781086929535763
 40
0.0911984838718576
 40
0.1043101272471978
 40
0.1174441334399108
 40
0.1306010105769198
 40
0.1437812645033504
 40
0.1569853987348042
 40
0.1702139144104321
 40
0.1834673102468152
 40
0.1967460824925438
 40
0.2100507248836587
 40
0.2233817285999064
 40
0.2367395822217736
 40
0.2501247716884133
 40
0.3120592965753259
 40
0.3751490640885509
 40
0.4368556259137615
 40
0.5005223334745647
 40
0.5612501942585245
 40
0.6246542380928684
 40
0.6853840077534591
 40
0.7502774932139176
 40
0.8088450709046872
 40
0.87451207491273
 40
0.8892495984296296
 40
0.9064581025737837
 40
0.926137510982745
 40
0.948287720853427
 40
0.9729086029356819
 40
1.0
 40
1.0
 40
1.0
 40
1.0
 10
429.3769506709421
 20
412.6509165202431
 30
0.0
 10
429.3833008091864
 20
412.6365075062567
 30
0.0
 10
429.3960102641964
 20
412.6076686514244
 30
0.0
 10
429.4111214058541
 20
412.5524173113445
 30
0.0
 10
429.4233422697967
 20
412.4883339657305
 30
0.0
 10
429.43237523124
 20
412.414545641352
 30
0.0
 10
429.4382842740829
 20
412.3312756391048
 30
0.0
 10
429.4410361986097
 20
412.2384576474384
 30
0.0
 10
429.4406238408814
 20
412.1361079760137
 30
0.0
 10
429.4370329870748
 20
412.0242256265101
 30
0.0
 10
429.43025126756
 20
411.9028191729934
 30
0.0
 10
429.4202657758611
 20
411.7718995803859
 30
0.0
 10
429.4070637157711
 20
411.6314821712675
 30
0.0
 10
429.3906322369799
 20
411.4815861296312
 30
0.0
 10
429.3709584818853
 20
411.3222346782606
 30
0.0
 10
429.348029601568
 20
411.1534550211096
 30
0.0
 10
429.3218326835204
 20
410.9752785415676
 30
0.0
 10
429.2923550647523
 20
410.7877402008984
 30
0.0
 10
429.2595831879987
 20
410.590880878152
 30
0.0
 10
429.2235069155387
 20
410.3847387036933
 30
0.0
 10
429.1364912186905
 20
409.9091604283761
 30
0.0
 10
428.9695412210628
 20
409.0818785676136
 30
0.0
 10
428.6775617426957
 20
407.7889553979056
 30
0.0
 10
428.3180015697694
 20
406.319873843284
 30
0.0
 10
427.9031020932919
 20
404.7208540909726
 30
0.0
 10
427.4283361317487
 20
402.9749252119563
 30
0.0
 10
426.9109292738314
 20
401.1411802495941
 30
0.0
 10
426.3351680480103
 20
399.1654095935733
 30
0.0
 10
425.7342300193617
 20
397.1556849966561
 30
0.0
 10
425.0817640517824
 20
395.0245868106696
 30
0.0
 10
424.581241683871
 20
393.4183389120875
 30
0.0
 10
424.2216033818004
 20
392.2785939985486
 30
0.0
 10
424.0297843486931
 20
391.6734528898991
 30
0.0
 10
423.8087544027672
 20
390.9786872975843
 30
0.0
 10
423.5580045988214
 20
390.1937541595392
 30
0.0
 10
423.2772439867197
 20
389.318547155324
 30
0.0
 10
423.0786396310444
 20
388.7042605582284
 30
0.0
 10
422.9745933668475
 20
388.3824437211473
 30
0.0
  0
SPLINE
  5
134
330
1F
100
AcDbEntity
  8
0
  6
Continuous
 62
     7
370
    25
100
AcDbSpline
210
0.0
220
0.0
230
1.0
 70
     8
 71
     3
 72
    22
 73
    18
 74
     0
 42
0.00000001
 43
0.00000001
 40
0.0
 40
0.0
 40
0.0
 40
0.0
 40
0.1249999999999999
 40
0.1249999999999999
 40
0.2499999999999999
 40
0.2499999999999999
 40
0.3749999999999999
 40
0.3749999999999999
 40
0.4999999999999999
 40
0.4999999999999999
 40
0.6249999999999999
 40
0.6249999999999999
 40
0.7499999999999999
 40
0.7499999999999999
 40
0.8749999999999999
 40
0.8749999999999999
 40
1.0
 40
1.0
 40
1.0
 40
1.0
 10
422.9745933668474
 20
388.3824437211472
 30
0.0
 10
408.932984335989
 20
388.3522004764004
 30
0.0
 10
394.8884904914273
 20
388.3283813593895
 30
0.0
 10
366.7933948052356
 20
388.2967290879844
 30
0.0
 10
352.7428072310537
 20
388.2890709522671
 30
0.0
 10
324.6347417041294
 20
388.2925734700703
 30
0.0
 10
310.5772772302574
 20
388.3047369672005
 30
0.0
 10
282.4537041896398
 20
388.3353365671705
 30
0.0
 10
268.3844833671991
 20
388.3516064543882
 30
0.0
 10
240.2562256548636
 20
388.3515736094944
 30
0.0
 10
226.1964226358482
 20
388.3352907787925
 30
0.0
 10
198.0841480780979
 20
388.3047086442681
 30
0.0
 10
184.0315836445792
 20
388.2925622043468
 30
0.0
 10
155.9321308512685
 20
388.2890774432984
 30
0.0
 10
141.8852536065734
 20
388.2967386406215
 30
0.0
 10
113.7965283282369
 20
388.3283898400308
 30
0.0
 10
99.75469207131013
 20
388.3522051281553
 30
0.0
 10
85.71524279961706
 20
388.3824437211472
 30
0.0
  0
SPLINE
  5
135
330
1F
100
AcDbEntity
  8
0
  6
Continuous
 62
     7
370
    25
100
AcDbSpline
210
0.0
220
0.0
230
1.0
 70
     8
 71
     3
 72
    96
 73
    92
 74
     0
 42
0.00000001
 43
0.00000001
 40
0.0
 40
0.0
 40
0.0
 40
0.0
 40
0.0068412567205116
 40
0.0068412567205116
 40
0.0136825134410231
 40
0.0136825134410231
 40
0.0273650268820462
 40
0.0273650268820462
 40
0.0547300537640923
 40
0.0547300537640923
 40
0.0820950806461385
 40
0.0820950806461385
 40
0.1094601075281847
 40
0.1094601075281847
 40
0.164190161292277
 40
0.164190161292277
 40
0.1915551881743232
 40
0.1915551881743232
 40
0.2052377016153463
 40
0.2052377016153463
 40
0.2189202150563694
 40
0.2189202150563694
 40
0.2333725292487258
 40
0.2333725292487258
 40
0.2478248434410821
 40
0.2478248434410821
 40
0.2622771576334386
 40
0.2622771576334386
 40
0.276729471825795
 40
0.276729471825795
 40
0.3056341002105079
 40
0.3056341002105079
 40
0.3200864144028642
 40
0.3200864144028642
 40
0.3345387285952206
 40
0.3345387285952206
 40
0.3634433569799334
 40
0.3634433569799334
 40
0.3923479853646462
 40
0.3923479853646462
 40
0.4212526137493591
 40
0.4212526137493591
 40
0.4501572421340718
 40
0.4501572421340718
 40
0.4662369938858977
 40
0.4662369938858977
 40
0.4823167456377235
 40
0.4823167456377235
 40
0.4983964973895494
 40
0.4983964973895494
 40
0.5144762491413754
 40
0.5144762491413754
 40
0.5466357526450272
 40
0.5466357526450272
 40
0.562715504396853
 40
0.562715504396853
 40
0.5787952561486789
 40
0.5787952561486789
 40
0.6109547596523307
 40
0.6109547596523307
 40
0.6431142631559825
 40
0.6431142631559825
 40
0.6752737666596342
 40
0.6752737666596342
 40
0.6993933942873731
 40
0.6993933942873731
 40
0.707433270163286
 40
0.707433270163286
 40
0.7165759804706834
 40
0.7165759804706834
 40
0.7257186907780807
 40
0.7257186907780807
 40
0.7440041113928753
 40
0.7440041113928753
 40
0.7622895320076699
 40
0.7622895320076699
 40
0.7805749526224646
 40
0.7805749526224646
 40
0.8171457938520538
 40
0.8171457938520538
 40
0.853716635081643
 40
0.853716635081643
 40
0.8902874763112323
 40
0.8902874763112323
 40
0.9268583175408215
 40
0.9268583175408215
 40
0.9634291587704108
 40
0.9634291587704108
 40
0.9817145793852053
 40
0.9817145793852053
 40
1.0
 40
1.0
 40
1.0
 40
1.0
 10
85.715242799617
 20
388.3824437211473
 30
0.0
 10
85.68919024681892
 20
388.4628590315091
 30
0.0
 10
85.66283585647389
 20
388.5442660717932
 30
0.0
 10
85.60997728741259
 20
388.7076641274217
 30
0.0
 10
85.58347310869635
 20
388.789655142766
 30
0.0
 10
85.5044167200748
 20
389.0344049242127
 30
0.0
 10
85.45182543488895
 20
389.1974669140847
 30
0.0
 10
85.29430989846043
 20
389.6865911358285
 30
0.0
 10
85.18969683628657
 20
390.0124288941086
 30
0.0
 10
84.98153809464554
 20
390.6627710790726
 30
0.0
 10
84.8779779451212
 20
390.9872973205586
 30
0.0
 10
84.67217667376819
 20
391.6342879755211
 30
0.0
 10
84.56993555193954
 20
391.9567523889978
 30
0.0
 10
84.26561160565238
 20
392.9198946983873
 30
0.0
 10
84.06585582873267
 20
393.5565738677068
 30
0.0
 10
83.77251173845085
 20
394.4989509600571
 30
0.0
 10
83.67577879746324
 20
394.8109699422675
 30
0.0
 10
83.53243037606845
 20
395.2752949921485
 30
0.0
 10
83.48493940061796
 20
395.4294527715363
 30
0.0
 10
83.39057083915047
 20
395.7364432974048
 30
0.0
 10
83.3436932531334
 20
395.8892760438853
 30
0.0
 10
83.2479618777418
 20
396.2020847459042
 30
0.0
 10
83.19897319911068
 20
396.36254205845
 30
0.0
 10
83.10140161537099
 20
396.6829181923873
 30
0.0
 10
83.05281871026254
 20
396.8428370137788
 30
0.0
 10
82.95609111009966
 20
397.1620505515749
 30
0.0
 10
82.90794641504517
 20
397.3213452679794
 30
0.0
 10
82.81212767152174
 20
397.6392249819685
 30
0.0
 10
82.76445362305273
 20
397.7978099795531
 30
0.0
 10
82.62218610232085
 20
398.2723719733279
 30
0.0
 10
82.5282318807628
 20
398.5875474414523
 30
0.0
 10
82.38914993384894
 20
399.0568944435928
 30
0.0
 10
82.34309751578151
 20
399.212774077632
 30
0.0
 10
82.25169467429261
 20
399.5231250442857
 30
0.0
 10
82.20634425087108
 20
399.6775963769
 30
0.0
 10
82.07147427183253
 20
400.1384935704913
 30
0.0
 10
81.9833231339604
 20
400.4417800820744
 30
0.0
 10
81.81071831644809
 20
401.0397808805074
 30
0.0
 10
81.72626463680793
 20
401.3344951673574
 30
0.0
 10
81.56122783101787
 20
401.9147358598801
 30
0.0
 10
81.48064470486798
 20
402.2002622655528
 30
0.0
 10
81.32352210131683
 20
402.7615115392767
 30
0.0
 10
81.24698262391556
 20
403.037234407328
 30
0.0
 10
81.13114521910144
 20
403.458235212234
 30
0.0
 10
81.09026811364703
 20
403.6075499484483
 30
0.0
 10
81.00958941327221
 20
403.9037865755971
 30
0.0
 10
80.96978781835182
 20
404.0507084665315
 30
0.0
 10
80.8912772616557
 20
404.3421121531875
 30
0.0
 10
80.85256829987993
 20
404.486593948909
 30
0.0
 10
80.77626013208352
 20
404.7730701952057
 30
0.0
 10
80.73866092606288
 20
404.915064645781
 30
0.0
 10
80.62755362554955
 20
405.3372461048872
 30
0.0
 10
80.55566483091984
 20
405.6138963664417
 30
0.0
 10
80.45143261161705
 20
406.020556181537
 30
0.0
 10
80.41727379734989
 20
406.1547810428535
 30
0.0
 10
80.35022271627216
 20
406.4202216877605
 30
0.0
 10
80.31733044946156
 20
406.5514374713512
 30
0.0
 10
80.22069751489755
 20
406.9400428200922
 30
0.0
 10
80.15916426135774
 20
407.191763205219
 30
0.0
 10
80.04192725834328
 20
407.6801988363491
 30
0.0
 10
79.9862235088686
 20
407.9169140823523
 30
0.0
 10
79.88069761237685
 20
408.3750339908464
 30
0.0
 10
79.8308754653598
 20
408.5964386533372
 30
0.0
 10
79.74887869632389
 20
408.9702327882824
 30
0.0
 10
79.71540607724395
 20
409.1260382668401
 30
0.0
 10
79.67301570896254
 20
409.3278369882197
 30
0.0
 10
79.66260476609985
 20
409.3777915088398
 30
0.0
 10
79.64075457637435
 20
409.4834894999202
 30
0.0
 10
79.62937883305996
 20
409.5390428962222
 30
0.0
 10
79.60712762489938
 20
409.6487738038879
 30
0.0
 10
79.59625216005314
 20
409.7029513152517
 30
0.0
 10
79.5643749215944
 20
409.8634190550304
 30
0.0
 10
79.54412230406199
 20
409.967644489133
 30
0.0
 10
79.5056080898926
 20
410.1705840823442
 30
0.0
 10
79.48733866998347
 20
410.2693380837783
 30
0.0
 10
79.45279990809495
 20
410.4612844169969
 30
0.0
 10
79.4365305661155
 20
410.5544767487812
 30
0.0
 10
79.39075971244003
 20
410.825516120699
 30
0.0
 10
79.36441870177424
 20
410.994103436206
 30
0.0
 10
79.31984209520898
 20
411.3080868552738
 30
0.0
 10
79.30160649930956
 20
411.4534829588347
 30
0.0
 10
79.27300035347467
 20
411.7221039402741
 30
0.0
 10
79.26262291990649
 20
411.845362542804
 30
0.0
 10
79.24994659268813
 20
412.0694722456281
 30
0.0
 10
79.24764769903797
 20
412.1703233459222
 30
0.0
 10
79.25135571287522
 20
412.3493143184181
 30
0.0
 10
79.25741852313014
 20
412.4272283198799
 30
0.0
 10
79.2731548338618
 20
412.5254338301629
 30
0.0
 10
79.27950728666391
 20
412.5550580849389
 30
0.0
 10
79.29448103910855
 20
412.6078692197324
 30
0.0
 10
79.30310233875107
 20
412.63105609975
 30
0.0
 10
79.31288546934259
 20
412.6509165203274
 30
0.0
  0
SPLINE
  5
136
330
1F
100
AcDbEntity
  8
0
  6
Continuous
 62
     7
370
    25
100
AcDbSpline
210
0.0
220
0.0
230
1.0
 70
     8
 71
     3
 72
    22
 73
    18
 74
     0
 42
0.00000001
 43
0.00000001
 40
0.0
 40
0.0
 40
0.0
 40
0.0
 40
0.125
 40
0.125
 40
0.25
 40
0.25
 40
0.375
 40
0.375
 40
0.5
 40
0.5
 40
0.625
 40
0.625
 40
0.75
 40
0.75
 40
0.875
 40
0.875
 40
1.0
 40
1.0
 40
1.0
 40
1.0
 10
62.18682926285138
 20
395.5288740527124
 30
0.0
 10
62.19170089131524
 20
396.6457563889322
 30
0.0
 10
62.30612864397369
 20
397.7624066688184
 30
0.0
 10
62.74990424871022
 20
399.9530324998176
 30
0.0
 10
63.07924415764712
 20
401.0269434910935
 30
0.0
 10
63.94046991841432
 20
403.0911920097406
 30
0.0
 10
64.47233655724979
 20
404.0814774306465
 30
0.0
 10
65.71846023269592
 20
405.9407028545002
 30
0.0
 10
66.43268694406004
 20
406.8095952921025
 30
0.0
 10
68.01633993840098
 20
408.3928771324038
 30
0.0
 10
68.88572610243035
 20
409.1072264255908
 30
0.0
 10
70.74653640339976
 20
410.3542068192389
 30
0.0
 10
71.7379129306038
 20
410.8868075687467
 30
0.0
 10
73.80489928494791
 20
411.7500848927331
 30
0.0
 10
74.88045693954606
 20
412.0807421990049
 30
0.0
 10
77.07486877017475
 20
412.5276855013807
 30
0.0
 10
78.19366041114887
 20
412.6439634643774
 30
0.0
 10
79.31288546934259
 20
412.6509165203274
 30
0.0
  0
SPLINE
  5
137
330
1F
100
AcDbEntity
  8
0
  6
Continuous
 62
     7
370
    25
100
AcDbSpline
210
0.0
220
0.0
230
1.0
 70
     8
 71
     3
 72
    30
 73
    26
 74
     0
 42
0.00000001
 43
0.00000001
 40
0.0
 40
0.0
 40
0.0
 40
0.0
 40
0.00390625
 40
0.00390625
 40
0.0625
 40
0.0625
 40
0.125
 40
0.125
 40
0.25
 40
0.25
 40
0.375
 40
0.375
 40
0.5
 40
0.5
 40
0.625
 40
0.625
 40
0.75
 40
0.75
 40
0.875
 40
0.875
 40
0.9375
 40
0.96875
 40
0.998046875
 40
0.998046875
 40
1.0
 40
1.0
 40
1.0
 40
1.0
 10
429.3769506709419
 20
412.650916520243
 30
0.0
 10
429.4119264699251
 20
412.6506992371457
 30
0.0
 10
429.4469018446311
 20
412.6503751914535
 30
0.0
 10
430.0064907239866
 20
412.6434832994878
 30
0.0
 10
430.5308646054795
 20
412.6130152007389
 30
0.0
 10
431.6095710484693
 20
412.5008870814946
 30
0.0
 10
432.1635703047157
 20
412.4159496799882
 30
0.0
 10
433.809379180732
 20
412.0807422053365
 30
0.0
 10
434.8849368839288
 20
411.7500848843417
 30
0.0
 10
436.9519232403637
 20
410.8868075564857
 30
0.0
 10
437.9432997696348
 20
410.3542068042383
 30
0.0
 10
439.8041100718015
 20
409.1072264062394
 30
0.0
 10
440.6734962365546
 20
408.3928771105219
 30
0.0
 10
442.2571492311818
 20
406.8095952656816
 30
0.0
 10
442.9713759421914
 20
405.9407028261535
 30
0.0
 10
444.2174996170838
 20
404.0814773978275
 30
0.0
 10
444.7493662548014
 20
403.0911919759665
 30
0.0
 10
445.6105920143239
 20
401.0269434531122
 30
0.0
 10
445.9399319096031
 20
399.9530325070821
 30
0.0
 10
446.2727636163119
 20
398.3100631318521
 30
0.0
 10
446.3988819525248
 20
397.4805767322261
 30
0.0
 10
446.4843027811452
 20
396.3839138700974
 30
0.0
 10
446.5007542322336
 20
395.8429938921116
 30
0.0
 10
446.5028279181494
 20
395.5637765273286
 30
0.0
 10
446.5029307844125
 20
395.5463253051128
 30
0.0
 10
446.5030069035728
 20
395.5288740264967
 30
0.0
  0
CIRCLE
  5
138
330
1F
100
AcDbEntity
  8
0
  6
Continuous
 62
     7
370
    25
100
AcDbCircle
 10
254.3449180832
 20
310.5327510381
 30
0.0
 40
70.0
  0
CIRCLE
  5
139
330
1F
100
AcDbEntity
  8
0
  6
Continuous
 62
     7
370
    25
100
AcDbCircle
 10
254.3449180832
 20
310.5327510381
 30
0.0
 40
58.94765075494624
  0
CIRCLE
  5
13A
330
1F
100
AcDbEntity
  8
0
  6
Continuous
 62
     7
370
    25
100
AcDbCircle
 10
254.3449180832
 20
310.5327510381
 30
0.0
 40
57.49999999999994
  0
LWPOLYLINE
  5
13B
330
1F
100
AcDbEntity
  8
0
  6
Continuous
 62
     7
370
    25
100
AcDbPolyline
 90
        3
 70
   128
 43
0.0
 10
285.4974877129
 20
332.8112307365
 10
284.4281279885
 20
334.2353613163
 10
283.0003747442
 20
335.9429469396
  0
LWPOLYLINE
  5
13C
330
1F
100
AcDbEntity
  8
0
  6
Continuous
 62
     7
370
    25
100
AcDbPolyline
 90
        3
 70
   128
 43
0.0
 10
256.3447445137
 20
348.7795018341
 10
255.1071388962
 20
348.8241635432
 10
252.3380078117
 20
348.77913078
  0
LWPOLYLINE
  5
13D
330
1F
100
AcDbEntity
  8
0
  6
Continuous
 62
     7
370
    25
100
AcDbPolyline
 90
        3
 70
   128
 43
0.0
 10
225.6968563052
 20
335.9512838156
 10
225.2288037076
 20
335.4137706286
 10
223.1887981329
 20
332.8062653957
  0
ARC
  5
13E
330
1F
100
AcDbEntity
  8
0
  6
Continuous
 62
     7
370
    25
100
AcDbCircle
 10
254.3449180832
 20
310.5327510381
 30
0.0
 40
38.29899805739332
100
AcDbArc
 50
189.8638038788
 51
195.8624258108
  0
LWPOLYLINE
  5
13F
330
1F
100
AcDbEntity
  8
0
  6
Continuous
 62
     7
370
    25
100
AcDbPolyline
 90
        3
 70
   128
 43
0.0
 10
235.9382657694
 20
276.946914696
 10
238.9872287073
 20
275.4477880306
 10
239.5623738822
 20
275.2016084137
  0
LWPOLYLINE
  5
140
330
1F
100
AcDbEntity
  8
0
  6
Continuous
 62
     7
370
    25
100
AcDbPolyline
 90
        3
 70
   128
 43
0.0
 10
269.1317370002
 20
275.203397258
 10
271.7231462435
 20
276.403431704
 10
272.7413709673
 20
276.9413269319
  0
LWPOLYLINE
  5
141
330
1F
100
AcDbEntity
  8
0
  6
Continuous
 62
     7
370
    25
100
AcDbPolyline
 90
        3
 70
   128
 43
0.0
 10
291.1877056773
 20
300.0722417533
 10
291.7518699302
 20
302.3148920883
 10
292.0787775636
 20
303.9776689704
  0
LINE
  5
142
330
1F
100
AcDbEntity
  8
0
  6
Continuous
 62
     7
370
    25
100
AcDbLine
 10
254.6717585422
 20
326.9521174805
 30
0.0
 11
253.0702469649
 21
326.9058274929
 31
0.0
  0
LWPOLYLINE
  5
143
330
1F
100
AcDbEntity
  8
0
  6
Continuous
 62
     7
370
    25
100
AcDbPolyline
 90
        3
 70
   128
 43
0.0
 10
242.3677691847
 20
321.7688679527
 10
241.2534835961
 20
320.4482319707
 10
240.7535759787
 20
319.7510935602
  0
LWPOLYLINE
  5
144
330
1F
100
AcDbEntity
  8
0
  6
Continuous
 62
     7
370
    25
100
AcDbPolyline
 90
        3
 70
   128
 43
0.0
 10
267.962228148
 20
319.7126903438
 10
267.8205765737
 20
319.9193929992
 10
266.3596225118
 20
321.7287010447
  0
LINE
  5
145
330
1F
100
AcDbEntity
  8
0
  6
Continuous
 62
     7
370
    25
100
AcDbLine
 10
255.6750268343
 20
326.9014171342
 30
0.0
 11
254.6717585422
 21
326.9521174805
 31
0.0
  0
LWPOLYLINE
  5
146
330
1F
100
AcDbEntity
  8
0
  6
Continuous
 62
     7
370
    25
100
AcDbPolyline
 90
        3
 70
   128
 43
0.0
 10
238.0974110944
 20
308.1409032791
 10
238.6281733785
 20
305.7697315188
 10
238.6779364525
 20
305.6085144843
  0
LWPOLYLINE
  5
147
330
1F
100
AcDbEntity
  8
0
  6
Continuous
 62
     7
370
    25
100
AcDbPolyline
 90
        3
 70
   128
 43
0.0
 10
246.0799965412
 20
296.3414335883
 10
246.5994647253
 20
296.0513708782
 10
248.4133056261
 20
295.2187576753
  0
LWPOLYLINE
  5
148
330
1F
100
AcDbEntity
  8
0
  6
Continuous
 62
     7
370
    25
100
AcDbPolyline
 90
        3
 70
   128
 43
0.0
 10
260.2941798096
 20
295.2256055182
 10
261.5079374785
 20
295.7546059516
 10
262.6194705187
 20
296.3470469298
  0
LWPOLYLINE
  5
149
330
1F
100
AcDbEntity
  8
0
  6
Continuous
 62
     7
370
    25
100
AcDbPolyline
 90
        3
 70
   128
 43
0.0
 10
270.0225330016
 20
305.6424739983
 10
270.511005766
 20
307.6413797218
 10
270.5981177638
 20
308.1798976214
  0
LINE
  5
14A
330
1F
100
AcDbEntity
  8
0
  6
Continuous
 62
     7
370
    25
100
AcDbLine
 10
254.5216855616
 20
319.4129551948
 30
0.0
 11
254.5830393948
 21
322.4951656212
 31
0.0
  0
LINE
  5
14B
330
1F
100
AcDbEntity
  8
0
  6
Continuous
 62
     7
370
    25
100
AcDbLine
 10
254.6544943386
 20
326.0848218986
 30
0.0
 11
254.6717585422
 21
326.9521174805
 31
0.0
  0
LINE
  5
14C
330
1F
100
AcDbEntity
  8
0
  6
Continuous
 62
     7
370
    25
100
AcDbLine
 10
245.3761046971
 20
309.7841614016
 30
0.0
 11
245.4757581791
 21
309.7924790642
 31
0.0
  0
LWPOLYLINE
  5
14D
330
1F
100
AcDbEntity
  8
0
  6
Continuous
 62
     7
370
    25
100
AcDbPolyline
 90
        3
 70
   128
 43
0.0
 10
288.0051991949
 20
334.8100483114
 10
287.464091407
 20
335.543189774
 10
285.5078017091
 20
337.9421722566
  0
LWPOLYLINE
  5
14E
330
1F
100
AcDbEntity
  8
0
  6
Continuous
 62
     7
370
    25
100
AcDbPolyline
 90
        3
 70
   128
 43
0.0
 10
256.3480882953
 20
351.986206823
 10
254.3449180832
 20
352.034578557
 10
252.343846197
 20
351.986308168
  0
LWPOLYLINE
  5
14F
330
1F
100
AcDbEntity
  8
0
  6
Continuous
 62
     7
370
    25
100
AcDbPolyline
 90
        3
 70
   128
 43
0.0
 10
223.1826955993
 20
337.9429239174
 10
221.2257447595
 20
335.543189774
 10
220.6861191282
 20
334.8121031777
  0
LWPOLYLINE
  5
150
330
1F
100
AcDbEntity
  8
0
  6
Continuous
 62
     7
370
    25
100
AcDbPolyline
 90
        4
 70
   128
 43
0.0
 10
290.3533392972
 20
336.6793301963
 10
290.3461743329
 20
336.6891947651
 10
287.8565983204
 20
339.8110243424
 10
287.8522134272
 20
339.8160424981
  0
LWPOLYLINE
  5
151
330
1F
100
AcDbEntity
  8
0
  6
Continuous
 62
     7
370
    25
100
AcDbPolyline
 90
        4
 70
   128
 43
0.0
 10
256.3544705683
 20
354.987353711
 10
256.3414030338
 20
354.9879424992
 10
252.3484331326
 20
354.9879424992
 10
252.3387925865
 20
354.9875084943
  0
LWPOLYLINE
  5
152
330
1F
100
AcDbEntity
  8
0
  6
Continuous
 62
     7
370
    25
100
AcDbPolyline
 90
        4
 70
   128
 43
0.0
 10
220.8421741959
 20
339.8212496684
 10
220.8332378461
 20
339.8110243424
 10
218.3436618335
 20
336.6891947651
 10
218.3367682365
 20
336.6797039125
  0
LWPOLYLINE
  5
153
330
1F
100
AcDbEntity
  8
0
  6
Continuous
 62
     7
370
    25
100
AcDbPolyline
 90
        4
 70
   128
 43
0.0
 10
210.5594412619
 20
302.5903320406
 10
210.5600513906
 20
302.5869692196
 10
211.4485707823
 20
298.6941114104
 10
211.4515026928
 20
298.6834929963
  0
LWPOLYLINE
  5
154
330
1F
100
AcDbEntity
  8
0
  6
Continuous
 62
     7
370
    25
100
AcDbPolyline
 90
        4
 70
   128
 43
0.0
 10
233.2549009004
 20
271.3477899532
 10
233.2577626032
 20
271.3462498705
 10
236.8553041746
 20
269.6137651596
 10
236.8641812475
 20
269.6099720552
  0
LWPOLYLINE
  5
155
330
1F
100
AcDbEntity
  8
0
  6
Continuous
 62
     7
370
    25
100
AcDbPolyline
 90
        4
 70
   128
 43
0.0
 10
271.8312172049
 20
269.6123485104
 10
271.8345319918
 20
269.6137651596
 10
275.4320735633
 20
271.3462498705
 10
275.4392999983
 20
271.3501394403
  0
LWPOLYLINE
  5
156
330
1F
100
AcDbEntity
  8
0
  6
Continuous
 62
     7
370
    25
100
AcDbPolyline
 90
        4
 70
   128
 43
0.0
 10
297.240099691
 20
298.6898884267
 10
297.2412653842
 20
298.6941114104
 10
298.1297847759
 20
302.5869692196
 10
298.1309942856
 20
302.5936370572
  0
LWPOLYLINE
  5
157
330
1F
100
AcDbEntity
  8
0
  6
Continuous
 62
     7
370
    25
100
AcDbPolyline
 90
        3
 70
   128
 43
0.0
 10
213.4850875596
 20
303.2611668233
 10
213.5497380444
 20
302.906810243
 10
214.378048814
 20
299.3501284374
  0
LWPOLYLINE
  5
158
330
1F
100
AcDbEntity
  8
0
  6
Continuous
 62
     7
370
    25
100
AcDbPolyline
 90
        3
 70
   128
 43
0.0
 10
234.5495796389
 20
274.0560973636
 10
235.8459617232
 20
273.381838519
 10
238.1704839709
 20
272.3124767251
  0
LWPOLYLINE
  5
159
330
1F
100
AcDbEntity
  8
0
  6
Continuous
 62
     7
370
    25
100
AcDbPolyline
 90
        3
 70
   128
 43
0.0
 10
270.5192775608
 20
272.3124451406
 10
272.8438744432
 20
273.381838519
 10
274.1420831116
 20
274.0570886829
  0
LWPOLYLINE
  5
15A
330
1F
100
AcDbEntity
  8
0
  6
Continuous
 62
     7
370
    25
100
AcDbPolyline
 90
        3
 70
   128
 43
0.0
 10
294.3113663639
 20
299.3486239269
 10
295.1400981221
 20
302.906810243
 10
295.2056111235
 20
303.2660150666
  0
LWPOLYLINE
  5
15B
330
1F
100
AcDbEntity
  8
0
  6
Continuous
 62
     7
370
    25
100
AcDbPolyline
 90
        3
 70
   128
 43
0.0
 10
287.3233107863
 20
334.2674536351
 10
286.2833541205
 20
335.6494147525
 10
284.8262964456
 20
337.3990136323
  0
ARC
  5
15C
330
1F
100
AcDbEntity
  8
0
  6
Continuous
 62
     7
370
    25
100
AcDbCircle
 10
254.3449180832
 20
310.5327510381
 30
0.0
 40
40.63139786726586
100
AcDbArc
 50
87.1768308217
 51
92.8256469467
  0
LWPOLYLINE
  5
15D
330
1F
100
AcDbEntity
  8
0
  6
Continuous
 62
     7
370
    25
100
AcDbPolyline
 90
        3
 70
   128
 43
0.0
 10
223.8633835197
 20
337.3988364116
 10
222.4064820459
 20
335.6494147525
 10
221.3652933383
 20
334.26574167
  0
LWPOLYLINE
  5
15E
330
1F
100
AcDbEntity
  8
0
  6
Continuous
 62
     7
370
    25
100
AcDbPolyline
 90
        3
 70
   128
 43
0.0
 10
214.3345254144
 20
303.4561013272
 10
214.4477825075
 20
302.8432084316
 10
215.2277772575
 20
299.5436752685
  0
LWPOLYLINE
  5
15F
330
1F
100
AcDbEntity
  8
0
  6
Continuous
 62
     7
370
    25
100
AcDbPolyline
 90
        3
 70
   128
 43
0.0
 10
234.9261023775
 20
274.8421347751
 10
237.4660254099
 20
273.5731315221
 10
238.5489989943
 20
273.0974811341
  0
LWPOLYLINE
  5
160
330
1F
100
AcDbEntity
  8
0
  6
Continuous
 62
     7
370
    25
100
AcDbPolyline
 90
        3
 70
   128
 43
0.0
 10
270.1412287262
 20
273.0976463539
 10
271.2238107565
 20
273.5731315221
 10
273.7618228045
 20
274.8410950987
  0
LWPOLYLINE
  5
161
330
1F
100
AcDbEntity
  8
0
  6
Continuous
 62
     7
370
    25
100
AcDbPolyline
 90
        3
 70
   128
 43
0.0
 10
293.4625564355
 20
299.5454464374
 10
294.242053659
 20
302.8432084316
 10
294.3545975267
 20
303.4520700341
  0
ENDSEC
  0
SECTION
  2
OBJECTS
  0
DICTIONARY
  5
C
330
0
100
AcDbDictionary
281
     1
  3
ACAD_GROUP
350
D
  3
ACAD_LAYOUT
350
1A
  3
ACAD_MLINESTYLE
350
17
  3
ACAD_PLOTSETTINGS
350
19
  3
ACAD_PLOTSTYLENAME
350
E
  3
ACAD_SCALELIST
350
47
  3
DWGPROPS
350
162
  0
DICTIONARY
  5
D
102
{ACAD_REACTORS
330
C
102
}
330
C
100
AcDbDictionary
281
     1
  0
DICTIONARY
  5
1A
102
{ACAD_REACTORS
330
C
102
}
330
C
100
AcDbDictionary
281
     1
  3
Layout1
350
1E
  3
Layout2
350
26
  3
Model
350
22
  0
DICTIONARY
  5
17
102
{ACAD_REACTORS
330
C
102
}
330
C
100
AcDbDictionary
281
     1
  3
Standard
350
18
  0
DICTIONARY
  5
19
102
{ACAD_REACTORS
330
C
102
}
330
C
100
AcDbDictionary
281
     1
  0
ACDBDICTIONARYWDFLT
  5
E
102
{ACAD_REACTORS
330
C
102
}
330
C
100
AcDbDictionary
281
     1
  3
Normal
350
F
100
AcDbDictionaryWithDefault
340
F
  0
DICTIONARY
  5
47
102
{ACAD_REACTORS
330
C
102
}
330
C
100
AcDbDictionary
281
     1
  3
A0
350
48
  3
A1
350
49
  3
A2
350
4A
  3
A3
350
4B
  3
A4
350
4C
  3
A5
350
4D
  3
A6
350
4E
  3
A7
350
4F
  3
A8
350
50
  3
A9
350
51
  3
B0
350
52
  3
B1
350
53
  3
B2
350
54
  3
B3
350
55
  3
B4
350
56
  3
B5
350
57
  3
B6
350
58
  0
XRECORD
  5
162
102
{ACAD_REACTORS
330
C
102
}
330
C
100
AcDbXrecord
280
     1
  1
DWGPROPS COOKIE
  2

  3

  4

  6

  7

  8
villesi
  9

300
=
301
=
302
=
303
=
304
=
305
=
306
=
307
=
308
=
309
=
 40
0.0
 41
2460406.180943681
 42
2460406.180944248
  1

 90
        0
  0
LAYOUT
  5
1E
102
{ACAD_REACTORS
330
1A
102
}
330
1A
100
AcDbPlotSettings
  1

  2
none_device
  4

  6

 40
0.0
 41
0.0
 42
0.0
 43
0.0
 44
0.0
 45
0.0
 46
0.0
 47
0.0
 48
0.0
 49
0.0
140
0.0
141
0.0
142
1.0
143
1.0
 70
   688
 72
     1
 73
     0
 74
     5
  7

 75
    16
147
1.0
148
0.0
149
0.0
100
AcDbLayout
  1
Layout1
 70
     1
 71
     1
 10
0.0
 20
0.0
 11
420.0
 21
297.0
 12
0.0
 22
0.0
 32
0.0
 14
1.0000000000E+20
 24
1.0000000000E+20
 34
1.0000000000E+20
 15
-1.0000000000E+20
 25
-1.0000000000E+20
 35
-1.0000000000E+20
146
0.0
 13
0.0
 23
0.0
 33
0.0
 16
1.0
 26
0.0
 36
0.0
 17
0.0
 27
1.0
 37
0.0
 76
     0
330
1B
  0
LAYOUT
  5
26
102
{ACAD_REACTORS
330
1A
102
}
330
1A
100
AcDbPlotSettings
  1

  2
none_device
  4

  6

 40
0.0
 41
0.0
 42
0.0
 43
0.0
 44
0.0
 45
0.0
 46
0.0
 47
0.0
 48
0.0
 49
0.0
140
0.0
141
0.0
142
1.0
143
1.0
 70
   688
 72
     1
 73
     0
 74
     5
  7

 75
    16
147
1.0
148
0.0
149
0.0
100
AcDbLayout
  1
Layout2
 70
     1
 71
     2
 10
0.0
 20
0.0
 11
0.0
 21
0.0
 12
0.0
 22
0.0
 32
0.0
 14
0.0
 24
0.0
 34
0.0
 15
0.0
 25
0.0
 35
0.0
146
0.0
 13
0.0
 23
0.0
 33
0.0
 16
1.0
 26
0.0
 36
0.0
 17
0.0
 27
1.0
 37
0.0
 76
     0
330
23
  0
LAYOUT
  5
22
102
{ACAD_REACTORS
330
1A
102
}
330
1A
100
AcDbPlotSettings
  1

  2
none_device
  4
Letter_(8.50_x_11.00_Inches)
  6

 40
6.35
 41
6.35
 42
6.35000508
 43
6.35000508
 44
215.9
 45
279.4
 46
0.0
 47
0.0
 48
0.0
 49
0.0
140
0.0
141
0.0
142
1.0
143
1.0
 70
  1712
 72
     1
 73
     0
 74
     0
  7

 75
     0
147
1.0
148
0.0
149
0.0
100
AcDbLayout
  1
Model
 70
     1
 71
     0
 10
0.0
 20
0.0
 11
500.0
 21
450.0
 12
0.0
 22
0.0
 32
0.0
 14
0.0
 24
0.0
 34
0.0
 15
500.0
 25
450.0
 35
0.0
146
0.0
 13
0.0
 23
0.0
 33
0.0
 16
1.0
 26
0.0
 36
0.0
 17
0.0
 27
1.0
 37
0.0
 76
     0
330
1F
331
29
  0
MLINESTYLE
  5
18
102
{ACAD_REACTORS
330
17
102
}
330
17
100
AcDbMlineStyle
  2
Standard
 70
     0
  3

 62
   256
 51
90.0
 52
90.0
 71
     2
 49
0.5
 62
   256
  6
BYLAYER
 49
-0.5
 62
   256
  6
BYLAYER
  0
ACDBPLACEHOLDER
  5
F
102
{ACAD_REACTORS
330
E
102
}
330
E
  0
SCALE
  5
48
102
{ACAD_REACTORS
330
47
102
}
330
47
100
AcDbScale
 70
     0
300
1:1
140
1.0
141
1.0
290
     1
  0
SCALE
  5
49
102
{ACAD_REACTORS
330
47
102
}
330
47
100
AcDbScale
 70
     0
300
1:2
140
1.0
141
2.0
290
     0
  0
SCALE
  5
4A
102
{ACAD_REACTORS
330
47
102
}
330
47
100
AcDbScale
 70
     0
300
1:4
140
1.0
141
4.0
290
     0
  0
SCALE
  5
4B
102
{ACAD_REACTORS
330
47
102
}
330
47
100
AcDbScale
 70
     0
300
1:5
140
1.0
141
5.0
290
     0
  0
SCALE
  5
4C
102
{ACAD_REACTORS
330
47
102
}
330
47
100
AcDbScale
 70
     0
300
1:8
140
1.0
141
8.0
290
     0
  0
SCALE
  5
4D
102
{ACAD_REACTORS
330
47
102
}
330
47
100
AcDbScale
 70
     0
300
1:10
140
1.0
141
10.0
290
     0
  0
SCALE
  5
4E
102
{ACAD_REACTORS
330
47
102
}
330
47
100
AcDbScale
 70
     0
300
1:16
140
1.0
141
16.0
290
     0
  0
SCALE
  5
4F
102
{ACAD_REACTORS
330
47
102
}
330
47
100
AcDbScale
 70
     0
300
1:20
140
1.0
141
20.0
290
     0
  0
SCALE
  5
50
102
{ACAD_REACTORS
330
47
102
}
330
47
100
AcDbScale
 70
     0
300
1:30
140
1.0
141
30.0
290
     0
  0
SCALE
  5
51
102
{ACAD_REACTORS
330
47
102
}
330
47
100
AcDbScale
 70
     0
300
1:40
140
1.0
141
40.0
290
     0
  0
SCALE
  5
52
102
{ACAD_REACTORS
330
47
102
}
330
47
100
AcDbScale
 70
     0
300
1:50
140
1.0
141
50.0
290
     0
  0
SCALE
  5
53
102
{ACAD_REACTORS
330
47
102
}
330
47
100
AcDbScale
 70
     0
300
1:100
140
1.0
141
100.0
290
     0
  0
SCALE
  5
54
102
{ACAD_REACTORS
330
47
102
}
330
47
100
AcDbScale
 70
     0
300
2:1
140
2.0
141
1.0
290
     0
  0
SCALE
  5
55
102
{ACAD_REACTORS
330
47
102
}
330
47
100
AcDbScale
 70
     0
300
4:1
140
4.0
141
1.0
290
     0
  0
SCALE
  5
56
102
{ACAD_REACTORS
330
47
102
}
330
47
100
AcDbScale
 70
     0
300
8:1
140
8.0
141
1.0
290
     0
  0
SCALE
  5
57
102
{ACAD_REACTORS
330
47
102
}
330
47
100
AcDbScale
 70
     0
300
10:1
140
10.0
141
1.0
290
     0
  0
SCALE
  5
58
102
{ACAD_REACTORS
330
47
102
}
330
47
100
AcDbScale
 70
     0
300
100:1
140
100.0
141
1.0
290
     0
  0
ENDSEC
  0
EOF
